  0
SECTION
  2
HEADER
  9
$ACADVER
  1
AC1018
  9
$ACADMAINTVER
 70
     0
  9
$DWGCODEPAGE
  3
ANSI_932
  9
$INSBASE
 10
0.0
 20
0.0
 30
0.0
  9
$EXTMIN
 10
1.000000000000000E+20
 20
1.000000000000000E+20
 30
1.000000000000000E+20
  9
$EXTMAX
 10
-1.000000000000000E+20
 20
-1.000000000000000E+20
 30
-1.000000000000000E+20
  9
$LIMMIN
 10
0.0
 20
0.0
  9
$LIMMAX
 10
12.0
 20
9.0
  9
$ORTHOMODE
 70
     0
  9
$REGENMODE
 70
     1
  9
$FILLMODE
 70
     1
  9
$QTEXTMODE
 70
     0
  9
$MIRRTEXT
 70
     1
  9
$LTSCALE
 40
1.0
  9
$ATTMODE
 70
     1
  9
$TEXTSIZE
 40
0.2
  9
$TRACEWID
 40
0.05
  9
$TEXTSTYLE
  7
Standard
  9
$CLAYER
  8
0
  9
$CELTYPE
  6
ByLayer
  9
$CECOLOR
 62
   256
  9
$CELTSCALE
 40
1.0
  9
$DISPSILH
 70
     0
  9
$DIMSCALE
 40
1.0
  9
$DIMASZ
 40
0.18
  9
$DIMEXO
 40
0.0625
  9
$DIMDLI
 40
0.38
  9
$DIMRND
 40
0.0
  9
$DIMDLE
 40
0.0
  9
$DIMEXE
 40
0.18
  9
$DIMTP
 40
0.0
  9
$DIMTM
 40
0.0
  9
$DIMTXT
 40
0.18
  9
$DIMCEN
 40
0.09
  9
$DIMTSZ
 40
0.0
  9
$DIMTOL
 70
     0
  9
$DIMLIM
 70
     0
  9
$DIMTIH
 70
     1
  9
$DIMTOH
 70
     1
  9
$DIMSE1
 70
     0
  9
$DIMSE2
 70
     0
  9
$DIMTAD
 70
     0
  9
$DIMZIN
 70
     0
  9
$DIMBLK
  1

  9
$DIMASO
 70
     1
  9
$DIMSHO
 70
     1
  9
$DIMPOST
  1

  9
$DIMAPOST
  1

  9
$DIMALT
 70
     0
  9
$DIMALTD
 70
     2
  9
$DIMALTF
 40
25.4
  9
$DIMLFAC
 40
1.0
  9
$DIMTOFL
 70
     0
  9
$DIMTVP
 40
0.0
  9
$DIMTIX
 70
     0
  9
$DIMSOXD
 70
     0
  9
$DIMSAH
 70
     0
  9
$DIMBLK1
  1

  9
$DIMBLK2
  1

  9
$DIMSTYLE
  2
Standard
  9
$DIMCLRD
 70
     0
  9
$DIMCLRE
 70
     0
  9
$DIMCLRT
 70
     0
  9
$DIMTFAC
 40
1.0
  9
$DIMGAP
 40
0.09
  9
$DIMJUST
 70
     0
  9
$DIMSD1
 70
     0
  9
$DIMSD2
 70
     0
  9
$DIMTOLJ
 70
     1
  9
$DIMTZIN
 70
     0
  9
$DIMALTZ
 70
     0
  9
$DIMALTTZ
 70
     0
  9
$DIMUPT
 70
     0
  9
$DIMDEC
 70
     4
  9
$DIMTDEC
 70
     4
  9
$DIMALTU
 70
     2
  9
$DIMALTTD
 70
     2
  9
$DIMTXSTY
  7
Standard
  9
$DIMAUNIT
 70
     0
  9
$DIMADEC
 70
     0
  9
$DIMALTRND
 40
0.0
  9
$DIMAZIN
 70
     0
  9
$DIMDSEP
 70
    46
  9
$DIMATFIT
 70
     3
  9
$DIMFRAC
 70
     0
  9
$DIMLDRBLK
  1

  9
$DIMLUNIT
 70
     2
  9
$DIMLWD
 70
    -2
  9
$DIMLWE
 70
    -2
  9
$DIMTMOVE
 70
     0
  9
$LUNITS
 70
     2
  9
$LUPREC
 70
     4
  9
$SKETCHINC
 40
0.1
  9
$FILLETRAD
 40
0.5
  9
$AUNITS
 70
     0
  9
$AUPREC
 70
     0
  9
$MENU
  1
.
  9
$ELEVATION
 40
0.0
  9
$PELEVATION
 40
0.0
  9
$THICKNESS
 40
0.0
  9
$LIMCHECK
 70
     0
  9
$CHAMFERA
 40
0.5
  9
$CHAMFERB
 40
0.5
  9
$CHAMFERC
 40
1.0
  9
$CHAMFERD
 40
0.0
  9
$SKPOLY
 70
     0
  9
$TDCREATE
 40
2457039.480462963
  9
$TDUCREATE
 40
2457039.438796296
  9
$TDUPDATE
 40
2457039.480462974
  9
$TDUUPDATE
 40
2457039.438796308
  9
$TDINDWG
 40
0.0000000116
  9
$TDUSRTIMER
 40
0.0000000116
  9
$USRTIMER
 70
     1
  9
$ANGBASE
 50
0.0
  9
$ANGDIR
 70
     0
  9
$PDMODE
 70
     0
  9
$PDSIZE
 40
0.0
  9
$PLINEWID
 40
0.0
  9
$SPLFRAME
 70
     0
  9
$SPLINETYPE
 70
     6
  9
$SPLINESEGS
 70
     8
  9
$HANDSEED
  5
571
  9
$SURFTAB1
 70
     6
  9
$SURFTAB2
 70
     6
  9
$SURFTYPE
 70
     6
  9
$SURFU
 70
     6
  9
$SURFV
 70
     6
  9
$UCSBASE
  2

  9
$UCSNAME
  2

  9
$UCSORG
 10
0.0
 20
0.0
 30
0.0
  9
$UCSXDIR
 10
1.0
 20
0.0
 30
0.0
  9
$UCSYDIR
 10
0.0
 20
1.0
 30
0.0
  9
$UCSORTHOREF
  2

  9
$UCSORTHOVIEW
 70
     0
  9
$UCSORGTOP
 10
0.0
 20
0.0
 30
0.0
  9
$UCSORGBOTTOM
 10
0.0
 20
0.0
 30
0.0
  9
$UCSORGLEFT
 10
0.0
 20
0.0
 30
0.0
  9
$UCSORGRIGHT
 10
0.0
 20
0.0
 30
0.0
  9
$UCSORGFRONT
 10
0.0
 20
0.0
 30
0.0
  9
$UCSORGBACK
 10
0.0
 20
0.0
 30
0.0
  9
$PUCSBASE
  2

  9
$PUCSNAME
  2

  9
$PUCSORG
 10
0.0
 20
0.0
 30
0.0
  9
$PUCSXDIR
 10
1.0
 20
0.0
 30
0.0
  9
$PUCSYDIR
 10
0.0
 20
1.0
 30
0.0
  9
$PUCSORTHOREF
  2

  9
$PUCSORTHOVIEW
 70
     0
  9
$PUCSORGTOP
 10
0.0
 20
0.0
 30
0.0
  9
$PUCSORGBOTTOM
 10
0.0
 20
0.0
 30
0.0
  9
$PUCSORGLEFT
 10
0.0
 20
0.0
 30
0.0
  9
$PUCSORGRIGHT
 10
0.0
 20
0.0
 30
0.0
  9
$PUCSORGFRONT
 10
0.0
 20
0.0
 30
0.0
  9
$PUCSORGBACK
 10
0.0
 20
0.0
 30
0.0
  9
$USERI1
 70
     0
  9
$USERI2
 70
     0
  9
$USERI3
 70
     0
  9
$USERI4
 70
     0
  9
$USERI5
 70
     0
  9
$USERR1
 40
0.0
  9
$USERR2
 40
0.0
  9
$USERR3
 40
0.0
  9
$USERR4
 40
0.0
  9
$USERR5
 40
0.0
  9
$WORLDVIEW
 70
     1
  9
$SHADEDGE
 70
     3
  9
$SHADEDIF
 70
    70
  9
$TILEMODE
 70
     1
  9
$MAXACTVP
 70
    64
  9
$PINSBASE
 10
0.0
 20
0.0
 30
0.0
  9
$PLIMCHECK
 70
     0
  9
$PEXTMIN
 10
1.000000000000000E+20
 20
1.000000000000000E+20
 30
1.000000000000000E+20
  9
$PEXTMAX
 10
-1.000000000000000E+20
 20
-1.000000000000000E+20
 30
-1.000000000000000E+20
  9
$PLIMMIN
 10
0.0
 20
0.0
  9
$PLIMMAX
 10
12.0
 20
9.0
  9
$UNITMODE
 70
     0
  9
$VISRETAIN
 70
     1
  9
$PLINEGEN
 70
     0
  9
$PSLTSCALE
 70
     1
  9
$TREEDEPTH
 70
  3020
  9
$CMLSTYLE
  2
Standard
  9
$CMLJUST
 70
     0
  9
$CMLSCALE
 40
1.0
  9
$PROXYGRAPHICS
 70
     1
  9
$MEASUREMENT
 70
     0
  9
$CELWEIGHT
370
    -1
  9
$ENDCAPS
280
     0
  9
$JOINSTYLE
280
     0
  9
$LWDISPLAY
290
     1
  9
$INSUNITS
 70
     1
  9
$HYPERLINKBASE
  1

  9
$STYLESHEET
  1

  9
$XEDIT
290
     1
  9
$CEPSNTYPE
380
     0
  9
$PSTYLEMODE
290
     1
  9
$FINGERPRINTGUID
  2
{8128F94D-DF3F-D4F7-F2B2-90707C09673B}
  9
$VERSIONGUID
  2
{FAEB1C32-E019-11D5-929B-00C0DF256EC4}
  9
$EXTNAMES
290
     1
  9
$PSVPSCALE
 40
0.0
  9
$OLESTARTUP
290
     0
  9
$SORTENTS
280
   127
  9
$INDEXCTL
280
     0
  9
$HIDETEXT
280
     1
  9
$XCLIPFRAME
290
     0
  9
$HALOGAP
280
     0
  9
$OBSCOLOR
 70
   257
  9
$OBSLTYPE
280
     0
  9
$INTERSECTIONDISPLAY
280
     0
  9
$INTERSECTIONCOLOR
 70
   257
  9
$DIMASSOC
280
     2
  9
$PROJECTNAME
  1

  0
ENDSEC
  0
SECTION
  2
CLASSES
  0
CLASS
  1
ACDBDICTIONARYWDFLT
  2
AcDbDictionaryWithDefault
  3
ObjectDBX Classes
 90
        0
 91
        3
280
     0
281
     0
  0
CLASS
  1
VISUALSTYLE
  2
AcDbVisualStyle
  3
ObjectDBX Classes
 90
     4095
 91
        3
280
     0
281
     0
  0
ENDSEC
  0
SECTION
  2
TABLES
  0
TABLE
  2
VPORT
  5
8
330
0
100
AcDbSymbolTable
 70
     1
  0
VPORT
  5
29
330
8
100
AcDbSymbolTableRecord
100
AcDbViewportTableRecord
  2
*Active
 70
     0
 10
0.0
 20
0.0
 11
1.0
 21
1.0
 12
0.0
 22
0.0
 13
0.0
 23
0.0
 14
0.5
 24
0.5
 15
0.5
 25
0.5
 16
0.0
 26
0.0
 36
1.0
 17
999.9997705290799
 27
999.9997705290799
 37
0.0
 40
1999.99954105816
 41
1.0
 42
50.0
 43
0.0
 44
0.0
 50
0.0
 51
0.0
 71
     0
 72
   100
 73
     1
 74
     3
 75
     0
 76
     0
 77
     0
 78
     0
281
     0
 65
     1
110
0.0
120
0.0
130
0.0
111
1.0
121
0.0
131
0.0
112
0.0
122
1.0
132
0.0
 79
     0
146
0.0
  0
ENDTAB
  0
TABLE
  2
LTYPE
  5
5
330
0
100
AcDbSymbolTable
 70
     1
  0
LTYPE
  5
14
330
5
100
AcDbSymbolTableRecord
100
AcDbLinetypeTableRecord
  2
ByBlock
 70
     0
  3

 72
    65
 73
     0
 40
0.0
  0
LTYPE
  5
15
330
5
100
AcDbSymbolTableRecord
100
AcDbLinetypeTableRecord
  2
ByLayer
 70
     0
  3

 72
    65
 73
     0
 40
0.0
  0
LTYPE
  5
16
330
5
100
AcDbSymbolTableRecord
100
AcDbLinetypeTableRecord
  2
Continuous
 70
     0
  3
Solid line
 72
    65
 73
     0
 40
0.0
  0
ENDTAB
  0
TABLE
  2
LAYER
  5
2
330
0
100
AcDbSymbolTable
 70
     3
  0
LAYER
  5
10
330
2
100
AcDbSymbolTableRecord
100
AcDbLayerTableRecord
  2
0
 70
     0
 62
     7
  6
Continuous
370
    -3
390
F
  0
LAYER
  5
3B
330
2
100
AcDbSymbolTableRecord
100
AcDbLayerTableRecord
  2
quote
 70
     0
 62
     7
  6
Continuous
370
    -3
390
F
  0
LAYER
  5
CE
330
2
100
AcDbSymbolTableRecord
100
AcDbLayerTableRecord
  2
Predefinito
 70
     0
 62
     7
  6
Continuous
370
    -3
390
F
  0
ENDTAB
  0
TABLE
  2
STYLE
  5
3
330
0
100
AcDbSymbolTable
 70
     1
  0
STYLE
  5
11
330
3
100
AcDbSymbolTableRecord
100
AcDbTextStyleTableRecord
  2
Standard
 70
     0
 40
0.0
 41
1.0
 50
0.0
 71
     0
 42
0.2
  3
txt
  4

  0
ENDTAB
  0
TABLE
  2
VIEW
  5
6
330
0
100
AcDbSymbolTable
 70
     0
  0
ENDTAB
  0
TABLE
  2
UCS
  5
7
330
0
100
AcDbSymbolTable
 70
     0
  0
ENDTAB
  0
TABLE
  2
APPID
  5
9
330
0
100
AcDbSymbolTable
 70
     1
  0
APPID
  5
12
330
9
100
AcDbSymbolTableRecord
100
AcDbRegAppTableRecord
  2
ACAD
 70
     0
  0
ENDTAB
  0
TABLE
  2
DIMSTYLE
  5
A
330
0
100
AcDbSymbolTable
 70
     1
100
AcDbDimStyleTable
  0
DIMSTYLE
105
27
330
A
100
AcDbSymbolTableRecord
100
AcDbDimStyleTableRecord
  2
Standard
 70
     0
340
11
  0
ENDTAB
  0
TABLE
  2
BLOCK_RECORD
  5
1
330
0
100
AcDbSymbolTable
 70
   207
  0
BLOCK_RECORD
  5
1F
330
1
100
AcDbSymbolTableRecord
100
AcDbBlockTableRecord
  2
*Model_Space
340
22
  0
BLOCK_RECORD
  5
1B
330
1
100
AcDbSymbolTableRecord
100
AcDbBlockTableRecord
  2
*Paper_Space
340
1E
  0
BLOCK_RECORD
  5
23
330
1
100
AcDbSymbolTableRecord
100
AcDbBlockTableRecord
  2
*Paper_Space0
340
26
  0
BLOCK_RECORD
  5
3C
330
1
100
AcDbSymbolTableRecord
100
AcDbBlockTableRecord
  2
block 2
340
0
102
{BLKREFS
331
3D
102
}
  0
BLOCK_RECORD
  5
40
330
1
100
AcDbSymbolTableRecord
100
AcDbBlockTableRecord
  2
block 3
340
0
102
{BLKREFS
331
41
102
}
  0
BLOCK_RECORD
  5
48
330
1
100
AcDbSymbolTableRecord
100
AcDbBlockTableRecord
  2
block 4
340
0
102
{BLKREFS
331
49
102
}
  0
BLOCK_RECORD
  5
4D
330
1
100
AcDbSymbolTableRecord
100
AcDbBlockTableRecord
  2
block 5
340
0
102
{BLKREFS
331
4E
102
}
  0
BLOCK_RECORD
  5
55
330
1
100
AcDbSymbolTableRecord
100
AcDbBlockTableRecord
  2
block 6
340
0
102
{BLKREFS
331
56
102
}
  0
BLOCK_RECORD
  5
5D
330
1
100
AcDbSymbolTableRecord
100
AcDbBlockTableRecord
  2
block 7
340
0
102
{BLKREFS
331
5E
102
}
  0
BLOCK_RECORD
  5
61
330
1
100
AcDbSymbolTableRecord
100
AcDbBlockTableRecord
  2
block 8
340
0
102
{BLKREFS
331
62
102
}
  0
BLOCK_RECORD
  5
68
330
1
100
AcDbSymbolTableRecord
100
AcDbBlockTableRecord
  2
block 9
340
0
102
{BLKREFS
331
69
102
}
  0
BLOCK_RECORD
  5
6F
330
1
100
AcDbSymbolTableRecord
100
AcDbBlockTableRecord
  2
block 10
340
0
102
{BLKREFS
331
70
102
}
  0
BLOCK_RECORD
  5
77
330
1
100
AcDbSymbolTableRecord
100
AcDbBlockTableRecord
  2
block 11
340
0
102
{BLKREFS
331
78
102
}
  0
BLOCK_RECORD
  5
7C
330
1
100
AcDbSymbolTableRecord
100
AcDbBlockTableRecord
  2
block 12
340
0
102
{BLKREFS
331
7D
102
}
  0
BLOCK_RECORD
  5
84
330
1
100
AcDbSymbolTableRecord
100
AcDbBlockTableRecord
  2
block 13
340
0
102
{BLKREFS
331
85
102
}
  0
BLOCK_RECORD
  5
8C
330
1
100
AcDbSymbolTableRecord
100
AcDbBlockTableRecord
  2
block 14
340
0
102
{BLKREFS
331
8D
102
}
  0
BLOCK_RECORD
  5
90
330
1
100
AcDbSymbolTableRecord
100
AcDbBlockTableRecord
  2
block 15
340
0
102
{BLKREFS
331
91
102
}
  0
BLOCK_RECORD
  5
98
330
1
100
AcDbSymbolTableRecord
100
AcDbBlockTableRecord
  2
block 16
340
0
102
{BLKREFS
331
99
102
}
  0
BLOCK_RECORD
  5
9D
330
1
100
AcDbSymbolTableRecord
100
AcDbBlockTableRecord
  2
block 17
340
0
102
{BLKREFS
331
9E
102
}
  0
BLOCK_RECORD
  5
A5
330
1
100
AcDbSymbolTableRecord
100
AcDbBlockTableRecord
  2
block 18
340
0
102
{BLKREFS
331
A6
102
}
  0
BLOCK_RECORD
  5
AD
330
1
100
AcDbSymbolTableRecord
100
AcDbBlockTableRecord
  2
block 19
340
0
102
{BLKREFS
331
AE
102
}
  0
BLOCK_RECORD
  5
B1
330
1
100
AcDbSymbolTableRecord
100
AcDbBlockTableRecord
  2
block 20
340
0
102
{BLKREFS
331
B2
102
}
  0
BLOCK_RECORD
  5
B9
330
1
100
AcDbSymbolTableRecord
100
AcDbBlockTableRecord
  2
block 21
340
0
102
{BLKREFS
331
BA
102
}
  0
BLOCK_RECORD
  5
BE
330
1
100
AcDbSymbolTableRecord
100
AcDbBlockTableRecord
  2
block 22
340
0
102
{BLKREFS
331
BF
102
}
  0
BLOCK_RECORD
  5
C6
330
1
100
AcDbSymbolTableRecord
100
AcDbBlockTableRecord
  2
block 23
340
0
102
{BLKREFS
331
C7
102
}
  0
BLOCK_RECORD
  5
CF
330
1
100
AcDbSymbolTableRecord
100
AcDbBlockTableRecord
  2
block 24
340
0
102
{BLKREFS
331
D0
102
}
  0
BLOCK_RECORD
  5
D7
330
1
100
AcDbSymbolTableRecord
100
AcDbBlockTableRecord
  2
block 25
340
0
102
{BLKREFS
331
D8
102
}
  0
BLOCK_RECORD
  5
DF
330
1
100
AcDbSymbolTableRecord
100
AcDbBlockTableRecord
  2
block 26
340
0
102
{BLKREFS
331
E0
102
}
  0
BLOCK_RECORD
  5
E7
330
1
100
AcDbSymbolTableRecord
100
AcDbBlockTableRecord
  2
block 27
340
0
102
{BLKREFS
331
E8
102
}
  0
BLOCK_RECORD
  5
EC
330
1
100
AcDbSymbolTableRecord
100
AcDbBlockTableRecord
  2
block 28
340
0
102
{BLKREFS
331
ED
102
}
  0
BLOCK_RECORD
  5
F1
330
1
100
AcDbSymbolTableRecord
100
AcDbBlockTableRecord
  2
block 29
340
0
102
{BLKREFS
331
F2
102
}
  0
BLOCK_RECORD
  5
F9
330
1
100
AcDbSymbolTableRecord
100
AcDbBlockTableRecord
  2
block 30
340
0
102
{BLKREFS
331
FA
102
}
  0
BLOCK_RECORD
  5
101
330
1
100
AcDbSymbolTableRecord
100
AcDbBlockTableRecord
  2
block 31
340
0
102
{BLKREFS
331
102
102
}
  0
BLOCK_RECORD
  5
106
330
1
100
AcDbSymbolTableRecord
100
AcDbBlockTableRecord
  2
block 32
340
0
102
{BLKREFS
331
107
102
}
  0
BLOCK_RECORD
  5
10B
330
1
100
AcDbSymbolTableRecord
100
AcDbBlockTableRecord
  2
block 33
340
0
102
{BLKREFS
331
10C
102
}
  0
BLOCK_RECORD
  5
110
330
1
100
AcDbSymbolTableRecord
100
AcDbBlockTableRecord
  2
block 34
340
0
102
{BLKREFS
331
111
102
}
  0
BLOCK_RECORD
  5
115
330
1
100
AcDbSymbolTableRecord
100
AcDbBlockTableRecord
  2
block 35
340
0
102
{BLKREFS
331
116
102
}
  0
BLOCK_RECORD
  5
11A
330
1
100
AcDbSymbolTableRecord
100
AcDbBlockTableRecord
  2
block 36
340
0
102
{BLKREFS
331
11B
102
}
  0
BLOCK_RECORD
  5
11F
330
1
100
AcDbSymbolTableRecord
100
AcDbBlockTableRecord
  2
block 37
340
0
102
{BLKREFS
331
120
102
}
  0
BLOCK_RECORD
  5
124
330
1
100
AcDbSymbolTableRecord
100
AcDbBlockTableRecord
  2
block 38
340
0
102
{BLKREFS
331
125
102
}
  0
BLOCK_RECORD
  5
129
330
1
100
AcDbSymbolTableRecord
100
AcDbBlockTableRecord
  2
block 39
340
0
102
{BLKREFS
331
12A
102
}
  0
BLOCK_RECORD
  5
12E
330
1
100
AcDbSymbolTableRecord
100
AcDbBlockTableRecord
  2
block 40
340
0
102
{BLKREFS
331
12F
102
}
  0
BLOCK_RECORD
  5
136
330
1
100
AcDbSymbolTableRecord
100
AcDbBlockTableRecord
  2
block 41
340
0
102
{BLKREFS
331
137
102
}
  0
BLOCK_RECORD
  5
13B
330
1
100
AcDbSymbolTableRecord
100
AcDbBlockTableRecord
  2
block 42
340
0
102
{BLKREFS
331
13C
102
}
  0
BLOCK_RECORD
  5
143
330
1
100
AcDbSymbolTableRecord
100
AcDbBlockTableRecord
  2
block 43
340
0
102
{BLKREFS
331
144
102
}
  0
BLOCK_RECORD
  5
14B
330
1
100
AcDbSymbolTableRecord
100
AcDbBlockTableRecord
  2
block 44
340
0
102
{BLKREFS
331
14C
102
}
  0
BLOCK_RECORD
  5
150
330
1
100
AcDbSymbolTableRecord
100
AcDbBlockTableRecord
  2
block 45
340
0
102
{BLKREFS
331
151
102
}
  0
BLOCK_RECORD
  5
158
330
1
100
AcDbSymbolTableRecord
100
AcDbBlockTableRecord
  2
block 46
340
0
102
{BLKREFS
331
159
102
}
  0
BLOCK_RECORD
  5
15D
330
1
100
AcDbSymbolTableRecord
100
AcDbBlockTableRecord
  2
block 47
340
0
102
{BLKREFS
331
15E
102
}
  0
BLOCK_RECORD
  5
162
330
1
100
AcDbSymbolTableRecord
100
AcDbBlockTableRecord
  2
block 48
340
0
102
{BLKREFS
331
163
102
}
  0
BLOCK_RECORD
  5
16A
330
1
100
AcDbSymbolTableRecord
100
AcDbBlockTableRecord
  2
block 49
340
0
102
{BLKREFS
331
16B
102
}
  0
BLOCK_RECORD
  5
172
330
1
100
AcDbSymbolTableRecord
100
AcDbBlockTableRecord
  2
block 50
340
0
102
{BLKREFS
331
173
102
}
  0
BLOCK_RECORD
  5
17A
330
1
100
AcDbSymbolTableRecord
100
AcDbBlockTableRecord
  2
block 51
340
0
102
{BLKREFS
331
17B
102
}
  0
BLOCK_RECORD
  5
182
330
1
100
AcDbSymbolTableRecord
100
AcDbBlockTableRecord
  2
block 52
340
0
102
{BLKREFS
331
183
102
}
  0
BLOCK_RECORD
  5
187
330
1
100
AcDbSymbolTableRecord
100
AcDbBlockTableRecord
  2
block 53
340
0
102
{BLKREFS
331
188
102
}
  0
BLOCK_RECORD
  5
18C
330
1
100
AcDbSymbolTableRecord
100
AcDbBlockTableRecord
  2
block 54
340
0
102
{BLKREFS
331
18D
102
}
  0
BLOCK_RECORD
  5
191
330
1
100
AcDbSymbolTableRecord
100
AcDbBlockTableRecord
  2
block 55
340
0
102
{BLKREFS
331
192
102
}
  0
BLOCK_RECORD
  5
196
330
1
100
AcDbSymbolTableRecord
100
AcDbBlockTableRecord
  2
block 56
340
0
102
{BLKREFS
331
197
102
}
  0
BLOCK_RECORD
  5
19B
330
1
100
AcDbSymbolTableRecord
100
AcDbBlockTableRecord
  2
block 57
340
0
102
{BLKREFS
331
19C
102
}
  0
BLOCK_RECORD
  5
1A0
330
1
100
AcDbSymbolTableRecord
100
AcDbBlockTableRecord
  2
block 58
340
0
102
{BLKREFS
331
1A1
102
}
  0
BLOCK_RECORD
  5
1A8
330
1
100
AcDbSymbolTableRecord
100
AcDbBlockTableRecord
  2
block 59
340
0
102
{BLKREFS
331
1A9
102
}
  0
BLOCK_RECORD
  5
1B0
330
1
100
AcDbSymbolTableRecord
100
AcDbBlockTableRecord
  2
block 60
340
0
102
{BLKREFS
331
1B1
102
}
  0
BLOCK_RECORD
  5
1B8
330
1
100
AcDbSymbolTableRecord
100
AcDbBlockTableRecord
  2
block 61
340
0
102
{BLKREFS
331
1B9
102
}
  0
BLOCK_RECORD
  5
1C0
330
1
100
AcDbSymbolTableRecord
100
AcDbBlockTableRecord
  2
block 62
340
0
102
{BLKREFS
331
1C1
102
}
  0
BLOCK_RECORD
  5
1C8
330
1
100
AcDbSymbolTableRecord
100
AcDbBlockTableRecord
  2
block 63
340
0
102
{BLKREFS
331
1C9
102
}
  0
BLOCK_RECORD
  5
1D0
330
1
100
AcDbSymbolTableRecord
100
AcDbBlockTableRecord
  2
block 64
340
0
102
{BLKREFS
331
1D1
102
}
  0
BLOCK_RECORD
  5
1D5
330
1
100
AcDbSymbolTableRecord
100
AcDbBlockTableRecord
  2
block 65
340
0
102
{BLKREFS
331
1D6
102
}
  0
BLOCK_RECORD
  5
1DD
330
1
100
AcDbSymbolTableRecord
100
AcDbBlockTableRecord
  2
block 66
340
0
102
{BLKREFS
331
1DE
102
}
  0
BLOCK_RECORD
  5
1E2
330
1
100
AcDbSymbolTableRecord
100
AcDbBlockTableRecord
  2
block 67
340
0
102
{BLKREFS
331
1E3
102
}
  0
BLOCK_RECORD
  5
1EA
330
1
100
AcDbSymbolTableRecord
100
AcDbBlockTableRecord
  2
block 68
340
0
102
{BLKREFS
331
1EB
102
}
  0
BLOCK_RECORD
  5
1EF
330
1
100
AcDbSymbolTableRecord
100
AcDbBlockTableRecord
  2
block 69
340
0
102
{BLKREFS
331
1F0
102
}
  0
BLOCK_RECORD
  5
1F4
330
1
100
AcDbSymbolTableRecord
100
AcDbBlockTableRecord
  2
block 70
340
0
102
{BLKREFS
331
1F5
102
}
  0
BLOCK_RECORD
  5
1F9
330
1
100
AcDbSymbolTableRecord
100
AcDbBlockTableRecord
  2
block 71
340
0
102
{BLKREFS
331
1FA
102
}
  0
BLOCK_RECORD
  5
1FE
330
1
100
AcDbSymbolTableRecord
100
AcDbBlockTableRecord
  2
block 72
340
0
102
{BLKREFS
331
1FF
102
}
  0
BLOCK_RECORD
  5
203
330
1
100
AcDbSymbolTableRecord
100
AcDbBlockTableRecord
  2
block 73
340
0
102
{BLKREFS
331
204
102
}
  0
BLOCK_RECORD
  5
208
330
1
100
AcDbSymbolTableRecord
100
AcDbBlockTableRecord
  2
block 74
340
0
102
{BLKREFS
331
209
102
}
  0
BLOCK_RECORD
  5
210
330
1
100
AcDbSymbolTableRecord
100
AcDbBlockTableRecord
  2
block 75
340
0
102
{BLKREFS
331
211
102
}
  0
BLOCK_RECORD
  5
215
330
1
100
AcDbSymbolTableRecord
100
AcDbBlockTableRecord
  2
block 76
340
0
102
{BLKREFS
331
216
102
}
  0
BLOCK_RECORD
  5
21A
330
1
100
AcDbSymbolTableRecord
100
AcDbBlockTableRecord
  2
block 77
340
0
102
{BLKREFS
331
21B
102
}
  0
BLOCK_RECORD
  5
21F
330
1
100
AcDbSymbolTableRecord
100
AcDbBlockTableRecord
  2
block 78
340
0
102
{BLKREFS
331
220
102
}
  0
BLOCK_RECORD
  5
224
330
1
100
AcDbSymbolTableRecord
100
AcDbBlockTableRecord
  2
block 79
340
0
102
{BLKREFS
331
225
102
}
  0
BLOCK_RECORD
  5
229
330
1
100
AcDbSymbolTableRecord
100
AcDbBlockTableRecord
  2
block 80
340
0
102
{BLKREFS
331
22A
102
}
  0
BLOCK_RECORD
  5
231
330
1
100
AcDbSymbolTableRecord
100
AcDbBlockTableRecord
  2
block 81
340
0
102
{BLKREFS
331
232
102
}
  0
BLOCK_RECORD
  5
236
330
1
100
AcDbSymbolTableRecord
100
AcDbBlockTableRecord
  2
block 82
340
0
102
{BLKREFS
331
237
102
}
  0
BLOCK_RECORD
  5
23E
330
1
100
AcDbSymbolTableRecord
100
AcDbBlockTableRecord
  2
block 83
340
0
102
{BLKREFS
331
23F
102
}
  0
BLOCK_RECORD
  5
246
330
1
100
AcDbSymbolTableRecord
100
AcDbBlockTableRecord
  2
block 84
340
0
102
{BLKREFS
331
247
102
}
  0
BLOCK_RECORD
  5
24E
330
1
100
AcDbSymbolTableRecord
100
AcDbBlockTableRecord
  2
block 85
340
0
102
{BLKREFS
331
24F
102
}
  0
BLOCK_RECORD
  5
253
330
1
100
AcDbSymbolTableRecord
100
AcDbBlockTableRecord
  2
block 86
340
0
102
{BLKREFS
331
254
102
}
  0
BLOCK_RECORD
  5
25B
330
1
100
AcDbSymbolTableRecord
100
AcDbBlockTableRecord
  2
block 87
340
0
102
{BLKREFS
331
25C
102
}
  0
BLOCK_RECORD
  5
260
330
1
100
AcDbSymbolTableRecord
100
AcDbBlockTableRecord
  2
block 88
340
0
102
{BLKREFS
331
261
102
}
  0
BLOCK_RECORD
  5
265
330
1
100
AcDbSymbolTableRecord
100
AcDbBlockTableRecord
  2
block 89
340
0
102
{BLKREFS
331
266
102
}
  0
BLOCK_RECORD
  5
26A
330
1
100
AcDbSymbolTableRecord
100
AcDbBlockTableRecord
  2
block 90
340
0
102
{BLKREFS
331
26B
102
}
  0
BLOCK_RECORD
  5
26F
330
1
100
AcDbSymbolTableRecord
100
AcDbBlockTableRecord
  2
block 91
340
0
102
{BLKREFS
331
270
102
}
  0
BLOCK_RECORD
  5
274
330
1
100
AcDbSymbolTableRecord
100
AcDbBlockTableRecord
  2
block 92
340
0
102
{BLKREFS
331
275
102
}
  0
BLOCK_RECORD
  5
27C
330
1
100
AcDbSymbolTableRecord
100
AcDbBlockTableRecord
  2
block 93
340
0
102
{BLKREFS
331
27D
102
}
  0
BLOCK_RECORD
  5
281
330
1
100
AcDbSymbolTableRecord
100
AcDbBlockTableRecord
  2
block 94
340
0
102
{BLKREFS
331
282
102
}
  0
BLOCK_RECORD
  5
289
330
1
100
AcDbSymbolTableRecord
100
AcDbBlockTableRecord
  2
block 95
340
0
102
{BLKREFS
331
28A
102
}
  0
BLOCK_RECORD
  5
28E
330
1
100
AcDbSymbolTableRecord
100
AcDbBlockTableRecord
  2
block 96
340
0
102
{BLKREFS
331
28F
102
}
  0
BLOCK_RECORD
  5
293
330
1
100
AcDbSymbolTableRecord
100
AcDbBlockTableRecord
  2
block 97
340
0
102
{BLKREFS
331
294
102
}
  0
BLOCK_RECORD
  5
298
330
1
100
AcDbSymbolTableRecord
100
AcDbBlockTableRecord
  2
block 98
340
0
102
{BLKREFS
331
299
102
}
  0
BLOCK_RECORD
  5
29D
330
1
100
AcDbSymbolTableRecord
100
AcDbBlockTableRecord
  2
block 99
340
0
102
{BLKREFS
331
29E
102
}
  0
BLOCK_RECORD
  5
2A2
330
1
100
AcDbSymbolTableRecord
100
AcDbBlockTableRecord
  2
block 100
340
0
102
{BLKREFS
331
2A3
102
}
  0
BLOCK_RECORD
  5
2A7
330
1
100
AcDbSymbolTableRecord
100
AcDbBlockTableRecord
  2
block 101
340
0
102
{BLKREFS
331
2A8
102
}
  0
BLOCK_RECORD
  5
2AF
330
1
100
AcDbSymbolTableRecord
100
AcDbBlockTableRecord
  2
block 102
340
0
102
{BLKREFS
331
2B0
102
}
  0
BLOCK_RECORD
  5
2B4
330
1
100
AcDbSymbolTableRecord
100
AcDbBlockTableRecord
  2
block 103
340
0
102
{BLKREFS
331
2B5
102
}
  0
BLOCK_RECORD
  5
2BC
330
1
100
AcDbSymbolTableRecord
100
AcDbBlockTableRecord
  2
block 104
340
0
102
{BLKREFS
331
2BD
102
}
  0
BLOCK_RECORD
  5
2C4
330
1
100
AcDbSymbolTableRecord
100
AcDbBlockTableRecord
  2
block 105
340
0
102
{BLKREFS
331
2C5
102
}
  0
BLOCK_RECORD
  5
2CC
330
1
100
AcDbSymbolTableRecord
100
AcDbBlockTableRecord
  2
block 106
340
0
102
{BLKREFS
331
2CD
102
}
  0
BLOCK_RECORD
  5
2D1
330
1
100
AcDbSymbolTableRecord
100
AcDbBlockTableRecord
  2
block 107
340
0
102
{BLKREFS
331
2D2
102
}
  0
BLOCK_RECORD
  5
2D9
330
1
100
AcDbSymbolTableRecord
100
AcDbBlockTableRecord
  2
block 108
340
0
102
{BLKREFS
331
2DA
102
}
  0
BLOCK_RECORD
  5
2DE
330
1
100
AcDbSymbolTableRecord
100
AcDbBlockTableRecord
  2
block 109
340
0
102
{BLKREFS
331
2DF
102
}
  0
BLOCK_RECORD
  5
2E6
330
1
100
AcDbSymbolTableRecord
100
AcDbBlockTableRecord
  2
block 110
340
0
102
{BLKREFS
331
2E7
102
}
  0
BLOCK_RECORD
  5
2EE
330
1
100
AcDbSymbolTableRecord
100
AcDbBlockTableRecord
  2
block 111
340
0
102
{BLKREFS
331
2EF
102
}
  0
BLOCK_RECORD
  5
2F3
330
1
100
AcDbSymbolTableRecord
100
AcDbBlockTableRecord
  2
block 112
340
0
102
{BLKREFS
331
2F4
102
}
  0
BLOCK_RECORD
  5
2FB
330
1
100
AcDbSymbolTableRecord
100
AcDbBlockTableRecord
  2
block 113
340
0
102
{BLKREFS
331
2FC
102
}
  0
BLOCK_RECORD
  5
300
330
1
100
AcDbSymbolTableRecord
100
AcDbBlockTableRecord
  2
block 114
340
0
102
{BLKREFS
331
301
102
}
  0
BLOCK_RECORD
  5
305
330
1
100
AcDbSymbolTableRecord
100
AcDbBlockTableRecord
  2
block 115
340
0
102
{BLKREFS
331
306
102
}
  0
BLOCK_RECORD
  5
30D
330
1
100
AcDbSymbolTableRecord
100
AcDbBlockTableRecord
  2
block 116
340
0
102
{BLKREFS
331
30E
102
}
  0
BLOCK_RECORD
  5
312
330
1
100
AcDbSymbolTableRecord
100
AcDbBlockTableRecord
  2
block 117
340
0
102
{BLKREFS
331
313
102
}
  0
BLOCK_RECORD
  5
31A
330
1
100
AcDbSymbolTableRecord
100
AcDbBlockTableRecord
  2
block 118
340
0
102
{BLKREFS
331
31B
102
}
  0
BLOCK_RECORD
  5
322
330
1
100
AcDbSymbolTableRecord
100
AcDbBlockTableRecord
  2
block 119
340
0
102
{BLKREFS
331
323
102
}
  0
BLOCK_RECORD
  5
327
330
1
100
AcDbSymbolTableRecord
100
AcDbBlockTableRecord
  2
block 120
340
0
102
{BLKREFS
331
328
102
}
  0
BLOCK_RECORD
  5
32F
330
1
100
AcDbSymbolTableRecord
100
AcDbBlockTableRecord
  2
block 121
340
0
102
{BLKREFS
331
330
102
}
  0
BLOCK_RECORD
  5
337
330
1
100
AcDbSymbolTableRecord
100
AcDbBlockTableRecord
  2
block 122
340
0
102
{BLKREFS
331
338
102
}
  0
BLOCK_RECORD
  5
33F
330
1
100
AcDbSymbolTableRecord
100
AcDbBlockTableRecord
  2
block 123
340
0
102
{BLKREFS
331
340
102
}
  0
BLOCK_RECORD
  5
347
330
1
100
AcDbSymbolTableRecord
100
AcDbBlockTableRecord
  2
block 124
340
0
102
{BLKREFS
331
348
102
}
  0
BLOCK_RECORD
  5
34C
330
1
100
AcDbSymbolTableRecord
100
AcDbBlockTableRecord
  2
block 125
340
0
102
{BLKREFS
331
34D
102
}
  0
BLOCK_RECORD
  5
351
330
1
100
AcDbSymbolTableRecord
100
AcDbBlockTableRecord
  2
block 126
340
0
102
{BLKREFS
331
352
102
}
  0
BLOCK_RECORD
  5
359
330
1
100
AcDbSymbolTableRecord
100
AcDbBlockTableRecord
  2
block 127
340
0
102
{BLKREFS
331
35A
102
}
  0
BLOCK_RECORD
  5
361
330
1
100
AcDbSymbolTableRecord
100
AcDbBlockTableRecord
  2
block 128
340
0
102
{BLKREFS
331
362
102
}
  0
BLOCK_RECORD
  5
366
330
1
100
AcDbSymbolTableRecord
100
AcDbBlockTableRecord
  2
block 129
340
0
102
{BLKREFS
331
367
102
}
  0
BLOCK_RECORD
  5
36E
330
1
100
AcDbSymbolTableRecord
100
AcDbBlockTableRecord
  2
block 130
340
0
102
{BLKREFS
331
36F
102
}
  0
BLOCK_RECORD
  5
373
330
1
100
AcDbSymbolTableRecord
100
AcDbBlockTableRecord
  2
block 131
340
0
102
{BLKREFS
331
374
102
}
  0
BLOCK_RECORD
  5
37C
330
1
100
AcDbSymbolTableRecord
100
AcDbBlockTableRecord
  2
block 132
340
0
102
{BLKREFS
331
37D
102
}
  0
BLOCK_RECORD
  5
384
330
1
100
AcDbSymbolTableRecord
100
AcDbBlockTableRecord
  2
block 133
340
0
102
{BLKREFS
331
385
102
}
  0
BLOCK_RECORD
  5
38C
330
1
100
AcDbSymbolTableRecord
100
AcDbBlockTableRecord
  2
block 134
340
0
102
{BLKREFS
331
38D
102
}
  0
BLOCK_RECORD
  5
391
330
1
100
AcDbSymbolTableRecord
100
AcDbBlockTableRecord
  2
block 135
340
0
102
{BLKREFS
331
392
102
}
  0
BLOCK_RECORD
  5
396
330
1
100
AcDbSymbolTableRecord
100
AcDbBlockTableRecord
  2
block 136
340
0
102
{BLKREFS
331
397
102
}
  0
BLOCK_RECORD
  5
39E
330
1
100
AcDbSymbolTableRecord
100
AcDbBlockTableRecord
  2
block 137
340
0
102
{BLKREFS
331
39F
102
}
  0
BLOCK_RECORD
  5
3A6
330
1
100
AcDbSymbolTableRecord
100
AcDbBlockTableRecord
  2
block 138
340
0
102
{BLKREFS
331
3A7
102
}
  0
BLOCK_RECORD
  5
3AE
330
1
100
AcDbSymbolTableRecord
100
AcDbBlockTableRecord
  2
block 139
340
0
102
{BLKREFS
331
3AF
102
}
  0
BLOCK_RECORD
  5
3B3
330
1
100
AcDbSymbolTableRecord
100
AcDbBlockTableRecord
  2
block 140
340
0
102
{BLKREFS
331
3B4
102
}
  0
BLOCK_RECORD
  5
3BB
330
1
100
AcDbSymbolTableRecord
100
AcDbBlockTableRecord
  2
block 141
340
0
102
{BLKREFS
331
3BC
102
}
  0
BLOCK_RECORD
  5
3C0
330
1
100
AcDbSymbolTableRecord
100
AcDbBlockTableRecord
  2
block 142
340
0
102
{BLKREFS
331
3C1
102
}
  0
BLOCK_RECORD
  5
3C8
330
1
100
AcDbSymbolTableRecord
100
AcDbBlockTableRecord
  2
block 143
340
0
102
{BLKREFS
331
3C9
102
}
  0
BLOCK_RECORD
  5
3CD
330
1
100
AcDbSymbolTableRecord
100
AcDbBlockTableRecord
  2
block 144
340
0
102
{BLKREFS
331
3CE
102
}
  0
BLOCK_RECORD
  5
3D5
330
1
100
AcDbSymbolTableRecord
100
AcDbBlockTableRecord
  2
block 145
340
0
102
{BLKREFS
331
3D6
102
}
  0
BLOCK_RECORD
  5
3DD
330
1
100
AcDbSymbolTableRecord
100
AcDbBlockTableRecord
  2
block 146
340
0
102
{BLKREFS
331
3DE
102
}
  0
BLOCK_RECORD
  5
3E5
330
1
100
AcDbSymbolTableRecord
100
AcDbBlockTableRecord
  2
block 147
340
0
102
{BLKREFS
331
3E6
102
}
  0
BLOCK_RECORD
  5
3ED
330
1
100
AcDbSymbolTableRecord
100
AcDbBlockTableRecord
  2
block 148
340
0
102
{BLKREFS
331
3EE
102
}
  0
BLOCK_RECORD
  5
3F2
330
1
100
AcDbSymbolTableRecord
100
AcDbBlockTableRecord
  2
block 149
340
0
102
{BLKREFS
331
3F3
102
}
  0
BLOCK_RECORD
  5
3F7
330
1
100
AcDbSymbolTableRecord
100
AcDbBlockTableRecord
  2
block 150
340
0
102
{BLKREFS
331
3F8
102
}
  0
BLOCK_RECORD
  5
3FF
330
1
100
AcDbSymbolTableRecord
100
AcDbBlockTableRecord
  2
block 151
340
0
102
{BLKREFS
331
400
102
}
  0
BLOCK_RECORD
  5
404
330
1
100
AcDbSymbolTableRecord
100
AcDbBlockTableRecord
  2
block 152
340
0
102
{BLKREFS
331
405
102
}
  0
BLOCK_RECORD
  5
40C
330
1
100
AcDbSymbolTableRecord
100
AcDbBlockTableRecord
  2
block 153
340
0
102
{BLKREFS
331
40D
102
}
  0
BLOCK_RECORD
  5
414
330
1
100
AcDbSymbolTableRecord
100
AcDbBlockTableRecord
  2
block 154
340
0
102
{BLKREFS
331
415
102
}
  0
BLOCK_RECORD
  5
419
330
1
100
AcDbSymbolTableRecord
100
AcDbBlockTableRecord
  2
block 155
340
0
102
{BLKREFS
331
41A
102
}
  0
BLOCK_RECORD
  5
41E
330
1
100
AcDbSymbolTableRecord
100
AcDbBlockTableRecord
  2
block 156
340
0
102
{BLKREFS
331
41F
102
}
  0
BLOCK_RECORD
  5
426
330
1
100
AcDbSymbolTableRecord
100
AcDbBlockTableRecord
  2
block 157
340
0
102
{BLKREFS
331
427
102
}
  0
BLOCK_RECORD
  5
42E
330
1
100
AcDbSymbolTableRecord
100
AcDbBlockTableRecord
  2
block 158
340
0
102
{BLKREFS
331
42F
102
}
  0
BLOCK_RECORD
  5
436
330
1
100
AcDbSymbolTableRecord
100
AcDbBlockTableRecord
  2
block 159
340
0
102
{BLKREFS
331
437
102
}
  0
BLOCK_RECORD
  5
43B
330
1
100
AcDbSymbolTableRecord
100
AcDbBlockTableRecord
  2
block 160
340
0
102
{BLKREFS
331
43C
102
}
  0
BLOCK_RECORD
  5
443
330
1
100
AcDbSymbolTableRecord
100
AcDbBlockTableRecord
  2
block 161
340
0
102
{BLKREFS
331
444
102
}
  0
BLOCK_RECORD
  5
448
330
1
100
AcDbSymbolTableRecord
100
AcDbBlockTableRecord
  2
block 162
340
0
102
{BLKREFS
331
449
102
}
  0
BLOCK_RECORD
  5
44D
330
1
100
AcDbSymbolTableRecord
100
AcDbBlockTableRecord
  2
block 163
340
0
102
{BLKREFS
331
44E
102
}
  0
BLOCK_RECORD
  5
455
330
1
100
AcDbSymbolTableRecord
100
AcDbBlockTableRecord
  2
block 164
340
0
102
{BLKREFS
331
456
102
}
  0
BLOCK_RECORD
  5
45A
330
1
100
AcDbSymbolTableRecord
100
AcDbBlockTableRecord
  2
block 165
340
0
102
{BLKREFS
331
45B
102
}
  0
BLOCK_RECORD
  5
45F
330
1
100
AcDbSymbolTableRecord
100
AcDbBlockTableRecord
  2
block 166
340
0
102
{BLKREFS
331
460
102
}
  0
BLOCK_RECORD
  5
464
330
1
100
AcDbSymbolTableRecord
100
AcDbBlockTableRecord
  2
block 167
340
0
102
{BLKREFS
331
465
102
}
  0
BLOCK_RECORD
  5
46C
330
1
100
AcDbSymbolTableRecord
100
AcDbBlockTableRecord
  2
block 168
340
0
102
{BLKREFS
331
46D
102
}
  0
BLOCK_RECORD
  5
471
330
1
100
AcDbSymbolTableRecord
100
AcDbBlockTableRecord
  2
block 169
340
0
102
{BLKREFS
331
472
102
}
  0
BLOCK_RECORD
  5
476
330
1
100
AcDbSymbolTableRecord
100
AcDbBlockTableRecord
  2
block 170
340
0
102
{BLKREFS
331
477
102
}
  0
BLOCK_RECORD
  5
47E
330
1
100
AcDbSymbolTableRecord
100
AcDbBlockTableRecord
  2
block 171
340
0
102
{BLKREFS
331
47F
102
}
  0
BLOCK_RECORD
  5
486
330
1
100
AcDbSymbolTableRecord
100
AcDbBlockTableRecord
  2
block 172
340
0
102
{BLKREFS
331
487
102
}
  0
BLOCK_RECORD
  5
48B
330
1
100
AcDbSymbolTableRecord
100
AcDbBlockTableRecord
  2
block 173
340
0
102
{BLKREFS
331
48C
102
}
  0
BLOCK_RECORD
  5
493
330
1
100
AcDbSymbolTableRecord
100
AcDbBlockTableRecord
  2
block 174
340
0
102
{BLKREFS
331
494
102
}
  0
BLOCK_RECORD
  5
49B
330
1
100
AcDbSymbolTableRecord
100
AcDbBlockTableRecord
  2
block 175
340
0
102
{BLKREFS
331
49C
102
}
  0
BLOCK_RECORD
  5
4A3
330
1
100
AcDbSymbolTableRecord
100
AcDbBlockTableRecord
  2
block 176
340
0
102
{BLKREFS
331
4A4
102
}
  0
BLOCK_RECORD
  5
4AB
330
1
100
AcDbSymbolTableRecord
100
AcDbBlockTableRecord
  2
block 177
340
0
102
{BLKREFS
331
4AC
102
}
  0
BLOCK_RECORD
  5
4B0
330
1
100
AcDbSymbolTableRecord
100
AcDbBlockTableRecord
  2
block 178
340
0
102
{BLKREFS
331
4B1
102
}
  0
BLOCK_RECORD
  5
4B5
330
1
100
AcDbSymbolTableRecord
100
AcDbBlockTableRecord
  2
block 179
340
0
102
{BLKREFS
331
4B6
102
}
  0
BLOCK_RECORD
  5
4BA
330
1
100
AcDbSymbolTableRecord
100
AcDbBlockTableRecord
  2
block 180
340
0
102
{BLKREFS
331
4BB
102
}
  0
BLOCK_RECORD
  5
4BF
330
1
100
AcDbSymbolTableRecord
100
AcDbBlockTableRecord
  2
block 181
340
0
102
{BLKREFS
331
4C0
102
}
  0
BLOCK_RECORD
  5
4C7
330
1
100
AcDbSymbolTableRecord
100
AcDbBlockTableRecord
  2
block 182
340
0
102
{BLKREFS
331
4C8
102
}
  0
BLOCK_RECORD
  5
4CF
330
1
100
AcDbSymbolTableRecord
100
AcDbBlockTableRecord
  2
block 183
340
0
102
{BLKREFS
331
4D0
102
}
  0
BLOCK_RECORD
  5
4D4
330
1
100
AcDbSymbolTableRecord
100
AcDbBlockTableRecord
  2
block 184
340
0
102
{BLKREFS
331
4D5
102
}
  0
BLOCK_RECORD
  5
4DC
330
1
100
AcDbSymbolTableRecord
100
AcDbBlockTableRecord
  2
block 185
340
0
102
{BLKREFS
331
4DD
102
}
  0
BLOCK_RECORD
  5
4E1
330
1
100
AcDbSymbolTableRecord
100
AcDbBlockTableRecord
  2
block 186
340
0
102
{BLKREFS
331
4E2
102
}
  0
BLOCK_RECORD
  5
4E6
330
1
100
AcDbSymbolTableRecord
100
AcDbBlockTableRecord
  2
block 187
340
0
102
{BLKREFS
331
4E7
102
}
  0
BLOCK_RECORD
  5
4EB
330
1
100
AcDbSymbolTableRecord
100
AcDbBlockTableRecord
  2
block 188
340
0
102
{BLKREFS
331
4EC
102
}
  0
BLOCK_RECORD
  5
4F0
330
1
100
AcDbSymbolTableRecord
100
AcDbBlockTableRecord
  2
block 189
340
0
102
{BLKREFS
331
4F1
102
}
  0
BLOCK_RECORD
  5
4F5
330
1
100
AcDbSymbolTableRecord
100
AcDbBlockTableRecord
  2
block 190
340
0
102
{BLKREFS
331
4F6
102
}
  0
BLOCK_RECORD
  5
4FD
330
1
100
AcDbSymbolTableRecord
100
AcDbBlockTableRecord
  2
block 191
340
0
102
{BLKREFS
331
4FE
102
}
  0
BLOCK_RECORD
  5
502
330
1
100
AcDbSymbolTableRecord
100
AcDbBlockTableRecord
  2
block 192
340
0
102
{BLKREFS
331
503
102
}
  0
BLOCK_RECORD
  5
50A
330
1
100
AcDbSymbolTableRecord
100
AcDbBlockTableRecord
  2
block 193
340
0
102
{BLKREFS
331
50B
102
}
  0
BLOCK_RECORD
  5
512
330
1
100
AcDbSymbolTableRecord
100
AcDbBlockTableRecord
  2
block 194
340
0
102
{BLKREFS
331
513
102
}
  0
BLOCK_RECORD
  5
517
330
1
100
AcDbSymbolTableRecord
100
AcDbBlockTableRecord
  2
block 195
340
0
102
{BLKREFS
331
518
102
}
  0
BLOCK_RECORD
  5
51C
330
1
100
AcDbSymbolTableRecord
100
AcDbBlockTableRecord
  2
block 196
340
0
102
{BLKREFS
331
51D
102
}
  0
BLOCK_RECORD
  5
525
330
1
100
AcDbSymbolTableRecord
100
AcDbBlockTableRecord
  2
block 197
340
0
102
{BLKREFS
331
526
102
}
  0
BLOCK_RECORD
  5
52D
330
1
100
AcDbSymbolTableRecord
100
AcDbBlockTableRecord
  2
block 198
340
0
102
{BLKREFS
331
52E
102
}
  0
BLOCK_RECORD
  5
535
330
1
100
AcDbSymbolTableRecord
100
AcDbBlockTableRecord
  2
block 199
340
0
102
{BLKREFS
331
536
102
}
  0
BLOCK_RECORD
  5
53A
330
1
100
AcDbSymbolTableRecord
100
AcDbBlockTableRecord
  2
block 200
340
0
102
{BLKREFS
331
53B
102
}
  0
BLOCK_RECORD
  5
542
330
1
100
AcDbSymbolTableRecord
100
AcDbBlockTableRecord
  2
block 201
340
0
102
{BLKREFS
331
543
102
}
  0
BLOCK_RECORD
  5
547
330
1
100
AcDbSymbolTableRecord
100
AcDbBlockTableRecord
  2
block 202
340
0
102
{BLKREFS
331
548
102
}
  0
BLOCK_RECORD
  5
54C
330
1
100
AcDbSymbolTableRecord
100
AcDbBlockTableRecord
  2
block 203
340
0
102
{BLKREFS
331
54D
102
}
  0
BLOCK_RECORD
  5
551
330
1
100
AcDbSymbolTableRecord
100
AcDbBlockTableRecord
  2
block 204
340
0
102
{BLKREFS
331
552
102
}
  0
BLOCK_RECORD
  5
559
330
1
100
AcDbSymbolTableRecord
100
AcDbBlockTableRecord
  2
block 205
340
0
102
{BLKREFS
331
55A
102
}
  0
BLOCK_RECORD
  5
55E
330
1
100
AcDbSymbolTableRecord
100
AcDbBlockTableRecord
  2
block 206
340
0
102
{BLKREFS
331
55F
102
}
  0
BLOCK_RECORD
  5
566
330
1
100
AcDbSymbolTableRecord
100
AcDbBlockTableRecord
  2
block 207
340
0
102
{BLKREFS
331
567
102
}
  0
ENDTAB
  0
ENDSEC
  0
SECTION
  2
BLOCKS
  0
BLOCK
  5
20
330
1F
100
AcDbEntity
  8
0
100
AcDbBlockBegin
  2
*Model_Space
 70
     0
 71
     0
 10
0.0
 20
0.0
 30
0.0
  3
*Model_Space
  1

  0
ENDBLK
  5
21
330
1F
100
AcDbEntity
  8
0
100
AcDbBlockEnd
  0
BLOCK
  5
1C
330
1B
100
AcDbEntity
 67
     1
  8
0
100
AcDbBlockBegin
  2
*Paper_Space
 70
     0
 71
     0
 10
0.0
 20
0.0
 30
0.0
  3
*Paper_Space
  1

  0
ENDBLK
  5
1D
330
1B
100
AcDbEntity
 67
     1
  8
0
100
AcDbBlockEnd
  0
BLOCK
  5
24
330
23
100
AcDbEntity
  8
0
100
AcDbBlockBegin
  2
*Paper_Space0
 70
     0
 71
     0
 10
0.0
 20
0.0
 30
0.0
  3
*Paper_Space0
  1

  0
ENDBLK
  5
25
330
23
100
AcDbEntity
  8
0
100
AcDbBlockEnd
  0
BLOCK
  5
3E
330
3C
100
AcDbEntity
  8
0
100
AcDbBlockBegin
  2
block 2
 70
     0
 71
     0
 10
0.0
 20
0.0
 30
0.0
  3
block 2
  1

  0
INSERT
  5
41
330
3C
100
AcDbEntity
  8
quote
100
AcDbBlockReference
  2
block 3
 10
0.0
 20
0.0
 30
0.0
  0
INSERT
  5
49
330
3C
100
AcDbEntity
  8
quote
100
AcDbBlockReference
  2
block 4
 10
0.0
 20
0.0
 30
0.0
  0
INSERT
  5
4E
330
3C
100
AcDbEntity
  8
quote
100
AcDbBlockReference
  2
block 5
 10
0.0
 20
0.0
 30
0.0
  0
INSERT
  5
56
330
3C
100
AcDbEntity
  8
quote
100
AcDbBlockReference
  2
block 6
 10
0.0
 20
0.0
 30
0.0
  0
ENDBLK
  5
3F
330
3C
100
AcDbEntity
  8
0
100
AcDbBlockEnd
  0
BLOCK
  5
42
330
40
100
AcDbEntity
  8
0
100
AcDbBlockBegin
  2
block 3
 70
     0
 71
     0
 10
0.0
 20
0.0
 30
0.0
  3
block 3
  1

  0
POLYLINE
  5
44
330
40
100
AcDbEntity
  8
quote
 62
     7
370
    35
100
AcDb2dPolyline
 66
     1
 10
0.0
 20
0.0
 30
0.0
  0
VERTEX
  5
45
330
44
100
AcDbEntity
  8
quote
 62
     7
370
    35
100
AcDbVertex
100
AcDb2dVertex
 10
1442.384654044786
 20
1236.684203792392
 30
0.0
  0
VERTEX
  5
46
330
44
100
AcDbEntity
  8
quote
 62
     7
370
    35
100
AcDbVertex
100
AcDb2dVertex
 10
2642.906724057155
 20
1236.684203792392
 30
0.0
  0
SEQEND
  5
47
330
44
100
AcDbEntity
  8
quote
370
    35
  0
ENDBLK
  5
43
330
40
100
AcDbEntity
  8
0
100
AcDbBlockEnd
  0
BLOCK
  5
4A
330
48
100
AcDbEntity
  8
0
100
AcDbBlockBegin
  2
block 4
 70
     0
 71
     0
 10
0.0
 20
0.0
 30
0.0
  3
block 4
  1

  0
MTEXT
  5
4C
330
48
100
AcDbEntity
  8
quote
 62
     7
100
AcDbMText
 10
2040.069102137552
 20
1248.435424492579
 30
0.0
 40
14.393333329735
 41
0.0
 71
     7
 72
     1
  1
\fAntipasto|b0|i0|c0|p34;\W1;1200
 73
     1
 44
1.0
  0
ENDBLK
  5
4B
330
48
100
AcDbEntity
  8
0
100
AcDbBlockEnd
  0
BLOCK
  5
4F
330
4D
100
AcDbEntity
  8
0
100
AcDbBlockBegin
  2
block 5
 70
     0
 71
     0
 10
0.0
 20
0.0
 30
0.0
  3
block 5
  1

  0
POLYLINE
  5
51
330
4D
100
AcDbEntity
  8
quote
 62
     7
370
    70
100
AcDb2dPolyline
 66
     1
 10
0.0
 20
0.0
 30
0.0
  0
VERTEX
  5
52
330
51
100
AcDbEntity
  8
quote
 62
     7
370
    70
100
AcDbVertex
100
AcDb2dVertex
 10
1441.384542825418
 20
984.5366316983103
 30
0.0
  0
VERTEX
  5
53
330
51
100
AcDbEntity
  8
quote
 62
     7
370
    70
100
AcDbVertex
100
AcDb2dVertex
 10
1441.384542825418
 20
984.5366316983103
 30
0.0
  0
SEQEND
  5
54
330
51
100
AcDbEntity
  8
quote
370
    70
  0
ENDBLK
  5
50
330
4D
100
AcDbEntity
  8
0
100
AcDbBlockEnd
  0
BLOCK
  5
57
330
55
100
AcDbEntity
  8
0
100
AcDbBlockBegin
  2
block 6
 70
     0
 71
     0
 10
0.0
 20
0.0
 30
0.0
  3
block 6
  1

  0
POLYLINE
  5
59
330
55
100
AcDbEntity
  8
quote
 62
     7
370
    70
100
AcDb2dPolyline
 66
     1
 10
0.0
 20
0.0
 30
0.0
  0
VERTEX
  5
5A
330
59
100
AcDbEntity
  8
quote
 62
     7
370
    70
100
AcDbVertex
100
AcDb2dVertex
 10
2643.906835276523
 20
1122.451727692477
 30
0.0
  0
VERTEX
  5
5B
330
59
100
AcDbEntity
  8
quote
 62
     7
370
    70
100
AcDbVertex
100
AcDb2dVertex
 10
2643.906835276523
 20
1122.451727692477
 30
0.0
  0
SEQEND
  5
5C
330
59
100
AcDbEntity
  8
quote
370
    70
  0
ENDBLK
  5
58
330
55
100
AcDbEntity
  8
0
100
AcDbBlockEnd
  0
BLOCK
  5
5F
330
5D
100
AcDbEntity
  8
0
100
AcDbBlockBegin
  2
block 7
 70
     0
 71
     0
 10
0.0
 20
0.0
 30
0.0
  3
block 7
  1

  0
INSERT
  5
62
330
5D
100
AcDbEntity
  8
quote
100
AcDbBlockReference
  2
block 8
 10
0.0
 20
0.0
 30
0.0
  0
INSERT
  5
69
330
5D
100
AcDbEntity
  8
quote
100
AcDbBlockReference
  2
block 9
 10
0.0
 20
0.0
 30
0.0
  0
INSERT
  5
70
330
5D
100
AcDbEntity
  8
quote
100
AcDbBlockReference
  2
block 10
 10
0.0
 20
0.0
 30
0.0
  0
INSERT
  5
78
330
5D
100
AcDbEntity
  8
quote
100
AcDbBlockReference
  2
block 11
 10
0.0
 20
0.0
 30
0.0
  0
INSERT
  5
7D
330
5D
100
AcDbEntity
  8
quote
100
AcDbBlockReference
  2
block 12
 10
0.0
 20
0.0
 30
0.0
  0
INSERT
  5
85
330
5D
100
AcDbEntity
  8
quote
100
AcDbBlockReference
  2
block 13
 10
0.0
 20
0.0
 30
0.0
  0
ENDBLK
  5
60
330
5D
100
AcDbEntity
  8
0
100
AcDbBlockEnd
  0
BLOCK
  5
63
330
61
100
AcDbEntity
  8
0
100
AcDbBlockBegin
  2
block 8
 70
     0
 71
     0
 10
0.0
 20
0.0
 30
0.0
  3
block 8
  1

  0
POLYLINE
  5
65
330
61
100
AcDbEntity
  8
quote
 62
     7
370
    70
100
AcDb2dPolyline
 66
     1
 10
0.0
 20
0.0
 30
0.0
  0
VERTEX
  5
66
330
65
100
AcDbEntity
  8
quote
 62
     7
370
    70
100
AcDbVertex
100
AcDb2dVertex
 10
1099.609711096625
 20
762.4516518276163
 30
0.0
  0
VERTEX
  5
56E
330
65
100
AcDbEntity
  8
0
100
AcDbVertex
100
AcDb2dVertex
 10
1099.609711096625
 20
762.4516518276163
 30
0.0
  0
SEQEND
  5
67
330
65
100
AcDbEntity
  8
quote
370
    70
  0
ENDBLK
  5
64
330
61
100
AcDbEntity
  8
0
100
AcDbBlockEnd
  0
BLOCK
  5
6A
330
68
100
AcDbEntity
  8
0
100
AcDbBlockBegin
  2
block 9
 70
     0
 71
     0
 10
0.0
 20
0.0
 30
0.0
  3
block 9
  1

  0
POLYLINE
  5
6C
330
68
100
AcDbEntity
  8
quote
 62
     7
370
    70
100
AcDb2dPolyline
 66
     1
 10
0.0
 20
0.0
 30
0.0
  0
VERTEX
  5
6D
330
6C
100
AcDbEntity
  8
quote
 62
     7
370
    70
100
AcDbVertex
100
AcDb2dVertex
 10
865.4541501742615
 20
1182.451855173137
 30
0.0
  0
VERTEX
  5
56F
330
6C
100
AcDbEntity
  8
0
100
AcDbVertex
100
AcDb2dVertex
 10
865.4541501742615
 20
1182.451855173137
 30
0.0
  0
SEQEND
  5
6E
330
6C
100
AcDbEntity
  8
quote
370
    70
  0
ENDBLK
  5
6B
330
68
100
AcDbEntity
  8
0
100
AcDbBlockEnd
  0
BLOCK
  5
71
330
6F
100
AcDbEntity
  8
0
100
AcDbBlockBegin
  2
block 10
 70
     0
 71
     0
 10
0.0
 20
0.0
 30
0.0
  3
block 10
  1

  0
POLYLINE
  5
73
330
6F
100
AcDbEntity
  8
quote
 62
     7
370
    35
100
AcDb2dPolyline
 66
     1
 10
0.0
 20
0.0
 30
0.0
  0
VERTEX
  5
74
330
73
100
AcDbEntity
  8
quote
 62
     7
370
    35
100
AcDbVertex
100
AcDb2dVertex
 10
1207.828428517487
 20
763.4517630469843
 30
0.0
  0
VERTEX
  5
75
330
73
100
AcDbEntity
  8
quote
 62
     7
370
    35
100
AcDbVertex
100
AcDb2dVertex
 10
1207.828428517487
 20
1181.451743953769
 30
0.0
  0
SEQEND
  5
76
330
73
100
AcDbEntity
  8
quote
370
    35
  0
ENDBLK
  5
72
330
6F
100
AcDbEntity
  8
0
100
AcDbBlockEnd
  0
BLOCK
  5
79
330
77
100
AcDbEntity
  8
0
100
AcDbBlockBegin
  2
block 11
 70
     0
 71
     0
 10
0.0
 20
0.0
 30
0.0
  3
block 11
  1

  0
MTEXT
  5
7B
330
77
100
AcDbEntity
  8
quote
 62
     7
100
AcDbMText
 10
1195.018185465134
 20
970.3269908598488
 30
0.0
 40
14.393333329735
 41
0.0
 71
     7
 72
     1
  1
\fAntipasto|b0|i0|c0|p34;\W1;420
 11
-4.371139000186241E-8
 21
0.999999999999999
 31
0.0
 73
     1
 44
1.0
  0
ENDBLK
  5
7A
330
77
100
AcDbEntity
  8
0
100
AcDbBlockEnd
  0
BLOCK
  5
7E
330
7C
100
AcDbEntity
  8
0
100
AcDbBlockBegin
  2
block 12
 70
     0
 71
     0
 10
0.0
 20
0.0
 30
0.0
  3
block 12
  1

  0
POLYLINE
  5
80
330
7C
100
AcDbEntity
  8
quote
 62
     7
370
    70
100
AcDb2dPolyline
 66
     1
 10
0.0
 20
0.0
 30
0.0
  0
VERTEX
  5
81
330
80
100
AcDbEntity
  8
quote
 62
     7
370
    70
100
AcDbVertex
100
AcDb2dVertex
 10
1099.109483232167
 20
762.4516518276163
 30
0.0
  0
VERTEX
  5
82
330
80
100
AcDbEntity
  8
quote
 62
     7
370
    70
100
AcDbVertex
100
AcDb2dVertex
 10
1099.109483232167
 20
762.4516518276163
 30
0.0
  0
SEQEND
  5
83
330
80
100
AcDbEntity
  8
quote
370
    70
  0
ENDBLK
  5
7F
330
7C
100
AcDbEntity
  8
0
100
AcDbBlockEnd
  0
BLOCK
  5
86
330
84
100
AcDbEntity
  8
0
100
AcDbBlockBegin
  2
block 13
 70
     0
 71
     0
 10
0.0
 20
0.0
 30
0.0
  3
block 13
  1

  0
POLYLINE
  5
88
330
84
100
AcDbEntity
  8
quote
 62
     7
370
    70
100
AcDb2dPolyline
 66
     1
 10
0.0
 20
0.0
 30
0.0
  0
VERTEX
  5
89
330
88
100
AcDbEntity
  8
quote
 62
     7
370
    70
100
AcDbVertex
100
AcDb2dVertex
 10
864.9542668193518
 20
1182.451855173137
 30
0.0
  0
VERTEX
  5
8A
330
88
100
AcDbEntity
  8
quote
 62
     7
370
    70
100
AcDbVertex
100
AcDb2dVertex
 10
864.9542668193518
 20
1182.451855173137
 30
0.0
  0
SEQEND
  5
8B
330
88
100
AcDbEntity
  8
quote
370
    70
  0
ENDBLK
  5
87
330
84
100
AcDbEntity
  8
0
100
AcDbBlockEnd
  0
BLOCK
  5
8E
330
8C
100
AcDbEntity
  8
0
100
AcDbBlockBegin
  2
block 14
 70
     0
 71
     0
 10
0.0
 20
0.0
 30
0.0
  3
block 14
  1

  0
INSERT
  5
91
330
8C
100
AcDbEntity
  8
quote
100
AcDbBlockReference
  2
block 15
 10
0.0
 20
0.0
 30
0.0
  0
INSERT
  5
99
330
8C
100
AcDbEntity
  8
quote
100
AcDbBlockReference
  2
block 16
 10
0.0
 20
0.0
 30
0.0
  0
INSERT
  5
9E
330
8C
100
AcDbEntity
  8
quote
100
AcDbBlockReference
  2
block 17
 10
0.0
 20
0.0
 30
0.0
  0
INSERT
  5
A6
330
8C
100
AcDbEntity
  8
quote
100
AcDbBlockReference
  2
block 18
 10
0.0
 20
0.0
 30
0.0
  0
ENDBLK
  5
8F
330
8C
100
AcDbEntity
  8
0
100
AcDbBlockEnd
  0
BLOCK
  5
92
330
90
100
AcDbEntity
  8
0
100
AcDbBlockBegin
  2
block 15
 70
     0
 71
     0
 10
0.0
 20
0.0
 30
0.0
  3
block 15
  1

  0
POLYLINE
  5
94
330
90
100
AcDbEntity
  8
quote
 62
     7
370
    35
100
AcDb2dPolyline
 66
     1
 10
0.0
 20
0.0
 30
0.0
  0
VERTEX
  5
95
330
94
100
AcDbEntity
  8
quote
 62
     7
370
    35
100
AcDbVertex
100
AcDb2dVertex
 10
-642.3039467795282
 20
1236.684203792392
 30
0.0
  0
VERTEX
  5
96
330
94
100
AcDbEntity
  8
quote
 62
     7
370
    35
100
AcDbVertex
100
AcDb2dVertex
 10
155.6959228126385
 20
1236.684203792392
 30
0.0
  0
SEQEND
  5
97
330
94
100
AcDbEntity
  8
quote
370
    35
  0
ENDBLK
  5
93
330
90
100
AcDbEntity
  8
0
100
AcDbBlockEnd
  0
BLOCK
  5
9A
330
98
100
AcDbEntity
  8
0
100
AcDbBlockBegin
  2
block 16
 70
     0
 71
     0
 10
0.0
 20
0.0
 30
0.0
  3
block 16
  1

  0
MTEXT
  5
9C
330
98
100
AcDbEntity
  8
quote
 62
     7
100
AcDbMText
 10
-245.4472058848188
 20
1248.787168741623
 30
0.0
 40
14.393333329735
 41
0.0
 71
     7
 72
     1
  1
\fAntipasto|b0|i0|c0|p34;\W1;800
 73
     1
 44
1.0
  0
ENDBLK
  5
9B
330
98
100
AcDbEntity
  8
0
100
AcDbBlockEnd
  0
BLOCK
  5
9F
330
9D
100
AcDbEntity
  8
0
100
AcDbBlockBegin
  2
block 17
 70
     0
 71
     0
 10
0.0
 20
0.0
 30
0.0
  3
block 17
  1

  0
POLYLINE
  5
A1
330
9D
100
AcDbEntity
  8
quote
 62
     7
370
    70
100
AcDb2dPolyline
 66
     1
 10
0.0
 20
0.0
 30
0.0
  0
VERTEX
  5
A2
330
A1
100
AcDbEntity
  8
quote
 62
     7
370
    70
100
AcDbVertex
100
AcDb2dVertex
 10
-643.3040579988963
 20
1123.094238000476
 30
0.0
  0
VERTEX
  5
A3
330
A1
100
AcDbEntity
  8
quote
 62
     7
370
    70
100
AcDbVertex
100
AcDb2dVertex
 10
-643.3040579988963
 20
1123.094238000476
 30
0.0
  0
SEQEND
  5
A4
330
A1
100
AcDbEntity
  8
quote
370
    70
  0
ENDBLK
  5
A0
330
9D
100
AcDbEntity
  8
0
100
AcDbBlockEnd
  0
BLOCK
  5
A7
330
A5
100
AcDbEntity
  8
0
100
AcDbBlockBegin
  2
block 18
 70
     0
 71
     0
 10
0.0
 20
0.0
 30
0.0
  3
block 18
  1

  0
POLYLINE
  5
A9
330
A5
100
AcDbEntity
  8
quote
370
     0
100
AcDb2dPolyline
 66
     1
 10
0.0
 20
0.0
 30
0.0
  0
VERTEX
  5
AA
330
A9
100
AcDbEntity
  8
quote
370
     0
100
AcDbVertex
100
AcDb2dVertex
 10
156.6960340320066
 20
1123.094238000476
 30
0.0
  0
VERTEX
  5
AB
330
A9
100
AcDbEntity
  8
quote
370
     0
100
AcDbVertex
100
AcDb2dVertex
 10
156.6960340320066
 20
1123.094238000476
 30
0.0
  0
SEQEND
  5
AC
330
A9
100
AcDbEntity
  8
quote
370
     0
  0
ENDBLK
  5
A8
330
A5
100
AcDbEntity
  8
0
100
AcDbBlockEnd
  0
BLOCK
  5
AF
330
AD
100
AcDbEntity
  8
0
100
AcDbBlockBegin
  2
block 19
 70
     0
 71
     0
 10
0.0
 20
0.0
 30
0.0
  3
block 19
  1

  0
INSERT
  5
B2
330
AD
100
AcDbEntity
  8
quote
100
AcDbBlockReference
  2
block 20
 10
0.0
 20
0.0
 30
0.0
  0
INSERT
  5
BA
330
AD
100
AcDbEntity
  8
quote
100
AcDbBlockReference
  2
block 21
 10
0.0
 20
0.0
 30
0.0
  0
INSERT
  5
BF
330
AD
100
AcDbEntity
  8
quote
100
AcDbBlockReference
  2
block 22
 10
0.0
 20
0.0
 30
0.0
  0
INSERT
  5
C7
330
AD
100
AcDbEntity
  8
quote
100
AcDbBlockReference
  2
block 23
 10
0.0
 20
0.0
 30
0.0
  0
ENDBLK
  5
B0
330
AD
100
AcDbEntity
  8
0
100
AcDbBlockEnd
  0
BLOCK
  5
B3
330
B1
100
AcDbEntity
  8
0
100
AcDbBlockBegin
  2
block 20
 70
     0
 71
     0
 10
0.0
 20
0.0
 30
0.0
  3
block 20
  1

  0
POLYLINE
  5
B5
330
B1
100
AcDbEntity
  8
quote
 62
     7
370
    35
100
AcDb2dPolyline
 66
     1
 10
0.0
 20
0.0
 30
0.0
  0
VERTEX
  5
B6
330
B5
100
AcDbEntity
  8
quote
 62
     7
370
    35
100
AcDbVertex
100
AcDb2dVertex
 10
332.198844317992
 20
763.4517630469843
 30
0.0
  0
VERTEX
  5
B7
330
B5
100
AcDbEntity
  8
quote
 62
     7
370
    35
100
AcDbVertex
100
AcDb2dVertex
 10
332.198844317992
 20
983.5365204789423
 30
0.0
  0
SEQEND
  5
B8
330
B5
100
AcDbEntity
  8
quote
370
    35
  0
ENDBLK
  5
B4
330
B1
100
AcDbEntity
  8
0
100
AcDbBlockEnd
  0
BLOCK
  5
BB
330
B9
100
AcDbEntity
  8
0
100
AcDbBlockBegin
  2
block 21
 70
     0
 71
     0
 10
0.0
 20
0.0
 30
0.0
  3
block 21
  1

  0
MTEXT
  5
BD
330
B9
100
AcDbEntity
  8
quote
 62
     7
100
AcDbMText
 10
319.3903238133816
 20
871.3555987404944
 30
0.0
 40
14.393333329735
 41
0.0
 71
     7
 72
     1
  1
\fAntipasto|b0|i0|c0|p34;\W1;222
 11
-4.371139000186241E-8
 21
0.999999999999999
 31
0.0
 73
     1
 44
1.0
  0
ENDBLK
  5
BC
330
B9
100
AcDbEntity
  8
0
100
AcDbBlockEnd
  0
BLOCK
  5
C0
330
BE
100
AcDbEntity
  8
0
100
AcDbBlockBegin
  2
block 22
 70
     0
 71
     0
 10
0.0
 20
0.0
 30
0.0
  3
block 22
  1

  0
POLYLINE
  5
C2
330
BE
100
AcDbEntity
  8
quote
 62
     7
370
    70
100
AcDb2dPolyline
 66
     1
 10
0.0
 20
0.0
 30
0.0
  0
VERTEX
  5
C3
330
C2
100
AcDbEntity
  8
quote
 62
     7
370
    70
100
AcDbVertex
100
AcDb2dVertex
 10
390.2493922635488
 20
762.4516518276163
 30
0.0
  0
VERTEX
  5
C4
330
C2
100
AcDbEntity
  8
quote
 62
     7
370
    70
100
AcDbVertex
100
AcDb2dVertex
 10
390.2493922635488
 20
762.4516518276163
 30
0.0
  0
SEQEND
  5
C5
330
C2
100
AcDbEntity
  8
quote
370
    70
  0
ENDBLK
  5
C1
330
BE
100
AcDbEntity
  8
0
100
AcDbBlockEnd
  0
BLOCK
  5
C8
330
C6
100
AcDbEntity
  8
0
100
AcDbBlockBegin
  2
block 23
 70
     0
 71
     0
 10
0.0
 20
0.0
 30
0.0
  3
block 23
  1

  0
POLYLINE
  5
CA
330
C6
100
AcDbEntity
  8
quote
 62
     7
370
    70
100
AcDb2dPolyline
 66
     1
 10
0.0
 20
0.0
 30
0.0
  0
VERTEX
  5
CB
330
CA
100
AcDbEntity
  8
quote
 62
     7
370
    70
100
AcDbVertex
100
AcDb2dVertex
 10
376.0921168764631
 20
984.5366316983103
 30
0.0
  0
VERTEX
  5
CC
330
CA
100
AcDbEntity
  8
quote
 62
     7
370
    70
100
AcDbVertex
100
AcDb2dVertex
 10
376.0921168764631
 20
984.5366316983103
 30
0.0
  0
SEQEND
  5
CD
330
CA
100
AcDbEntity
  8
quote
370
    70
  0
ENDBLK
  5
C9
330
C6
100
AcDbEntity
  8
0
100
AcDbBlockEnd
  0
BLOCK
  5
D1
330
CF
100
AcDbEntity
  8
0
100
AcDbBlockBegin
  2
block 24
 70
     0
 71
     0
 10
0.0
 20
0.0
 30
0.0
  3
block 24
  1

  0
POLYLINE
  5
D3
330
CF
100
AcDbEntity
  8
Predefinito
 62
     7
370
    70
100
AcDb2dPolyline
 66
     1
 10
0.0
 20
0.0
 30
0.0
  0
VERTEX
  5
D4
330
D3
100
AcDbEntity
  8
Predefinito
 62
     7
370
    70
100
AcDbVertex
100
AcDb2dVertex
 10
1892.532887981728
 20
972.5366751040881
 30
0.0
  0
VERTEX
  5
D5
330
D3
100
AcDbEntity
  8
Predefinito
 62
     7
370
    70
100
AcDbVertex
100
AcDb2dVertex
 10
1892.532887981728
 20
984.5366316983103
 30
0.0
  0
SEQEND
  5
D6
330
D3
100
AcDbEntity
  8
Predefinito
370
    70
  0
ENDBLK
  5
D2
330
CF
100
AcDbEntity
  8
0
100
AcDbBlockEnd
  0
BLOCK
  5
D9
330
D7
100
AcDbEntity
  8
0
100
AcDbBlockBegin
  2
block 25
 70
     0
 71
     0
 10
0.0
 20
0.0
 30
0.0
  3
block 25
  1

  0
POLYLINE
  5
DB
330
D7
100
AcDbEntity
  8
Predefinito
 62
     7
370
    70
100
AcDb2dPolyline
 66
     1
 10
0.0
 20
0.0
 30
0.0
  0
VERTEX
  5
DC
330
DB
100
AcDbEntity
  8
Predefinito
 62
     7
370
    70
100
AcDbVertex
100
AcDb2dVertex
 10
2574.390320536958
 20
822.451779308276
 30
0.0
  0
VERTEX
  5
DD
330
DB
100
AcDbEntity
  8
Predefinito
 62
     7
370
    70
100
AcDbVertex
100
AcDb2dVertex
 10
1914.532578731436
 20
822.451779308276
 30
0.0
  0
SEQEND
  5
DE
330
DB
100
AcDbEntity
  8
Predefinito
370
    70
  0
ENDBLK
  5
DA
330
D7
100
AcDbEntity
  8
0
100
AcDbBlockEnd
  0
BLOCK
  5
E1
330
DF
100
AcDbEntity
  8
0
100
AcDbBlockBegin
  2
block 26
 70
     0
 71
     0
 10
0.0
 20
0.0
 30
0.0
  3
block 26
  1

  0
POLYLINE
  5
E3
330
DF
100
AcDbEntity
  8
Predefinito
 62
     7
370
    70
100
AcDb2dPolyline
 66
     1
 10
0.0
 20
0.0
 30
0.0
  0
VERTEX
  5
E4
330
E3
100
AcDbEntity
  8
Predefinito
 62
     7
370
    70
100
AcDbVertex
100
AcDb2dVertex
 10
1914.532578731436
 20
972.5366751040881
 30
0.0
  0
VERTEX
  5
E5
330
E3
100
AcDbEntity
  8
Predefinito
 62
     7
370
    70
100
AcDbVertex
100
AcDb2dVertex
 10
1914.532578731436
 20
984.5366316983103
 30
0.0
  0
SEQEND
  5
E6
330
E3
100
AcDbEntity
  8
Predefinito
370
    70
  0
ENDBLK
  5
E2
330
DF
100
AcDbEntity
  8
0
100
AcDbBlockEnd
  0
BLOCK
  5
E9
330
E7
100
AcDbEntity
  8
0
100
AcDbBlockBegin
  2
block 27
 70
     0
 71
     0
 10
0.0
 20
0.0
 30
0.0
  3
block 27
  1

  0
SPLINE
  5
EB
330
E7
100
AcDbEntity
  8
Predefinito
 62
     7
370
    70
100
AcDbSpline
210
0.0
220
0.0
230
1.0
 70
     8
 71
     3
 72
    14
 73
    10
 74
     0
 42
0.0000000001
 43
0.0000000001
 40
0.0
 40
0.0
 40
0.0
 40
0.0
 40
1.0
 40
1.0
 40
1.0
 40
2.0
 40
2.0
 40
2.0
 40
3.0
 40
3.0
 40
3.0
 40
3.0
 10
1778.842669911192
 20
836.4519583412342
 30
0.0
 10
1773.509317590477
 20
833.5642793054978
 30
0.0
 10
1768.024381068411
 20
830.9466957558051
 30
0.0
 10
1762.428512471719
 20
828.6095429786116
 30
0.0
 10
1759.63488454273
 20
827.4430336473059
 30
0.0
 10
1756.816796435796
 20
826.347148773448
 30
0.0
 10
1753.969425017237
 20
825.319476790198
 30
0.0
 10
1751.127910261003
 20
824.2938718642391
 30
0.0
 10
1748.265724931857
 20
823.3388913957278
 30
0.0
 10
1745.378045896121
 20
822.451779308276
 30
0.0
  0
ENDBLK
  5
EA
330
E7
100
AcDbEntity
  8
0
100
AcDbBlockEnd
  0
BLOCK
  5
EE
330
EC
100
AcDbEntity
  8
0
100
AcDbBlockBegin
  2
block 28
 70
     0
 71
     0
 10
0.0
 20
0.0
 30
0.0
  3
block 28
  1

  0
SPLINE
  5
F0
330
EC
100
AcDbEntity
  8
Predefinito
 62
     7
370
    70
100
AcDbSpline
210
0.0
220
0.0
230
1.0
 70
     8
 71
     3
 72
    17
 73
    13
 74
     0
 42
0.0000000001
 43
0.0000000001
 40
0.0
 40
0.0
 40
0.0
 40
0.0
 40
1.0
 40
1.0
 40
1.0
 40
2.0
 40
2.0
 40
2.0
 40
3.0
 40
3.0
 40
3.0
 40
4.0
 40
4.0
 40
4.0
 40
4.0
 10
2643.906835276523
 20
1122.451727692477
 30
0.0
 10
2643.888231760903
 20
1130.870163020234
 30
0.0
 10
2643.888231760903
 20
1132.130206693964
 30
0.0
 10
2643.825531023072
 20
1132.814574912109
 30
0.0
 10
2643.76283028524
 20
1133.499115385028
 30
0.0
 10
2643.638117828674
 20
1133.60832491191
 30
0.0
 10
2643.512716353011
 20
1133.68911240104
 30
0.0
 10
2643.388003896445
 20
1133.769899890169
 30
0.0
 10
2643.262602420782
 20
1133.822609851093
 30
0.0
 10
2643.009043393067
 20
1133.897368423123
 30
0.0
 10
2642.755484365353
 20
1133.972126995153
 30
0.0
 10
2642.373423276039
 20
1134.068934178288
 30
0.0
 10
2641.97620376659
 20
1134.4516842867
 30
0.0
  0
ENDBLK
  5
EF
330
EC
100
AcDbEntity
  8
0
100
AcDbBlockEnd
  0
BLOCK
  5
F3
330
F1
100
AcDbEntity
  8
0
100
AcDbBlockBegin
  2
block 29
 70
     0
 71
     0
 10
0.0
 20
0.0
 30
0.0
  3
block 29
  1

  0
POLYLINE
  5
F5
330
F1
100
AcDbEntity
  8
Predefinito
 62
     7
370
    70
100
AcDb2dPolyline
 66
     1
 10
0.0
 20
0.0
 30
0.0
  0
VERTEX
  5
F6
330
F5
100
AcDbEntity
  8
Predefinito
 62
     7
370
    70
100
AcDbVertex
100
AcDb2dVertex
 10
1892.532887981728
 20
972.5366751040881
 30
0.0
  0
VERTEX
  5
F7
330
F5
100
AcDbEntity
  8
Predefinito
 62
     7
370
    70
100
AcDbVertex
100
AcDb2dVertex
 10
1892.532887981728
 20
984.5366316983103
 30
0.0
  0
SEQEND
  5
F8
330
F5
100
AcDbEntity
  8
Predefinito
370
    70
  0
ENDBLK
  5
F4
330
F1
100
AcDbEntity
  8
0
100
AcDbBlockEnd
  0
BLOCK
  5
FB
330
F9
100
AcDbEntity
  8
0
100
AcDbBlockBegin
  2
block 30
 70
     0
 71
     0
 10
0.0
 20
0.0
 30
0.0
  3
block 30
  1

  0
POLYLINE
  5
FD
330
F9
100
AcDbEntity
  8
Predefinito
 62
     7
370
    70
100
AcDb2dPolyline
 66
     1
 10
0.0
 20
0.0
 30
0.0
  0
VERTEX
  5
FE
330
FD
100
AcDbEntity
  8
Predefinito
 62
     7
370
    70
100
AcDbVertex
100
AcDb2dVertex
 10
1914.532578731436
 20
762.4516518276163
 30
0.0
  0
VERTEX
  5
FF
330
FD
100
AcDbEntity
  8
Predefinito
 62
     7
370
    70
100
AcDbVertex
100
AcDb2dVertex
 10
1892.532887981728
 20
762.4516518276163
 30
0.0
  0
SEQEND
  5
100
330
FD
100
AcDbEntity
  8
Predefinito
370
    70
  0
ENDBLK
  5
FC
330
F9
100
AcDbEntity
  8
0
100
AcDbBlockEnd
  0
BLOCK
  5
103
330
101
100
AcDbEntity
  8
0
100
AcDbBlockBegin
  2
block 31
 70
     0
 71
     0
 10
0.0
 20
0.0
 30
0.0
  3
block 31
  1

  0
SPLINE
  5
105
330
101
100
AcDbEntity
  8
Predefinito
 62
     7
370
    70
100
AcDbSpline
210
0.0
220
0.0
230
1.0
 70
     8
 71
     3
 72
    26
 73
    22
 74
     0
 42
0.0000000001
 43
0.0000000001
 40
0.0
 40
0.0
 40
0.0
 40
0.0
 40
1.0
 40
1.0
 40
1.0
 40
2.0
 40
2.0
 40
2.0
 40
3.0
 40
3.0
 40
3.0
 40
4.0
 40
4.0
 40
4.0
 40
5.0
 40
5.0
 40
5.0
 40
6.0
 40
6.0
 40
6.0
 40
7.0
 40
7.0
 40
7.0
 40
7.0
 10
1745.378045896121
 20
822.451779308276
 30
0.0
 10
1743.545599607516
 20
821.8888507059862
 30
0.0
 10
1741.705229599296
 20
821.3541718866754
 30
0.0
 10
1739.855902342814
 20
820.8473983407952
 30
0.0
 10
1737.44399099359
 20
820.1859400076272
 30
0.0
 10
1735.021055338814
 20
819.5730575208012
 30
0.0
 10
1732.584683811646
 20
819.0070283325747
 30
0.0
 10
1730.148312284477
 20
818.4409991443481
 30
0.0
 10
1727.702983509047
 20
817.9232012929151
 30
0.0
 10
1725.245941408966
 20
817.45260124963
 30
0.0
 10
1722.789588327983
 20
816.9820012063448
 30
0.0
 10
1720.325656036933
 20
816.5596324998531
 30
0.0
 10
1717.85276649762
 20
816.1844616015095
 30
0.0
 10
1715.39572439754
 20
815.8113577604569
 30
0.0
 10
1712.93385916378
 20
815.4857962371008
 30
0.0
 10
1710.464414719953
 20
815.2067435027956
 30
0.0
 10
1707.994970276126
 20
814.9276907684904
 30
0.0
 10
1705.522080736814
 20
814.695835842333
 30
0.0
 10
1703.043679044725
 20
814.5104897052266
 30
0.0
 10
1698.089976246485
 20
814.1397974310137
 30
0.0
 10
1693.117325423075
 20
813.9554848225529
 30
0.0
 10
1688.149842242893
 20
813.9568628607469
 30
0.0
  0
ENDBLK
  5
104
330
101
100
AcDbEntity
  8
0
100
AcDbBlockEnd
  0
BLOCK
  5
108
330
106
100
AcDbEntity
  8
0
100
AcDbBlockBegin
  2
block 32
 70
     0
 71
     0
 10
0.0
 20
0.0
 30
0.0
  3
block 32
  1

  0
SPLINE
  5
10A
330
106
100
AcDbEntity
  8
Predefinito
 62
     7
370
    70
100
AcDbSpline
210
0.0
220
0.0
230
1.0
 70
     8
 71
     3
 72
    17
 73
    13
 74
     0
 42
0.0000000001
 43
0.0000000001
 40
0.0
 40
0.0
 40
0.0
 40
0.0
 40
1.0
 40
1.0
 40
1.0
 40
2.0
 40
2.0
 40
2.0
 40
3.0
 40
3.0
 40
3.0
 40
4.0
 40
4.0
 40
4.0
 40
4.0
 10
1873.532841871027
 20
955.9605981768085
 30
0.0
 10
1873.532841871027
 20
954.8561005642374
 30
0.0
 10
1873.142512552548
 20
953.9131779299245
 30
0.0
 10
1872.361164896493
 20
953.1321747834183
 30
0.0
 10
1871.580161749987
 20
952.3511716369122
 30
0.0
 10
1870.637239115674
 20
951.960497808885
 30
0.0
 10
1869.532741503103
 20
951.960497808885
 30
0.0
 10
1868.428243890532
 20
951.960497808885
 30
0.0
 10
1867.485665765768
 20
952.3511716369122
 30
0.0
 10
1866.704318109713
 20
953.1321747834183
 30
0.0
 10
1865.923314963207
 20
953.9131779299245
 30
0.0
 10
1865.532985644728
 20
954.8561005642374
 30
0.0
 10
1865.532985644728
 20
955.9605981768085
 30
0.0
  0
ENDBLK
  5
109
330
106
100
AcDbEntity
  8
0
100
AcDbBlockEnd
  0
BLOCK
  5
10D
330
10B
100
AcDbEntity
  8
0
100
AcDbBlockBegin
  2
block 33
 70
     0
 71
     0
 10
0.0
 20
0.0
 30
0.0
  3
block 33
  1

  0
SPLINE
  5
10F
330
10B
100
AcDbEntity
  8
Predefinito
 62
     7
370
    70
100
AcDbSpline
210
0.0
220
0.0
230
1.0
 70
     8
 71
     3
 72
    20
 73
    16
 74
     0
 42
0.0000000001
 43
0.0000000001
 40
0.0
 40
0.0
 40
0.0
 40
0.0
 40
1.0
 40
1.0
 40
1.0
 40
2.0
 40
2.0
 40
2.0
 40
3.0
 40
3.0
 40
3.0
 40
4.0
 40
4.0
 40
4.0
 40
5.0
 40
5.0
 40
5.0
 40
5.0
 10
1593.333579788299
 20
836.4519583412342
 30
0.0
 10
1595.595284974365
 20
835.1676267443331
 30
0.0
 10
1597.884895433862
 20
833.932560012871
 30
0.0
 10
1600.199655090402
 20
832.7474471659451
 30
0.0
 10
1602.459293219177
 20
831.5902395924497
 30
0.0
 10
1604.741324468606
 20
830.4819523748448
 30
0.0
 10
1607.047471386433
 20
829.4205184558393
 30
0.0
 10
1609.353618304259
 20
828.3587400272853
 30
0.0
 10
1611.679402266351
 20
827.3458819546219
 30
0.0
 10
1614.027234839549
 20
826.3802216901064
 30
0.0
 10
1616.375411922295
 20
825.4145614255908
 30
0.0
 10
1618.740814482468
 20
824.4981660265144
 30
0.0
 10
1621.126198596455
 20
823.6286239260373
 30
0.0
 10
1622.231729737671
 20
823.2258922638116
 30
0.0
 10
1623.340705974373
 20
822.8334958880416
 30
0.0
 10
1624.453471816109
 20
822.451779308276
 30
0.0
  0
ENDBLK
  5
10E
330
10B
100
AcDbEntity
  8
0
100
AcDbBlockEnd
  0
BLOCK
  5
112
330
110
100
AcDbEntity
  8
0
100
AcDbBlockBegin
  2
block 34
 70
     0
 71
     0
 10
0.0
 20
0.0
 30
0.0
  3
block 34
  1

  0
SPLINE
  5
114
330
110
100
AcDbEntity
  8
Predefinito
 62
     7
370
    70
100
AcDbSpline
210
0.0
220
0.0
230
1.0
 70
     8
 71
     3
 72
     8
 73
     4
 74
     0
 42
0.0000000001
 43
0.0000000001
 40
0.0
 40
0.0
 40
0.0
 40
0.0
 40
1.0
 40
1.0
 40
1.0
 40
1.0
 10
1503.116864316061
 20
960.4326766262113
 30
0.0
 10
1501.783612363269
 20
959.2399845692179
 30
0.0
 10
1501.116986386874
 20
957.7496362622987
 30
0.0
 10
1501.116986386874
 20
955.9605981768085
 30
0.0
  0
ENDBLK
  5
113
330
110
100
AcDbEntity
  8
0
100
AcDbBlockEnd
  0
BLOCK
  5
117
330
115
100
AcDbEntity
  8
0
100
AcDbBlockBegin
  2
block 35
 70
     0
 71
     0
 10
0.0
 20
0.0
 30
0.0
  3
block 35
  1

  0
SPLINE
  5
119
330
115
100
AcDbEntity
  8
Predefinito
 62
     7
370
    70
100
AcDbSpline
210
0.0
220
0.0
230
1.0
 70
     8
 71
     3
 72
    14
 73
    10
 74
     0
 42
0.0000000001
 43
0.0000000001
 40
0.0
 40
0.0
 40
0.0
 40
0.0
 40
1.0
 40
1.0
 40
1.0
 40
2.0
 40
2.0
 40
2.0
 40
3.0
 40
3.0
 40
3.0
 40
3.0
 10
1624.453471816109
 20
822.451779308276
 30
0.0
 10
1629.490890434641
 20
820.7226858842291
 30
0.0
 10
1634.604790172946
 20
819.2058103420736
 30
0.0
 10
1639.768988305336
 20
817.9045977772947
 30
0.0
 10
1644.984862870004
 20
816.5902938496719
 30
0.0
 10
1650.259993077018
 20
815.4937199567169
 30
0.0
 10
1655.566473652949
 20
814.6162541366238
 30
0.0
 10
1666.332397044354
 20
812.8358287898467
 30
0.0
 10
1677.239224841107
 20
811.9542288551712
 30
0.0
 10
1688.149842242893
 20
811.9569849315594
 30
0.0
  0
ENDBLK
  5
118
330
115
100
AcDbEntity
  8
0
100
AcDbBlockEnd
  0
BLOCK
  5
11C
330
11A
100
AcDbEntity
  8
0
100
AcDbBlockBegin
  2
block 36
 70
     0
 71
     0
 10
0.0
 20
0.0
 30
0.0
  3
block 36
  1

  0
SPLINE
  5
11E
330
11A
100
AcDbEntity
  8
Predefinito
 62
     7
370
    70
100
AcDbSpline
210
0.0
220
0.0
230
1.0
 70
     8
 71
     3
 72
    11
 73
     7
 74
     0
 42
0.0000000001
 43
0.0000000001
 40
0.0
 40
0.0
 40
0.0
 40
0.0
 40
1.0
 40
1.0
 40
1.0
 40
2.0
 40
2.0
 40
2.0
 40
2.0
 10
1503.116864316061
 20
972.5366751040881
 30
0.0
 10
1505.783712731193
 20
972.5366751040881
 30
0.0
 10
1508.450216636776
 20
972.5366751040881
 30
0.0
 10
1511.11672054236
 20
972.5366751040881
 30
0.0
 10
1511.11672054236
 20
967.0114309648444
 30
0.0
 10
1511.11672054236
 20
961.4858423160522
 30
0.0
 10
1511.11672054236
 20
955.9605981768085
 30
0.0
  0
ENDBLK
  5
11D
330
11A
100
AcDbEntity
  8
0
100
AcDbBlockEnd
  0
BLOCK
  5
121
330
11F
100
AcDbEntity
  8
0
100
AcDbBlockBegin
  2
block 37
 70
     0
 71
     0
 10
0.0
 20
0.0
 30
0.0
  3
block 37
  1

  0
SPLINE
  5
123
330
11F
100
AcDbEntity
  8
Predefinito
 62
     7
370
    70
100
AcDbSpline
210
0.0
220
0.0
230
1.0
 70
     8
 71
     3
 72
     8
 73
     4
 74
     0
 42
0.0000000001
 43
0.0000000001
 40
0.0
 40
0.0
 40
0.0
 40
0.0
 40
1.0
 40
1.0
 40
1.0
 40
1.0
 10
1875.183042608461
 20
955.9605981768085
 30
0.0
 10
1875.183042608461
 20
957.5577444437703
 30
0.0
 10
1874.632860859467
 20
958.9354381283217
 30
0.0
 10
1873.532841871027
 20
960.0933347209142
 30
0.0
  0
ENDBLK
  5
122
330
11F
100
AcDbEntity
  8
0
100
AcDbBlockEnd
  0
BLOCK
  5
126
330
124
100
AcDbEntity
  8
0
100
AcDbBlockBegin
  2
block 38
 70
     0
 71
     0
 10
0.0
 20
0.0
 30
0.0
  3
block 38
  1

  0
SPLINE
  5
128
330
124
100
AcDbEntity
  8
Predefinito
 62
     7
370
    70
100
AcDbSpline
210
0.0
220
0.0
230
1.0
 70
     8
 71
     3
 72
    14
 73
    10
 74
     0
 42
0.0000000001
 43
0.0000000001
 40
0.0
 40
0.0
 40
0.0
 40
0.0
 40
1.0
 40
1.0
 40
1.0
 40
2.0
 40
2.0
 40
2.0
 40
3.0
 40
3.0
 40
3.0
 40
3.0
 10
1867.80743768409
 20
950.120472310213
 30
0.0
 10
1868.259778721303
 20
950.0140188597188
 30
0.0
 10
1868.71832093039
 20
949.9606198796973
 30
0.0
 10
1869.18306431135
 20
949.9606198796973
 30
0.0
 10
1870.839810730207
 20
949.9606198796973
 30
0.0
 10
1872.25436693645
 20
950.5462861121898
 30
0.0
 10
1873.425699401435
 20
951.7179630867233
 30
0.0
 10
1874.597376375969
 20
952.8896400612568
 30
0.0
 10
1875.183042608461
 20
954.3038517579519
 30
0.0
 10
1875.183042608461
 20
955.9605981768085
 30
0.0
  0
ENDBLK
  5
127
330
124
100
AcDbEntity
  8
0
100
AcDbBlockEnd
  0
BLOCK
  5
12B
330
129
100
AcDbEntity
  8
0
100
AcDbBlockBegin
  2
block 39
 70
     0
 71
     0
 10
0.0
 20
0.0
 30
0.0
  3
block 39
  1

  0
SPLINE
  5
12D
330
129
100
AcDbEntity
  8
Predefinito
 62
     7
370
    70
100
AcDbSpline
210
0.0
220
0.0
230
1.0
 70
     8
 71
     3
 72
    20
 73
    16
 74
     0
 42
0.0000000001
 43
0.0000000001
 40
0.0
 40
0.0
 40
0.0
 40
0.0
 40
1.0
 40
1.0
 40
1.0
 40
2.0
 40
2.0
 40
2.0
 40
3.0
 40
3.0
 40
3.0
 40
4.0
 40
4.0
 40
4.0
 40
5.0
 40
5.0
 40
5.0
 40
5.0
 10
1630.921983099214
 20
822.451779308276
 30
0.0
 10
1635.486390107621
 20
821.0496254457793
 30
0.0
 10
1640.110052758375
 20
819.819726357545
 30
0.0
 10
1644.767132835336
 20
818.7658716486072
 30
0.0
 10
1649.47244424909
 20
817.7009926341165
 30
0.0
 10
1654.201182312144
 20
816.8159476039558
 30
0.0
 10
1658.972984068764
 20
816.1052244053487
 30
0.0
 10
1661.37249307424
 20
815.7479680035283
 30
0.0
 10
1663.776136194299
 20
815.4354978430162
 30
0.0
 10
1666.186669505328
 20
815.1674694142637
 30
0.0
 10
1668.608571631459
 20
814.8984074568657
 30
0.0
 10
1671.033229833978
 20
814.6744762503245
 30
0.0
 10
1673.463400189273
 20
814.494986775543
 30
0.0
 10
1678.348545587357
 20
814.1346297877858
 30
0.0
 10
1683.251605481965
 20
813.9554848225529
 30
0.0
 10
1688.149842242893
 20
813.9568628607469
 30
0.0
  0
ENDBLK
  5
12C
330
129
100
AcDbEntity
  8
0
100
AcDbBlockEnd
  0
BLOCK
  5
130
330
12E
100
AcDbEntity
  8
0
100
AcDbBlockBegin
  2
block 40
 70
     0
 71
     0
 10
0.0
 20
0.0
 30
0.0
  3
block 40
  1

  0
POLYLINE
  5
132
330
12E
100
AcDbEntity
  8
Predefinito
 62
     7
370
    70
100
AcDb2dPolyline
 66
     1
 10
0.0
 20
0.0
 30
0.0
  0
VERTEX
  5
133
330
132
100
AcDbEntity
  8
Predefinito
 62
     7
370
    70
100
AcDbVertex
100
AcDb2dVertex
 10
1892.532887981728
 20
972.5366751040881
 30
0.0
  0
VERTEX
  5
134
330
132
100
AcDbEntity
  8
Predefinito
 62
     7
370
    70
100
AcDbVertex
100
AcDb2dVertex
 10
1892.532887981728
 20
762.4516518276163
 30
0.0
  0
SEQEND
  5
135
330
132
100
AcDbEntity
  8
Predefinito
370
    70
  0
ENDBLK
  5
131
330
12E
100
AcDbEntity
  8
0
100
AcDbBlockEnd
  0
BLOCK
  5
138
330
136
100
AcDbEntity
  8
0
100
AcDbBlockBegin
  2
block 41
 70
     0
 71
     0
 10
0.0
 20
0.0
 30
0.0
  3
block 41
  1

  0
SPLINE
  5
13A
330
136
100
AcDbEntity
  8
Predefinito
 62
     7
370
    70
100
AcDbSpline
210
0.0
220
0.0
230
1.0
 70
    24
 71
     3
 72
     8
 73
     4
 74
     0
 42
0.0000000001
 43
0.0000000001
 40
0.0
 40
0.0
 40
0.0
 40
0.0
 40
1.0
 40
1.0
 40
1.0
 40
1.0
 10
1891.471454062723
 20
972.5366751040881
 30
0.0
 10
1758.214127164613
 20
972.5366751040881
 30
0.0
 10
1624.956455756955
 20
972.5366751040881
 30
0.0
 10
1491.699128858846
 20
972.5366751040881
 30
0.0
  0
ENDBLK
  5
139
330
136
100
AcDbEntity
  8
0
100
AcDbBlockEnd
  0
BLOCK
  5
13D
330
13B
100
AcDbEntity
  8
0
100
AcDbBlockBegin
  2
block 42
 70
     0
 71
     0
 10
0.0
 20
0.0
 30
0.0
  3
block 42
  1

  0
POLYLINE
  5
13F
330
13B
100
AcDbEntity
  8
Predefinito
 62
     7
370
    70
100
AcDb2dPolyline
 66
     1
 10
0.0
 20
0.0
 30
0.0
  0
VERTEX
  5
140
330
13F
100
AcDbEntity
  8
Predefinito
 62
     7
370
    70
100
AcDbVertex
100
AcDb2dVertex
 10
1914.532578731436
 20
972.5366751040881
 30
0.0
  0
VERTEX
  5
141
330
13F
100
AcDbEntity
  8
Predefinito
 62
     7
370
    70
100
AcDbVertex
100
AcDb2dVertex
 10
1914.532578731436
 20
762.4516518276163
 30
0.0
  0
SEQEND
  5
142
330
13F
100
AcDbEntity
  8
Predefinito
370
    70
  0
ENDBLK
  5
13E
330
13B
100
AcDbEntity
  8
0
100
AcDbBlockEnd
  0
BLOCK
  5
145
330
143
100
AcDbEntity
  8
0
100
AcDbBlockBegin
  2
block 43
 70
     0
 71
     0
 10
0.0
 20
0.0
 30
0.0
  3
block 43
  1

  0
POLYLINE
  5
147
330
143
100
AcDbEntity
  8
Predefinito
 62
     7
370
    70
100
AcDb2dPolyline
 66
     1
 10
0.0
 20
0.0
 30
0.0
  0
VERTEX
  5
148
330
147
100
AcDbEntity
  8
Predefinito
 62
     7
370
    70
100
AcDbVertex
100
AcDb2dVertex
 10
2574.490228306031
 20
836.4519583412342
 30
0.0
  0
VERTEX
  5
149
330
147
100
AcDbEntity
  8
Predefinito
 62
     7
370
    70
100
AcDbVertex
100
AcDb2dVertex
 10
1914.532578731436
 20
836.4519583412342
 30
0.0
  0
SEQEND
  5
14A
330
147
100
AcDbEntity
  8
Predefinito
370
    70
  0
ENDBLK
  5
146
330
143
100
AcDbEntity
  8
0
100
AcDbBlockEnd
  0
BLOCK
  5
14D
330
14B
100
AcDbEntity
  8
0
100
AcDbBlockBegin
  2
block 44
 70
     0
 71
     0
 10
0.0
 20
0.0
 30
0.0
  3
block 44
  1

  0
SPLINE
  5
14F
330
14B
100
AcDbEntity
  8
Predefinito
 62
     7
370
    70
100
AcDbSpline
210
0.0
220
0.0
230
1.0
 70
    24
 71
     3
 72
     8
 73
     4
 74
     0
 42
0.0000000001
 43
0.0000000001
 40
0.0
 40
0.0
 40
0.0
 40
0.0
 40
1.0
 40
1.0
 40
1.0
 40
1.0
 10
1892.532887981728
 20
972.5366751040881
 30
0.0
 10
1892.179076675393
 20
972.5366751040881
 30
0.0
 10
1891.825265369058
 20
972.5366751040881
 30
0.0
 10
1891.471454062723
 20
972.5366751040881
 30
0.0
  0
ENDBLK
  5
14E
330
14B
100
AcDbEntity
  8
0
100
AcDbBlockEnd
  0
BLOCK
  5
152
330
150
100
AcDbEntity
  8
0
100
AcDbBlockBegin
  2
block 45
 70
     0
 71
     0
 10
0.0
 20
0.0
 30
0.0
  3
block 45
  1

  0
POLYLINE
  5
154
330
150
100
AcDbEntity
  8
Predefinito
 62
     7
370
    70
100
AcDb2dPolyline
 66
     1
 10
0.0
 20
0.0
 30
0.0
  0
VERTEX
  5
155
330
154
100
AcDbEntity
  8
Predefinito
 62
     7
370
    70
100
AcDbVertex
100
AcDb2dVertex
 10
1865.532985644728
 20
955.9605981768085
 30
0.0
  0
VERTEX
  5
156
330
154
100
AcDbEntity
  8
Predefinito
 62
     7
370
    70
100
AcDbVertex
100
AcDb2dVertex
 10
1865.532985644728
 20
972.5366751040881
 30
0.0
  0
SEQEND
  5
157
330
154
100
AcDbEntity
  8
Predefinito
370
    70
  0
ENDBLK
  5
153
330
150
100
AcDbEntity
  8
0
100
AcDbBlockEnd
  0
BLOCK
  5
15A
330
158
100
AcDbEntity
  8
0
100
AcDbBlockBegin
  2
block 46
 70
     0
 71
     0
 10
0.0
 20
0.0
 30
0.0
  3
block 46
  1

  0
SPLINE
  5
15C
330
158
100
AcDbEntity
  8
Predefinito
 62
     7
370
    70
100
AcDbSpline
210
0.0
220
0.0
230
1.0
 70
     8
 71
     3
 72
    35
 73
    31
 74
     0
 42
0.0000000001
 43
0.0000000001
 40
0.0
 40
0.0
 40
0.0
 40
0.0
 40
1.0
 40
1.0
 40
1.0
 40
2.0
 40
2.0
 40
2.0
 40
3.0
 40
3.0
 40
3.0
 40
4.0
 40
4.0
 40
4.0
 40
5.0
 40
5.0
 40
5.0
 40
6.0
 40
6.0
 40
6.0
 40
7.0
 40
7.0
 40
7.0
 40
8.0
 40
8.0
 40
8.0
 40
9.0
 40
9.0
 40
9.0
 40
10.0
 40
10.0
 40
10.0
 40
10.0
 10
1751.846901688775
 20
822.451779308276
 30
0.0
 10
1749.261702036643
 20
821.5646672208242
 30
0.0
 10
1746.660654945279
 20
820.7343992088789
 30
0.0
 10
1744.040315319198
 20
819.9595972342463
 30
0.0
 10
1741.425487845894
 20
819.1865178073562
 30
0.0
 10
1738.797569009745
 20
818.4706269655213
 30
0.0
 10
1736.15242469617
 20
817.8098576514503
 30
0.0
 10
1733.513826064017
 20
817.1504663755735
 30
0.0
 10
1730.864203126312
 20
816.5475746656548
 30
0.0
 10
1728.19976627802
 20
816.0001489930486
 30
0.0
 10
1725.545664716183
 20
815.4544458681851
 30
0.0
 10
1722.882605906085
 20
814.964897799731
 30
0.0
 10
1720.207833771337
 20
814.5301267494925
 30
0.0
 10
1714.893429475791
 20
813.6657522922433
 30
0.0
 10
1709.542162658552
 20
813.0201413983075
 30
0.0
 10
1704.175048402081
 20
812.5919160294909
 30
0.0
 10
1701.503721362819
 20
812.3790091285025
 30
0.0
 10
1698.831016285362
 20
812.2195012075355
 30
0.0
 10
1696.153488074226
 20
812.1137367761382
 30
0.0
 10
1694.820236121434
 20
812.0613713247625
 30
0.0
 10
1693.486984168642
 20
812.021752726682
 30
0.0
 10
1692.153043196754
 20
811.9955700009942
 30
0.0
 10
1691.485728201261
 20
811.9824786381503
 30
0.0
 10
1690.818757715316
 20
811.9728323707916
 30
0.0
 10
1690.151442719823
 20
811.9662866893696
 30
0.0
 10
1689.817957476851
 20
811.9631861034328
 30
0.0
 10
1689.484472233879
 20
811.9607745365931
 30
0.0
 10
1689.150986990907
 20
811.9590519888505
 30
0.0
 10
1688.817501747935
 20
811.9576739506565
 30
0.0
 10
1688.483671995414
 20
811.9569849315594
 30
0.0
 10
1688.149842242893
 20
811.9569849315594
 30
0.0
  0
ENDBLK
  5
15B
330
158
100
AcDbEntity
  8
0
100
AcDbBlockEnd
  0
BLOCK
  5
15F
330
15D
100
AcDbEntity
  8
0
100
AcDbBlockBegin
  2
block 47
 70
     0
 71
     0
 10
0.0
 20
0.0
 30
0.0
  3
block 47
  1

  0
SPLINE
  5
161
330
15D
100
AcDbEntity
  8
Predefinito
 62
     7
370
    70
100
AcDbSpline
210
0.0
220
0.0
230
1.0
 70
     8
 71
     3
 72
     8
 73
     4
 74
     0
 42
0.0000000001
 43
0.0000000001
 40
0.0
 40
0.0
 40
0.0
 40
0.0
 40
1.0
 40
1.0
 40
1.0
 40
1.0
 10
1782.966449207036
 20
836.4519583412342
 30
0.0
 10
1773.057321062812
 20
830.8247393756271
 30
0.0
 10
1762.621782328442
 20
826.1497448021431
 30
0.0
 10
1751.846901688775
 20
822.451779308276
 30
0.0
  0
ENDBLK
  5
160
330
15D
100
AcDbEntity
  8
0
100
AcDbBlockEnd
  0
BLOCK
  5
164
330
162
100
AcDbEntity
  8
0
100
AcDbBlockBegin
  2
block 48
 70
     0
 71
     0
 10
0.0
 20
0.0
 30
0.0
  3
block 48
  1

  0
POLYLINE
  5
166
330
162
100
AcDbEntity
  8
Predefinito
 62
     7
370
    70
100
AcDb2dPolyline
 66
     1
 10
0.0
 20
0.0
 30
0.0
  0
VERTEX
  5
167
330
166
100
AcDbEntity
  8
Predefinito
 62
     7
370
    70
100
AcDbVertex
100
AcDb2dVertex
 10
1469.033501151839
 20
762.4516518276163
 30
0.0
  0
VERTEX
  5
168
330
166
100
AcDbEntity
  8
Predefinito
 62
     7
370
    70
100
AcDbVertex
100
AcDb2dVertex
 10
1491.033880920644
 20
762.4516518276163
 30
0.0
  0
SEQEND
  5
169
330
166
100
AcDbEntity
  8
Predefinito
370
    70
  0
ENDBLK
  5
165
330
162
100
AcDbEntity
  8
0
100
AcDbBlockEnd
  0
BLOCK
  5
16C
330
16A
100
AcDbEntity
  8
0
100
AcDbBlockBegin
  2
block 49
 70
     0
 71
     0
 10
0.0
 20
0.0
 30
0.0
  3
block 49
  1

  0
POLYLINE
  5
16E
330
16A
100
AcDbEntity
  8
Predefinito
 62
     7
370
    70
100
AcDb2dPolyline
 66
     1
 10
0.0
 20
0.0
 30
0.0
  0
VERTEX
  5
16F
330
16E
100
AcDbEntity
  8
Predefinito
 62
     7
370
    70
100
AcDbVertex
100
AcDb2dVertex
 10
1503.116864316061
 20
955.9605981768085
 30
0.0
  0
VERTEX
  5
170
330
16E
100
AcDbEntity
  8
Predefinito
 62
     7
370
    70
100
AcDbVertex
100
AcDb2dVertex
 10
1503.116864316061
 20
972.5366751040881
 30
0.0
  0
SEQEND
  5
171
330
16E
100
AcDbEntity
  8
Predefinito
370
    70
  0
ENDBLK
  5
16D
330
16A
100
AcDbEntity
  8
0
100
AcDbBlockEnd
  0
BLOCK
  5
174
330
172
100
AcDbEntity
  8
0
100
AcDbBlockBegin
  2
block 50
 70
     0
 71
     0
 10
0.0
 20
0.0
 30
0.0
  3
block 50
  1

  0
POLYLINE
  5
176
330
172
100
AcDbEntity
  8
Predefinito
 62
     7
370
    70
100
AcDb2dPolyline
 66
     1
 10
0.0
 20
0.0
 30
0.0
  0
VERTEX
  5
177
330
176
100
AcDbEntity
  8
Predefinito
 62
     7
370
    70
100
AcDbVertex
100
AcDb2dVertex
 10
1914.532578731436
 20
972.5366751040881
 30
0.0
  0
VERTEX
  5
178
330
176
100
AcDbEntity
  8
Predefinito
 62
     7
370
    70
100
AcDbVertex
100
AcDb2dVertex
 10
1914.532578731436
 20
984.5366316983103
 30
0.0
  0
SEQEND
  5
179
330
176
100
AcDbEntity
  8
Predefinito
370
    70
  0
ENDBLK
  5
175
330
172
100
AcDbEntity
  8
0
100
AcDbBlockEnd
  0
BLOCK
  5
17C
330
17A
100
AcDbEntity
  8
0
100
AcDbBlockBegin
  2
block 51
 70
     0
 71
     0
 10
0.0
 20
0.0
 30
0.0
  3
block 51
  1

  0
POLYLINE
  5
17E
330
17A
100
AcDbEntity
  8
Predefinito
 62
     7
370
    70
100
AcDb2dPolyline
 66
     1
 10
0.0
 20
0.0
 30
0.0
  0
VERTEX
  5
17F
330
17E
100
AcDbEntity
  8
Predefinito
 62
     7
370
    70
100
AcDbVertex
100
AcDb2dVertex
 10
1512.845813966407
 20
945.3245548851967
 30
0.0
  0
VERTEX
  5
180
330
17E
100
AcDbEntity
  8
Predefinito
 62
     7
370
    70
100
AcDbVertex
100
AcDb2dVertex
 10
1510.901402074532
 20
944.8487871986837
 30
0.0
  0
SEQEND
  5
181
330
17E
100
AcDbEntity
  8
Predefinito
370
    70
  0
ENDBLK
  5
17D
330
17A
100
AcDbEntity
  8
0
100
AcDbBlockEnd
  0
BLOCK
  5
184
330
182
100
AcDbEntity
  8
0
100
AcDbBlockBegin
  2
block 52
 70
     0
 71
     0
 10
0.0
 20
0.0
 30
0.0
  3
block 52
  1

  0
SPLINE
  5
186
330
182
100
AcDbEntity
  8
Predefinito
 62
     7
370
    70
100
AcDbSpline
210
0.0
220
0.0
230
1.0
 70
     8
 71
     3
 72
    77
 73
    73
 74
     0
 42
0.0000000001
 43
0.0000000001
 40
0.0
 40
0.0
 40
0.0
 40
0.0
 40
1.0
 40
1.0
 40
1.0
 40
2.0
 40
2.0
 40
2.0
 40
3.0
 40
3.0
 40
3.0
 40
4.0
 40
4.0
 40
4.0
 40
5.0
 40
5.0
 40
5.0
 40
6.0
 40
6.0
 40
6.0
 40
7.0
 40
7.0
 40
7.0
 40
8.0
 40
8.0
 40
8.0
 40
9.0
 40
9.0
 40
9.0
 40
10.0
 40
10.0
 40
10.0
 40
11.0
 40
11.0
 40
11.0
 40
12.0
 40
12.0
 40
12.0
 40
13.0
 40
13.0
 40
13.0
 40
14.0
 40
14.0
 40
14.0
 40
15.0
 40
15.0
 40
15.0
 40
16.0
 40
16.0
 40
16.0
 40
17.0
 40
17.0
 40
17.0
 40
18.0
 40
18.0
 40
18.0
 40
19.0
 40
19.0
 40
19.0
 40
20.0
 40
20.0
 40
20.0
 40
21.0
 40
21.0
 40
21.0
 40
22.0
 40
22.0
 40
22.0
 40
23.0
 40
23.0
 40
23.0
 40
24.0
 40
24.0
 40
24.0
 40
24.0
 10
1865.532985644728
 20
956.2344832678858
 30
0.0
 10
1865.4461692385
 20
955.8679251082552
 30
0.0
 10
1865.363142437305
 20
955.5006779295277
 30
0.0
 10
1865.282871712499
 20
955.1330862412515
 30
0.0
 10
1865.24290860487
 20
954.9498071614362
 30
0.0
 10
1865.203634516338
 20
954.7661835720724
 30
0.0
 10
1865.165049446903
 20
954.5829044922571
 30
0.0
 10
1865.126464377468
 20
954.3979028646992
 30
0.0
 10
1865.088568327131
 20
954.2129012371413
 30
0.0
 10
1865.051016786342
 20
954.0278996095833
 30
0.0
 10
1864.97660272386
 20
953.6606524308557
 30
0.0
 10
1864.905289247316
 20
953.2930607425795
 30
0.0
 10
1864.835353808965
 20
952.9251245447549
 30
0.0
 10
1864.765418370614
 20
952.5558103087361
 30
0.0
 10
1864.697894499103
 20
952.1864960727173
 30
0.0
 10
1864.631059646689
 20
951.81683732715
 30
0.0
 10
1864.564224794276
 20
951.4454560338401
 30
0.0
 10
1864.498767980056
 20
951.0737302309816
 30
0.0
 10
1864.434000184933
 20
950.7020044281231
 30
0.0
 10
1864.369921408908
 20
950.334412739847
 30
0.0
 10
1864.306531651979
 20
949.9671655611194
 30
0.0
 10
1864.242797385502
 20
949.5999183823917
 30
0.0
 10
1864.178374099928
 20
949.2295706177274
 30
0.0
 10
1864.114295323902
 20
948.8595673626115
 30
0.0
 10
1864.048838509682
 20
948.4899086170442
 30
0.0
 10
1863.982003657268
 20
948.1150822282491
 30
0.0
 10
1863.914479785758
 20
947.7406003490024
 30
0.0
 10
1863.845577876053
 20
947.3664629793043
 30
0.0
 10
1863.292295541121
 20
944.3695744166854
 30
0.0
 10
1862.651507780865
 20
941.3957679938178
 30
0.0
 10
1861.921836557089
 20
938.4371199910852
 30
0.0
 10
1861.554589378361
 20
936.9488387414573
 30
0.0
 10
1861.165638098077
 20
935.4667586637028
 30
0.0
 10
1860.754638206686
 20
933.9901907387247
 30
0.0
 10
1860.343293805748
 20
932.5136228137467
 30
0.0
 10
1859.909900793703
 20
931.043945079739
 30
0.0
 10
1859.45514818965
 20
929.5797794985078
 30
0.0
 10
1858.54426494335
 20
926.6507593169484
 30
0.0
 10
1857.548976857662
 20
923.755156561596
 30
0.0
 10
1856.466183346648
 20
920.8850475128344
 30
0.0
 10
1855.918757674041
 20
919.4346623135442
 30
0.0
 10
1855.349972409427
 20
917.9932343625156
 30
0.0
 10
1854.759483043255
 20
916.5600746406517
 30
0.0
 10
1854.168993677083
 20
915.1269149187877
 30
0.0
 10
1853.557833738
 20
913.703056954734
 30
0.0
 10
1852.924625187811
 20
912.2881562389418
 30
0.0
 10
1852.29176114717
 20
910.8729110136013
 30
0.0
 10
1851.63788202407
 20
909.4683455842649
 30
0.0
 10
1850.962987818509
 20
908.0727374031902
 30
0.0
 10
1850.2877491034
 20
906.6767847125669
 30
0.0
 10
1849.592528834477
 20
905.2918563274965
 30
0.0
 10
1848.876637992642
 20
903.9169187193334
 30
0.0
 10
1848.151789902545
 20
902.5247556337439
 30
0.0
 10
1847.406271239537
 20
901.1446503823528
 30
0.0
 10
1846.640082003618
 20
899.7748804174174
 30
0.0
 10
1845.873892767698
 20
898.4051104524821
 30
0.0
 10
1845.087721977964
 20
897.0477428312937
 30
0.0
 10
1844.280880615319
 20
895.7013995156581
 30
0.0
 10
1842.666508870931
 20
893.0073348461926
 30
0.0
 10
1840.97565600677
 20
890.3673581758457
 30
0.0
 10
1839.204876927352
 20
887.7735457850011
 30
0.0
 10
1835.625767227726
 20
882.530799475548
 30
0.0
 10
1831.732464819845
 20
877.5002710479861
 30
0.0
 10
1827.562521244498
 20
872.7143443998771
 30
0.0
 10
1823.366394943464
 20
867.8994789496918
 30
0.0
 10
1818.890526889027
 20
863.3312823362505
 30
0.0
 10
1814.168679016944
 20
859.0311141515617
 30
0.0
 10
1809.41892587143
 20
854.7057967698305
 30
0.0
 10
1804.420436831881
 20
850.651952912337
 30
0.0
 10
1799.214897553669
 20
846.8881860947016
 30
0.0
 10
1793.995922403064
 20
843.1147730097075
 30
0.0
 10
1788.56645191831
 20
839.6317814741199
 30
0.0
 10
1782.966449207036
 20
836.4519583412342
 30
0.0
  0
ENDBLK
  5
185
330
182
100
AcDbEntity
  8
0
100
AcDbBlockEnd
  0
BLOCK
  5
189
330
187
100
AcDbEntity
  8
0
100
AcDbBlockBegin
  2
block 53
 70
     0
 71
     0
 10
0.0
 20
0.0
 30
0.0
  3
block 53
  1

  0
SPLINE
  5
18B
330
187
100
AcDbEntity
  8
Predefinito
 62
     7
370
    70
100
AcDbSpline
210
0.0
220
0.0
230
1.0
 70
     8
 71
     3
 72
    44
 73
    40
 74
     0
 42
0.0000000001
 43
0.0000000001
 40
0.0
 40
0.0
 40
0.0
 40
0.0
 40
1.0
 40
1.0
 40
1.0
 40
2.0
 40
2.0
 40
2.0
 40
3.0
 40
3.0
 40
3.0
 40
4.0
 40
4.0
 40
4.0
 40
5.0
 40
5.0
 40
5.0
 40
6.0
 40
6.0
 40
6.0
 40
7.0
 40
7.0
 40
7.0
 40
8.0
 40
8.0
 40
8.0
 40
9.0
 40
9.0
 40
9.0
 40
10.0
 40
10.0
 40
10.0
 40
11.0
 40
11.0
 40
11.0
 40
12.0
 40
12.0
 40
12.0
 40
13.0
 40
13.0
 40
13.0
 40
13.0
 10
1511.11672054236
 20
955.9605981768085
 30
0.0
 10
1511.460885581336
 20
953.250686068111
 30
0.0
 10
1511.876019587309
 20
950.5542098318059
 30
0.0
 10
1512.363156088923
 20
947.866346334214
 30
0.0
 10
1512.850292590537
 20
945.177104798428
 30
0.0
 10
1513.408398059148
 20
942.5054332496168
 30
0.0
 10
1514.037817004303
 20
939.8461640445524
 30
0.0
 10
1515.296999404162
 20
934.5262475962296
 30
0.0
 10
1516.836268066972
 20
929.2835012867764
 30
0.0
 10
1518.651833387698
 20
924.1268823644544
 30
0.0
 10
1520.431569715378
 20
919.0715492493988
 30
0.0
 10
1522.473822319034
 20
914.110611750639
 30
0.0
 10
1524.76618885492
 20
909.2657739697322
 30
0.0
 10
1525.912716632411
 20
906.8424938054075
 30
0.0
 10
1527.119878090442
 20
904.4526310672896
 30
0.0
 10
1528.389051267208
 20
902.0913626216994
 30
0.0
 10
1529.658913463071
 20
899.7300941761092
 30
0.0
 10
1530.986653263087
 20
897.404999233114
 30
0.0
 10
1532.374337724545
 20
895.1112546590347
 30
0.0
 10
1535.098719234281
 20
890.6095483884587
 30
0.0
 10
1538.047720969655
 20
886.2432343704531
 30
0.0
 10
1541.202739415047
 20
882.0322941588322
 30
0.0
 10
1542.781282166388
 20
879.925618269602
 30
0.0
 10
1544.40874527362
 20
877.8609725452917
 30
0.0
 10
1546.087884813131
 20
875.8335338522222
 30
0.0
 10
1547.767024352642
 20
873.8060951591527
 30
0.0
 10
1549.492328171655
 20
871.8224091787458
 30
0.0
 10
1551.267241365656
 20
869.8783417964194
 30
0.0
 10
1554.754367015825
 20
866.0587644319229
 30
0.0
 10
1558.422704688519
 20
862.4024845934272
 30
0.0
 10
1562.249516753535
 20
858.9239716819704
 30
0.0
 10
1566.077017837647
 20
855.4451142609652
 30
0.0
 10
1570.06574939047
 20
852.1416122001591
 30
0.0
 10
1574.192973781799
 20
849.025178824202
 30
0.0
 10
1578.279546046402
 20
845.9390622885153
 30
0.0
 10
1582.501166054028
 20
843.0369138517408
 30
0.0
 10
1586.843019894088
 20
840.3214895902669
 30
0.0
 10
1588.978634585394
 20
838.9858260706355
 30
0.0
 10
1591.142843569228
 20
837.6956378114095
 30
0.0
 10
1593.333579788299
 20
836.4519583412342
 30
0.0
  0
ENDBLK
  5
18A
330
187
100
AcDbEntity
  8
0
100
AcDbBlockEnd
  0
BLOCK
  5
18E
330
18C
100
AcDbEntity
  8
0
100
AcDbBlockBegin
  2
block 54
 70
     0
 71
     0
 10
0.0
 20
0.0
 30
0.0
  3
block 54
  1

  0
SPLINE
  5
190
330
18C
100
AcDbEntity
  8
Predefinito
 62
     7
370
    70
100
AcDbSpline
210
0.0
220
0.0
230
1.0
 70
     8
 71
     3
 72
    17
 73
    13
 74
     0
 42
0.0000000001
 43
0.0000000001
 40
0.0
 40
0.0
 40
0.0
 40
0.0
 40
1.0
 40
1.0
 40
1.0
 40
2.0
 40
2.0
 40
2.0
 40
3.0
 40
3.0
 40
3.0
 40
4.0
 40
4.0
 40
4.0
 40
4.0
 10
1864.214547602523
 20
949.4448890855555
 30
0.0
 10
1864.517371495676
 20
950.0464027572801
 30
0.0
 10
1864.696860970458
 20
950.3316566634588
 30
0.0
 10
1864.904944737767
 20
950.5948619585319
 30
0.0
 10
1865.119918696046
 20
950.866679992318
 30
0.0
 10
1865.365554004145
 20
951.1147268672561
 30
0.0
 10
1865.639439095222
 20
951.3269447491475
 30
0.0
 10
1865.922970453658
 20
951.5463973315578
 30
0.0
 10
1866.237163161913
 20
951.727609354082
 30
0.0
 10
1866.570648404885
 20
951.8599010207156
 30
0.0
 10
1866.904133647857
 20
951.9925371968977
 30
0.0
 10
1867.256911425547
 20
952.0762530171893
 30
0.0
 10
1868.036881043407
 20
952.1282739590166
 30
0.0
  0
ENDBLK
  5
18F
330
18C
100
AcDbEntity
  8
0
100
AcDbBlockEnd
  0
BLOCK
  5
193
330
191
100
AcDbEntity
  8
0
100
AcDbBlockBegin
  2
block 55
 70
     0
 71
     0
 10
0.0
 20
0.0
 30
0.0
  3
block 55
  1

  0
SPLINE
  5
195
330
191
100
AcDbEntity
  8
Predefinito
 62
     7
370
    70
100
AcDbSpline
210
0.0
220
0.0
230
1.0
 70
     8
 71
     3
 72
     8
 73
     4
 74
     0
 42
0.0000000001
 43
0.0000000001
 40
0.0
 40
0.0
 40
0.0
 40
0.0
 40
1.0
 40
1.0
 40
1.0
 40
1.0
 10
1866.137599902389
 20
948.8268389555017
 30
0.0
 10
1865.90850105262
 20
947.4977211172923
 30
0.0
 10
1865.662176725425
 20
946.1717038650196
 30
0.0
 10
1865.398626920803
 20
944.8487871986837
 30
0.0
  0
ENDBLK
  5
194
330
191
100
AcDbEntity
  8
0
100
AcDbBlockEnd
  0
BLOCK
  5
198
330
196
100
AcDbEntity
  8
0
100
AcDbBlockBegin
  2
block 56
 70
     0
 71
     0
 10
0.0
 20
0.0
 30
0.0
  3
block 56
  1

  0
SPLINE
  5
19A
330
196
100
AcDbEntity
  8
Predefinito
 62
     7
370
    70
100
AcDbSpline
210
0.0
220
0.0
230
1.0
 70
     8
 71
     3
 72
    59
 73
    55
 74
     0
 42
0.0000000001
 43
0.0000000001
 40
0.0
 40
0.0
 40
0.0
 40
0.0
 40
1.0
 40
1.0
 40
1.0
 40
2.0
 40
2.0
 40
2.0
 40
3.0
 40
3.0
 40
3.0
 40
4.0
 40
4.0
 40
4.0
 40
5.0
 40
5.0
 40
5.0
 40
6.0
 40
6.0
 40
6.0
 40
7.0
 40
7.0
 40
7.0
 40
8.0
 40
8.0
 40
8.0
 40
9.0
 40
9.0
 40
9.0
 40
10.0
 40
10.0
 40
10.0
 40
11.0
 40
11.0
 40
11.0
 40
12.0
 40
12.0
 40
12.0
 40
13.0
 40
13.0
 40
13.0
 40
14.0
 40
14.0
 40
14.0
 40
15.0
 40
15.0
 40
15.0
 40
16.0
 40
16.0
 40
16.0
 40
17.0
 40
17.0
 40
17.0
 40
18.0
 40
18.0
 40
18.0
 40
18.0
 10
1863.19927796302
 20
956.2124346567803
 30
0.0
 10
1862.863381153208
 20
953.5686683813996
 30
0.0
 10
1862.459271452788
 20
950.9379934688627
 30
0.0
 10
1861.985570823566
 20
948.3155867854906
 30
0.0
 10
1861.511870194344
 20
945.6914575543758
 30
0.0
 10
1860.969612164966
 20
943.0845538006872
 30
0.0
 10
1860.35914124498
 20
940.4886743525515
 30
0.0
 10
1859.747981305896
 20
937.8934839235128
 30
0.0
 10
1859.069986514399
 20
935.3186195578371
 30
0.0
 10
1858.323778832294
 20
932.7585691027479
 30
0.0
 10
1857.577571150189
 20
930.1988631572073
 30
0.0
 10
1856.765562144316
 20
927.6632728800633
 30
0.0
 10
1855.886029266931
 20
925.1459416089913
 30
0.0
 10
1855.014420109163
 20
922.6503144394763
 30
0.0
 10
1854.079076684918
 20
920.1812145051978
 30
0.0
 10
1853.07896546555
 20
917.7334741629278
 30
0.0
 10
1852.07919875573
 20
915.2860783302064
 30
0.0
 10
1851.018109346273
 20
912.8686548282064
 30
0.0
 10
1849.893285670339
 20
910.4760360137004
 30
0.0
 10
1849.331046087146
 20
909.2802433707702
 30
0.0
 10
1848.753992593367
 20
908.0920299379076
 30
0.0
 10
1848.161436169904
 20
906.9110512055639
 30
0.0
 10
1847.568879746441
 20
905.7300724732203
 30
0.0
 10
1846.961164902843
 20
904.5570174604927
 30
0.0
 10
1846.338636148658
 20
903.3915416578327
 30
0.0
 10
1845.093234130741
 20
901.0605900525127
 30
0.0
 10
1843.790299018219
 20
898.7654674402393
 30
0.0
 10
1842.428108263351
 20
896.500661668236
 30
0.0
 10
1841.082453966813
 20
894.2634166601148
 30
0.0
 10
1839.682367161607
 20
892.0633786832342
 30
0.0
 10
1838.226469809541
 20
889.895724603915
 30
0.0
 10
1836.770916967023
 20
887.7284150341443
 30
0.0
 10
1835.263687692226
 20
885.6003795529055
 30
0.0
 10
1833.702370418311
 20
883.5071395360677
 30
0.0
 10
1830.581113908674
 20
879.3220375405862
 30
0.0
 10
1827.257285784505
 20
875.2954099374261
 30
0.0
 10
1823.743632899099
 20
871.4334578984611
 30
0.0
 10
1820.269254102225
 20
867.6142250435131
 30
0.0
 10
1816.620553473796
 20
863.9686250010218
 30
0.0
 10
1812.802354147494
 20
860.4925236564047
 30
0.0
 10
1810.894115758214
 20
858.7551620031932
 30
0.0
 10
1808.947981318596
 20
857.0643091390326
 30
0.0
 10
1806.961539261801
 20
855.4168644779861
 30
0.0
 10
1804.974752695458
 20
853.7697643264881
 30
0.0
 10
1802.952826155165
 20
852.1698619831382
 30
0.0
 10
1800.893348074082
 20
850.6147458810964
 30
0.0
 10
1796.825723834648
 20
847.5437877655446
 30
0.0
 10
1792.623740871289
 20
844.6567977489053
 30
0.0
 10
1788.300835056397
 20
841.9572209266635
 30
0.0
 10
1786.138693129854
 20
840.6070880059941
 30
0.0
 10
1783.949679458527
 20
839.3055309316667
 30
0.0
 10
1781.731037966026
 20
838.0504826463902
 30
0.0
 10
1780.772612402029
 20
837.5082246170118
 30
0.0
 10
1779.81005272345
 20
836.9756128549923
 30
0.0
 10
1778.842669911192
 20
836.4519583412342
 30
0.0
  0
ENDBLK
  5
199
330
196
100
AcDbEntity
  8
0
100
AcDbBlockEnd
  0
BLOCK
  5
19D
330
19B
100
AcDbEntity
  8
0
100
AcDbBlockBegin
  2
block 57
 70
     0
 71
     0
 10
0.0
 20
0.0
 30
0.0
  3
block 57
  1

  0
SPLINE
  5
19F
330
19B
100
AcDbEntity
  8
Predefinito
 62
     7
370
    70
100
AcDbSpline
210
0.0
220
0.0
230
1.0
 70
     8
 71
     3
 72
    14
 73
    10
 74
     0
 42
0.0000000001
 43
0.0000000001
 40
0.0
 40
0.0
 40
0.0
 40
0.0
 40
1.0
 40
1.0
 40
1.0
 40
2.0
 40
2.0
 40
2.0
 40
3.0
 40
3.0
 40
3.0
 40
3.0
 10
1501.116986386874
 20
955.9605981768085
 30
0.0
 10
1501.116986386874
 20
954.3038517579519
 30
0.0
 10
1501.702652619366
 20
952.8896400612568
 30
0.0
 10
1502.8743295939
 20
951.7179630867233
 30
0.0
 10
1504.046006568433
 20
950.5462861121898
 30
0.0
 10
1505.45987375558
 20
949.9606198796973
 30
0.0
 10
1507.116964683985
 20
949.9606198796973
 30
0.0
 10
1507.581708064945
 20
949.9606198796973
 30
0.0
 10
1508.040250274032
 20
950.0140188597188
 30
0.0
 10
1508.492591311245
 20
950.120472310213
 30
0.0
  0
ENDBLK
  5
19E
330
19B
100
AcDbEntity
  8
0
100
AcDbBlockEnd
  0
BLOCK
  5
1A2
330
1A0
100
AcDbEntity
  8
0
100
AcDbBlockBegin
  2
block 58
 70
     0
 71
     0
 10
0.0
 20
0.0
 30
0.0
  3
block 58
  1

  0
POLYLINE
  5
1A4
330
1A0
100
AcDbEntity
  8
Predefinito
 62
     7
370
    70
100
AcDb2dPolyline
 66
     1
 10
0.0
 20
0.0
 30
0.0
  0
VERTEX
  5
1A5
330
1A4
100
AcDbEntity
  8
Predefinito
 62
     7
370
    70
100
AcDbVertex
100
AcDb2dVertex
 10
2595.976599828437
 20
762.4516518276163
 30
0.0
  0
VERTEX
  5
1A6
330
1A4
100
AcDbEntity
  8
Predefinito
 62
     7
370
    70
100
AcDbVertex
100
AcDb2dVertex
 10
2574.490228306031
 20
762.4516518276163
 30
0.0
  0
SEQEND
  5
1A7
330
1A4
100
AcDbEntity
  8
Predefinito
370
    70
  0
ENDBLK
  5
1A3
330
1A0
100
AcDbEntity
  8
0
100
AcDbBlockEnd
  0
BLOCK
  5
1AA
330
1A8
100
AcDbEntity
  8
0
100
AcDbBlockBegin
  2
block 59
 70
     0
 71
     0
 10
0.0
 20
0.0
 30
0.0
  3
block 59
  1

  0
POLYLINE
  5
1AC
330
1A8
100
AcDbEntity
  8
Predefinito
 62
     7
370
    70
100
AcDb2dPolyline
 66
     1
 10
0.0
 20
0.0
 30
0.0
  0
VERTEX
  5
1AD
330
1AC
100
AcDbEntity
  8
Predefinito
 62
     7
370
    70
100
AcDbVertex
100
AcDb2dVertex
 10
1914.532578731436
 20
762.4516518276163
 30
0.0
  0
VERTEX
  5
1AE
330
1AC
100
AcDbEntity
  8
Predefinito
 62
     7
370
    70
100
AcDbVertex
100
AcDb2dVertex
 10
1892.532887981728
 20
762.4516518276163
 30
0.0
  0
SEQEND
  5
1AF
330
1AC
100
AcDbEntity
  8
Predefinito
370
    70
  0
ENDBLK
  5
1AB
330
1A8
100
AcDbEntity
  8
0
100
AcDbBlockEnd
  0
BLOCK
  5
1B2
330
1B0
100
AcDbEntity
  8
0
100
AcDbBlockBegin
  2
block 60
 70
     0
 71
     0
 10
0.0
 20
0.0
 30
0.0
  3
block 60
  1

  0
POLYLINE
  5
1B4
330
1B0
100
AcDbEntity
  8
Predefinito
 62
     7
370
    70
100
AcDb2dPolyline
 66
     1
 10
0.0
 20
0.0
 30
0.0
  0
VERTEX
  5
1B5
330
1B4
100
AcDbEntity
  8
Predefinito
 62
     7
370
    70
100
AcDbVertex
100
AcDb2dVertex
 10
1892.532887981728
 20
836.4519583412342
 30
0.0
  0
VERTEX
  5
1B6
330
1B4
100
AcDbEntity
  8
Predefinito
 62
     7
370
    70
100
AcDbVertex
100
AcDb2dVertex
 10
1892.532887981728
 20
822.451779308276
 30
0.0
  0
SEQEND
  5
1B7
330
1B4
100
AcDbEntity
  8
Predefinito
370
    70
  0
ENDBLK
  5
1B3
330
1B0
100
AcDbEntity
  8
0
100
AcDbBlockEnd
  0
BLOCK
  5
1BA
330
1B8
100
AcDbEntity
  8
0
100
AcDbBlockBegin
  2
block 61
 70
     0
 71
     0
 10
0.0
 20
0.0
 30
0.0
  3
block 61
  1

  0
POLYLINE
  5
1BC
330
1B8
100
AcDbEntity
  8
Predefinito
 62
     7
370
    70
100
AcDb2dPolyline
 66
     1
 10
0.0
 20
0.0
 30
0.0
  0
VERTEX
  5
1BD
330
1BC
100
AcDbEntity
  8
Predefinito
 62
     7
370
    70
100
AcDbVertex
100
AcDb2dVertex
 10
2595.976599828437
 20
762.4516518276163
 30
0.0
  0
VERTEX
  5
1BE
330
1BC
100
AcDbEntity
  8
Predefinito
 62
     7
370
    70
100
AcDbVertex
100
AcDb2dVertex
 10
2574.490228306031
 20
762.4516518276163
 30
0.0
  0
SEQEND
  5
1BF
330
1BC
100
AcDbEntity
  8
Predefinito
370
    70
  0
ENDBLK
  5
1BB
330
1B8
100
AcDbEntity
  8
0
100
AcDbBlockEnd
  0
BLOCK
  5
1C2
330
1C0
100
AcDbEntity
  8
0
100
AcDbBlockBegin
  2
block 62
 70
     0
 71
     0
 10
0.0
 20
0.0
 30
0.0
  3
block 62
  1

  0
POLYLINE
  5
1C4
330
1C0
100
AcDbEntity
  8
Predefinito
 62
     7
370
    70
100
AcDb2dPolyline
 66
     1
 10
0.0
 20
0.0
 30
0.0
  0
VERTEX
  5
1C5
330
1C4
100
AcDbEntity
  8
Predefinito
 62
     7
370
    70
100
AcDbVertex
100
AcDb2dVertex
 10
2643.888231760903
 20
1129.550002430286
 30
0.0
  0
VERTEX
  5
1C6
330
1C4
100
AcDbEntity
  8
Predefinito
 62
     7
370
    70
100
AcDbVertex
100
AcDb2dVertex
 10
2643.888231760903
 20
1122.451727692477
 30
0.0
  0
SEQEND
  5
1C7
330
1C4
100
AcDbEntity
  8
Predefinito
370
    70
  0
ENDBLK
  5
1C3
330
1C0
100
AcDbEntity
  8
0
100
AcDbBlockEnd
  0
BLOCK
  5
1CA
330
1C8
100
AcDbEntity
  8
0
100
AcDbBlockBegin
  2
block 63
 70
     0
 71
     0
 10
0.0
 20
0.0
 30
0.0
  3
block 63
  1

  0
POLYLINE
  5
1CC
330
1C8
100
AcDbEntity
  8
Predefinito
 62
     7
370
    70
100
AcDb2dPolyline
 66
     1
 10
0.0
 20
0.0
 30
0.0
  0
VERTEX
  5
1CD
330
1CC
100
AcDbEntity
  8
Predefinito
 62
     7
370
    70
100
AcDbVertex
100
AcDb2dVertex
 10
2574.490228306031
 20
1122.451727692477
 30
0.0
  0
VERTEX
  5
1CE
330
1CC
100
AcDbEntity
  8
Predefinito
 62
     7
370
    70
100
AcDbVertex
100
AcDb2dVertex
 10
2574.490228306031
 20
762.4516518276163
 30
0.0
  0
SEQEND
  5
1CF
330
1CC
100
AcDbEntity
  8
Predefinito
370
    70
  0
ENDBLK
  5
1CB
330
1C8
100
AcDbEntity
  8
0
100
AcDbBlockEnd
  0
BLOCK
  5
1D2
330
1D0
100
AcDbEntity
  8
0
100
AcDbBlockBegin
  2
block 64
 70
     0
 71
     0
 10
0.0
 20
0.0
 30
0.0
  3
block 64
  1

  0
SPLINE
  5
1D4
330
1D0
100
AcDbEntity
  8
Predefinito
 62
     7
370
    70
100
AcDbSpline
210
0.0
220
0.0
230
1.0
 70
     8
 71
     3
 72
     8
 73
     4
 74
     0
 42
0.0000000001
 43
0.0000000001
 40
0.0
 40
0.0
 40
0.0
 40
0.0
 40
1.0
 40
1.0
 40
1.0
 40
1.0
 10
1510.162429092946
 20
948.8268389555017
 30
0.0
 10
1509.880275772703
 20
949.7132620238565
 30
0.0
 10
1509.323892851836
 20
950.1442434690612
 30
0.0
 10
1508.492591311245
 20
950.120472310213
 30
0.0
  0
ENDBLK
  5
1D3
330
1D0
100
AcDbEntity
  8
0
100
AcDbBlockEnd
  0
BLOCK
  5
1D7
330
1D5
100
AcDbEntity
  8
0
100
AcDbBlockBegin
  2
block 65
 70
     0
 71
     0
 10
0.0
 20
0.0
 30
0.0
  3
block 65
  1

  0
POLYLINE
  5
1D9
330
1D5
100
AcDbEntity
  8
Predefinito
 62
     7
370
    70
100
AcDb2dPolyline
 66
     1
 10
0.0
 20
0.0
 30
0.0
  0
VERTEX
  5
1DA
330
1D9
100
AcDbEntity
  8
Predefinito
 62
     7
370
    70
100
AcDbVertex
100
AcDb2dVertex
 10
2643.888231760903
 20
1122.451727692477
 30
0.0
  0
VERTEX
  5
1DB
330
1D9
100
AcDbEntity
  8
Predefinito
 62
     7
370
    70
100
AcDbVertex
100
AcDb2dVertex
 10
1845.617577663596
 20
1122.451727692477
 30
0.0
  0
SEQEND
  5
1DC
330
1D9
100
AcDbEntity
  8
Predefinito
370
    70
  0
ENDBLK
  5
1D8
330
1D5
100
AcDbEntity
  8
0
100
AcDbBlockEnd
  0
BLOCK
  5
1DF
330
1DD
100
AcDbEntity
  8
0
100
AcDbBlockBegin
  2
block 66
 70
     0
 71
     0
 10
0.0
 20
0.0
 30
0.0
  3
block 66
  1

  0
SPLINE
  5
1E1
330
1DD
100
AcDbEntity
  8
Predefinito
 62
     7
370
    70
100
AcDbSpline
210
0.0
220
0.0
230
1.0
 70
     8
 71
     3
 72
    17
 73
    13
 74
     0
 42
0.0000000001
 43
0.0000000001
 40
0.0
 40
0.0
 40
0.0
 40
0.0
 40
1.0
 40
1.0
 40
1.0
 40
2.0
 40
2.0
 40
2.0
 40
3.0
 40
3.0
 40
3.0
 40
4.0
 40
4.0
 40
4.0
 40
4.0
 10
2643.906835276523
 20
1122.451727692477
 30
0.0
 10
2643.888231760903
 20
1130.870163020234
 30
0.0
 10
2643.888231760903
 20
1132.130206693964
 30
0.0
 10
2643.825531023072
 20
1132.814574912109
 30
0.0
 10
2643.76283028524
 20
1133.499115385028
 30
0.0
 10
2643.638117828674
 20
1133.60832491191
 30
0.0
 10
2643.512716353011
 20
1133.68911240104
 30
0.0
 10
2643.388003896445
 20
1133.769899890169
 30
0.0
 10
2643.262602420782
 20
1133.822609851093
 30
0.0
 10
2643.009043393067
 20
1133.897368423123
 30
0.0
 10
2642.755484365353
 20
1133.972126995153
 30
0.0
 10
2642.373423276039
 20
1134.068934178288
 30
0.0
 10
2641.97620376659
 20
1134.4516842867
 30
0.0
  0
ENDBLK
  5
1E0
330
1DD
100
AcDbEntity
  8
0
100
AcDbBlockEnd
  0
BLOCK
  5
1E4
330
1E2
100
AcDbEntity
  8
0
100
AcDbBlockBegin
  2
block 67
 70
     0
 71
     0
 10
0.0
 20
0.0
 30
0.0
  3
block 67
  1

  0
POLYLINE
  5
1E6
330
1E2
100
AcDbEntity
  8
Predefinito
 62
     7
370
    70
100
AcDb2dPolyline
 66
     1
 10
0.0
 20
0.0
 30
0.0
  0
VERTEX
  5
1E7
330
1E6
100
AcDbEntity
  8
Predefinito
 62
     7
370
    70
100
AcDbVertex
100
AcDb2dVertex
 10
2595.976599828437
 20
1122.451727692477
 30
0.0
  0
VERTEX
  5
1E8
330
1E6
100
AcDbEntity
  8
Predefinito
 62
     7
370
    70
100
AcDbVertex
100
AcDb2dVertex
 10
2595.976599828437
 20
762.4516518276163
 30
0.0
  0
SEQEND
  5
1E9
330
1E6
100
AcDbEntity
  8
Predefinito
370
    70
  0
ENDBLK
  5
1E5
330
1E2
100
AcDbEntity
  8
0
100
AcDbBlockEnd
  0
BLOCK
  5
1EC
330
1EA
100
AcDbEntity
  8
0
100
AcDbBlockBegin
  2
block 68
 70
     0
 71
     0
 10
0.0
 20
0.0
 30
0.0
  3
block 68
  1

  0
SPLINE
  5
1EE
330
1EA
100
AcDbEntity
  8
Predefinito
 62
     7
370
    70
100
AcDbSpline
210
0.0
220
0.0
230
1.0
 70
     8
 71
     3
 72
     8
 73
     4
 74
     0
 42
0.0000000001
 43
0.0000000001
 40
0.0
 40
0.0
 40
0.0
 40
0.0
 40
1.0
 40
1.0
 40
1.0
 40
1.0
 10
1510.162429092946
 20
948.8268389555017
 30
0.0
 10
1510.391527942715
 20
947.4977211172923
 30
0.0
 10
1510.63785226991
 20
946.1717038650196
 30
0.0
 10
1510.901402074532
 20
944.8487871986837
 30
0.0
  0
ENDBLK
  5
1ED
330
1EA
100
AcDbEntity
  8
0
100
AcDbBlockEnd
  0
BLOCK
  5
1F1
330
1EF
100
AcDbEntity
  8
0
100
AcDbBlockBegin
  2
block 69
 70
     0
 71
     0
 10
0.0
 20
0.0
 30
0.0
  3
block 69
  1

  0
SPLINE
  5
1F3
330
1EF
100
AcDbEntity
  8
Predefinito
 62
     7
370
    70
100
AcDbSpline
210
0.0
220
0.0
230
1.0
 70
     8
 71
     3
 72
     8
 73
     4
 74
     0
 42
0.0000000001
 43
0.0000000001
 40
0.0
 40
0.0
 40
0.0
 40
0.0
 40
1.0
 40
1.0
 40
1.0
 40
1.0
 10
1513.116942981096
 20
955.9605981768085
 30
0.0
 10
1513.116942981096
 20
957.7496362622987
 30
0.0
 10
1512.4503170047
 20
959.2399845692179
 30
0.0
 10
1511.11672054236
 20
960.4326766262113
 30
0.0
  0
ENDBLK
  5
1F2
330
1EF
100
AcDbEntity
  8
0
100
AcDbBlockEnd
  0
BLOCK
  5
1F6
330
1F4
100
AcDbEntity
  8
0
100
AcDbBlockBegin
  2
block 70
 70
     0
 71
     0
 10
0.0
 20
0.0
 30
0.0
  3
block 70
  1

  0
SPLINE
  5
1F8
330
1F4
100
AcDbEntity
  8
Predefinito
 62
     7
370
    70
100
AcDbSpline
210
0.0
220
0.0
230
1.0
 70
     8
 71
     3
 72
    14
 73
    10
 74
     0
 42
0.0000000001
 43
0.0000000001
 40
0.0
 40
0.0
 40
0.0
 40
0.0
 40
1.0
 40
1.0
 40
1.0
 40
2.0
 40
2.0
 40
2.0
 40
3.0
 40
3.0
 40
3.0
 40
3.0
 10
1875.183042608461
 20
955.9605981768085
 30
0.0
 10
1875.183042608461
 20
954.3038517579519
 30
0.0
 10
1874.597376375969
 20
952.8896400612568
 30
0.0
 10
1873.425699401435
 20
951.7179630867233
 30
0.0
 10
1872.25436693645
 20
950.5462861121898
 30
0.0
 10
1870.839810730207
 20
949.9606198796973
 30
0.0
 10
1869.18306431135
 20
949.9606198796973
 30
0.0
 10
1868.71832093039
 20
949.9606198796973
 30
0.0
 10
1868.259778721303
 20
950.0140188597188
 30
0.0
 10
1867.80743768409
 20
950.120472310213
 30
0.0
  0
ENDBLK
  5
1F7
330
1F4
100
AcDbEntity
  8
0
100
AcDbBlockEnd
  0
BLOCK
  5
1FB
330
1F9
100
AcDbEntity
  8
0
100
AcDbBlockBegin
  2
block 71
 70
     0
 71
     0
 10
0.0
 20
0.0
 30
0.0
  3
block 71
  1

  0
SPLINE
  5
1FD
330
1F9
100
AcDbEntity
  8
Predefinito
 62
     7
370
    70
100
AcDbSpline
210
0.0
220
0.0
230
1.0
 70
     8
 71
     3
 72
    17
 73
    13
 74
     0
 42
0.0000000001
 43
0.0000000001
 40
0.0
 40
0.0
 40
0.0
 40
0.0
 40
1.0
 40
1.0
 40
1.0
 40
2.0
 40
2.0
 40
2.0
 40
3.0
 40
3.0
 40
3.0
 40
4.0
 40
4.0
 40
4.0
 40
4.0
 10
1503.116864316061
 20
955.9605981768085
 30
0.0
 10
1503.116864316061
 20
954.8561005642374
 30
0.0
 10
1503.50719363454
 20
953.9131779299245
 30
0.0
 10
1504.288541290595
 20
953.1321747834183
 30
0.0
 10
1505.069544437101
 20
952.3511716369122
 30
0.0
 10
1506.012467071414
 20
951.960497808885
 30
0.0
 10
1507.116964683985
 20
951.960497808885
 30
0.0
 10
1508.221462296556
 20
951.960497808885
 30
0.0
 10
1509.16404042132
 20
952.3511716369122
 30
0.0
 10
1509.945388077375
 20
953.1321747834183
 30
0.0
 10
1510.726391223881
 20
953.9131779299245
 30
0.0
 10
1511.11672054236
 20
954.8561005642374
 30
0.0
 10
1511.11672054236
 20
955.9605981768085
 30
0.0
  0
ENDBLK
  5
1FC
330
1F9
100
AcDbEntity
  8
0
100
AcDbBlockEnd
  0
BLOCK
  5
200
330
1FE
100
AcDbEntity
  8
0
100
AcDbBlockBegin
  2
block 72
 70
     0
 71
     0
 10
0.0
 20
0.0
 30
0.0
  3
block 72
  1

  0
SPLINE
  5
202
330
1FE
100
AcDbEntity
  8
Predefinito
 62
     7
370
    70
100
AcDbSpline
210
0.0
220
0.0
230
1.0
 70
     8
 71
     3
 72
   194
 73
   190
 74
     0
 42
0.0000000001
 43
0.0000000001
 40
0.0
 40
0.0
 40
0.0
 40
0.0
 40
1.0
 40
1.0
 40
1.0
 40
2.0
 40
2.0
 40
2.0
 40
3.0
 40
3.0
 40
3.0
 40
4.0
 40
4.0
 40
4.0
 40
5.0
 40
5.0
 40
5.0
 40
6.0
 40
6.0
 40
6.0
 40
7.0
 40
7.0
 40
7.0
 40
8.0
 40
8.0
 40
8.0
 40
9.0
 40
9.0
 40
9.0
 40
10.0
 40
10.0
 40
10.0
 40
11.0
 40
11.0
 40
11.0
 40
12.0
 40
12.0
 40
12.0
 40
13.0
 40
13.0
 40
13.0
 40
14.0
 40
14.0
 40
14.0
 40
15.0
 40
15.0
 40
15.0
 40
16.0
 40
16.0
 40
16.0
 40
17.0
 40
17.0
 40
17.0
 40
18.0
 40
18.0
 40
18.0
 40
19.0
 40
19.0
 40
19.0
 40
20.0
 40
20.0
 40
20.0
 40
21.0
 40
21.0
 40
21.0
 40
22.0
 40
22.0
 40
22.0
 40
23.0
 40
23.0
 40
23.0
 40
24.0
 40
24.0
 40
24.0
 40
25.0
 40
25.0
 40
25.0
 40
26.0
 40
26.0
 40
26.0
 40
27.0
 40
27.0
 40
27.0
 40
28.0
 40
28.0
 40
28.0
 40
29.0
 40
29.0
 40
29.0
 40
30.0
 40
30.0
 40
30.0
 40
31.0
 40
31.0
 40
31.0
 40
32.0
 40
32.0
 40
32.0
 40
33.0
 40
33.0
 40
33.0
 40
34.0
 40
34.0
 40
34.0
 40
35.0
 40
35.0
 40
35.0
 40
36.0
 40
36.0
 40
36.0
 40
37.0
 40
37.0
 40
37.0
 40
38.0
 40
38.0
 40
38.0
 40
39.0
 40
39.0
 40
39.0
 40
40.0
 40
40.0
 40
40.0
 40
41.0
 40
41.0
 40
41.0
 40
42.0
 40
42.0
 40
42.0
 40
43.0
 40
43.0
 40
43.0
 40
44.0
 40
44.0
 40
44.0
 40
45.0
 40
45.0
 40
45.0
 40
46.0
 40
46.0
 40
46.0
 40
47.0
 40
47.0
 40
47.0
 40
48.0
 40
48.0
 40
48.0
 40
49.0
 40
49.0
 40
49.0
 40
50.0
 40
50.0
 40
50.0
 40
51.0
 40
51.0
 40
51.0
 40
52.0
 40
52.0
 40
52.0
 40
53.0
 40
53.0
 40
53.0
 40
54.0
 40
54.0
 40
54.0
 40
55.0
 40
55.0
 40
55.0
 40
56.0
 40
56.0
 40
56.0
 40
57.0
 40
57.0
 40
57.0
 40
58.0
 40
58.0
 40
58.0
 40
59.0
 40
59.0
 40
59.0
 40
60.0
 40
60.0
 40
60.0
 40
61.0
 40
61.0
 40
61.0
 40
62.0
 40
62.0
 40
62.0
 40
63.0
 40
63.0
 40
63.0
 40
63.0
 10
1862.301486079564
 20
1147.721675331559
 30
0.0
 10
1863.541031435157
 20
1148.345409869164
 30
0.0
 10
1864.825363032058
 20
1148.932109630302
 30
0.0
 10
1866.140355978778
 20
1149.487459022524
 30
0.0
 10
1867.558012770958
 20
1150.08621661786
 30
0.0
 10
1869.011498556185
 20
1150.64914522015
 30
0.0
 10
1870.490478048002
 20
1151.182446001267
 30
0.0
 10
1872.108294887876
 20
1151.76570066692
 30
0.0
 10
1873.756084058471
 20
1152.313987613397
 30
0.0
 10
1875.425232821074
 20
1152.834024776896
 30
0.0
 10
1877.232529912636
 20
1153.396953379186
 30
0.0
 10
1879.064287182144
 20
1153.926809064817
 30
0.0
 10
1880.913269929077
 20
1154.430137515212
 30
0.0
 10
1882.893510813999
 20
1154.969122703879
 30
0.0
 10
1884.893044233638
 20
1155.477791052276
 30
0.0
 10
1886.907047054315
 20
1155.961482458405
 30
0.0
 10
1889.085725439187
 20
1156.485136972163
 30
0.0
 10
1891.281629301485
 20
1156.979852683845
 30
0.0
 10
1893.488557469336
 20
1157.451830765325
 30
0.0
 10
1895.93078565883
 20
1157.973934986114
 30
0.0
 10
1898.386794230265
 20
1158.468478443022
 30
0.0
 10
1900.852104559509
 20
1158.942179072244
 30
0.0
 10
1903.539279038004
 20
1159.458254375934
 30
0.0
 10
1906.237477822052
 20
1159.949697246905
 30
0.0
 10
1908.943944835264
 20
1160.421847583159
 30
0.0
 10
1911.996299435195
 20
1160.95411483563
 30
0.0
 10
1915.058300302486
 20
1161.461921910155
 30
0.0
 10
1918.127880379843
 20
1161.95026419519
 30
0.0
 10
1919.444251364757
 20
1162.159726000693
 30
0.0
 10
1920.762000387865
 20
1162.365570455936
 30
0.0
 10
1922.081471958716
 20
1162.568142070469
 30
0.0
 10
1924.094785760296
 20
1162.87733939027
 30
0.0
 10
1926.110855638264
 20
1163.178957500004
 30
0.0
 10
1928.12968159262
 20
1163.473513163993
 30
0.0
 10
1934.211997671829
 20
1164.36165878009
 30
0.0
 10
1940.315328833498
 20
1165.188309441776
 30
0.0
 10
1946.431406848462
 20
1165.972929938541
 30
0.0
 10
1947.697134929743
 20
1166.135193935897
 30
0.0
 10
1948.962863011023
 20
1166.295735385509
 30
0.0
 10
1950.22962462095
 20
1166.45455428738
 30
0.0
 10
1958.539539440921
 20
1167.496867926442
 30
0.0
 10
1966.871847381546
 20
1168.465801031668
 30
0.0
 10
1975.218969232758
 20
1169.375306239774
 30
0.0
 10
1984.189308857251
 20
1170.35267982894
 30
0.0
 10
1993.17721846872
 20
1171.261496017949
 30
0.0
 10
2002.177874933484
 20
1172.115190679194
 30
0.0
 10
2011.964702187981
 20
1173.04329940292
 30
0.0
 10
2021.766687862614
 20
1173.906295821975
 30
0.0
 10
2031.5796978428
 20
1174.714515222814
 30
0.0
 10
2041.732394237831
 20
1175.550984406633
 30
0.0
 10
2051.896803957512
 20
1176.328542457654
 30
0.0
 10
2062.070859944552
 20
1177.049600942717
 30
0.0
 10
2072.300726478453
 20
1177.774449032813
 30
0.0
 10
2082.540928298809
 20
1178.442453047403
 30
0.0
 10
2092.788709329233
 20
1179.053268476938
 30
0.0
 10
2103.053026817987
 20
1179.665289689893
 30
0.0
 10
2113.324923516808
 20
1180.220294572566
 30
0.0
 10
2123.604399425696
 20
1180.716905086765
 30
0.0
 10
2133.576228307752
 20
1181.198873945152
 30
0.0
 10
2143.554947380778
 20
1181.625893530548
 30
0.0
 10
2153.538145077935
 20
1181.996069040438
 30
0.0
 10
2163.507562393151
 20
1182.365727786006
 30
0.0
 10
2173.481802842046
 20
1182.678714710841
 30
0.0
 10
2183.460177405524
 20
1182.931412464684
 30
0.0
 10
2193.2404589786
 20
1183.179114830073
 30
0.0
 10
2203.024530156709
 20
1183.368939591311
 30
0.0
 10
2212.810323882562
 20
1183.497613907685
 30
0.0
 10
2222.396646579818
 20
1183.623532147671
 30
0.0
 10
2231.985036334365
 20
1183.690883764407
 30
0.0
 10
2241.573081579364
 20
1183.693467586021
 30
0.0
 10
2251.172151129916
 20
1183.696051407635
 30
0.0
 10
2260.770876170919
 20
1183.633867434126
 30
0.0
 10
2270.368223173728
 20
1183.512255563497
 30
0.0
 10
2280.407920436843
 20
1183.385131540091
 30
0.0
 10
2290.446239661764
 20
1183.193239721563
 30
0.0
 10
2300.480424772102
 20
1182.942092260688
 30
0.0
 10
2310.740608146273
 20
1182.685432647037
 30
0.0
 10
2320.997346424959
 20
1182.366933569426
 30
0.0
 10
2331.248917060417
 20
1181.991418161533
 30
0.0
 10
2341.71890674964
 20
1181.607806779251
 30
0.0
 10
2352.183728795635
 20
1181.164595245074
 30
0.0
 10
2362.642005160208
 20
1180.665056399712
 30
0.0
 10
2373.314566463963
 20
1180.15535452267
 30
0.0
 10
2383.9798930672
 20
1179.586741512829
 30
0.0
 10
2394.637640460368
 20
1178.961628937031
 30
0.0
 10
2405.30641215909
 20
1178.335999596909
 30
0.0
 10
2415.966915628647
 20
1177.653526181281
 30
0.0
 10
2426.618461849943
 20
1176.914208690147
 30
0.0
 10
2437.298602363766
 20
1176.172824141721
 30
0.0
 10
2447.969441119778
 20
1175.37425100824
 30
0.0
 10
2458.62891106069
 20
1174.516422232413
 30
0.0
 10
2468.863945237819
 20
1173.692699901889
 30
0.0
 10
2479.088299618943
 20
1172.814200553151
 30
0.0
 10
2489.297840089481
 20
1171.868866351998
 30
0.0
 10
2498.381867864988
 20
1171.0275740345
 30
0.0
 10
2507.454182315845
 20
1170.133571756078
 30
0.0
 10
2516.509271289276
 20
1169.17066756795
 30
0.0
 10
2520.784290276922
 20
1168.716259473446
 30
0.0
 10
2525.055519659535
 20
1168.246348449258
 30
0.0
 10
2529.322270418017
 20
1167.760245476289
 30
0.0
 10
2533.40643111578
 20
1167.294813076232
 30
0.0
 10
2537.486457698962
 20
1166.81422225604
 30
0.0
 10
2541.561316638915
 20
1166.314511155904
 30
0.0
 10
2545.254458999103
 20
1165.861481099594
 30
0.0
 10
2548.943467244709
 20
1165.392775858825
 30
0.0
 10
2552.626274318441
 20
1164.904605828566
 30
0.0
 10
2556.078259994661
 20
1164.447097148124
 30
0.0
 10
2559.524733518105
 20
1163.972535245031
 30
0.0
 10
2562.964316850579
 20
1163.477302769027
 30
0.0
 10
2566.18479211019
 20
1163.013592916712
 30
0.0
 10
2569.399410707477
 20
1162.531451803551
 30
0.0
 10
2572.605072056502
 20
1162.027089824511
 30
0.0
 10
2575.565098097428
 20
1161.561485169679
 30
0.0
 10
2578.517544928287
 20
1161.076760234904
 30
0.0
 10
2581.460000982239
 20
1160.567919631733
 30
0.0
 10
2584.132706059696
 20
1160.105587817613
 30
0.0
 10
2586.79679839844
 20
1159.623274449678
 30
0.0
 10
2589.449866431631
 20
1159.1158118847
 30
0.0
 10
2591.871424048213
 20
1158.652446541934
 30
0.0
 10
2594.282990887888
 20
1158.168238371482
 30
0.0
 10
2596.680777345622
 20
1157.655780418051
 30
0.0
 10
2598.853943577717
 20
1157.19138154664
 30
0.0
 10
2601.01608550426
 20
1156.703556025928
 30
0.0
 10
2603.161001953376
 20
1156.186791703141
 30
0.0
 10
2605.152956162948
 20
1155.706717647271
 30
0.0
 10
2607.131129990578
 20
1155.201494394359
 30
0.0
 10
2608.73309939122
 20
1154.768790401412
 30
0.0
 10
2610.228959850915
 20
1154.364852955767
 30
0.0
 10
2611.397191729963
 20
1154.02430526705
 30
0.0
 10
2612.85308908203
 20
1153.586778140423
 30
0.0
 10
2616.576892792036
 20
1152.467811126814
 30
0.0
 10
2622.181718636989
 20
1150.715291053467
 30
0.0
 10
2626.831219503882
 20
1149.014791921948
 30
0.0
 10
2632.418130852312
 20
1146.971505789646
 30
0.0
 10
2636.625970477996
 20
1145.003667248471
 30
0.0
 10
2638.880440963544
 20
1142.607947848029
 30
0.0
 10
2639.370333541547
 20
1142.087566174982
 30
0.0
 10
2639.767897560544
 20
1141.546858438572
 30
0.0
 10
2640.117574752297
 20
1140.856805812876
 30
0.0
 10
2640.4555386194
 20
1140.189318562609
 30
0.0
 10
2640.748371735646
 20
1139.381960435641
 30
0.0
 10
2640.962656674829
 20
1138.566161824733
 30
0.0
 10
2641.069110125323
 20
1138.16067408612
 30
0.0
 10
2641.1562710411
 20
1137.753119290214
 30
0.0
 10
2641.213115116607
 20
1137.442716186993
 30
0.0
 10
2641.272026249404
 20
1137.122666816414
 30
0.0
 10
2641.298208975092
 20
1136.905970310392
 30
0.0
 10
2641.330937382202
 20
1136.706499281796
 30
0.0
 10
2641.452549252831
 20
1135.963047676079
 30
0.0
 10
2641.658910472398
 20
1135.460063735232
 30
0.0
 10
2641.798436839551
 20
1135.17222600744
 30
0.0
 10
2641.808083106909
 20
1135.152761217948
 30
0.0
 10
2641.817040355171
 20
1135.134157702328
 30
0.0
 10
2641.860104048737
 20
1135.074213040884
 30
0.0
 10
2641.897655589526
 20
1135.021847589509
 30
0.0
 10
2641.960700836906
 20
1134.937787259668
 30
0.0
 10
2642.036492937581
 20
1134.858550063508
 30
0.0
 10
2642.131922082523
 20
1134.758297784887
 30
0.0
 10
2642.248366309924
 20
1134.665624716334
 30
0.0
 10
2642.388926205722
 20
1134.590521634755
 30
0.0
 10
2642.454038510394
 20
1134.555726170354
 30
0.0
 10
2642.523973948744
 20
1134.524720310987
 30
0.0
 10
2642.597698992129
 20
1134.498365330525
 30
0.0
 10
2642.635250532918
 20
1134.485101712906
 30
0.0
 10
2642.673491092804
 20
1134.473043878708
 30
0.0
 10
2642.712765181336
 20
1134.462019573155
 30
0.0
 10
2642.752383779416
 20
1134.450650758054
 30
0.0
 10
2642.793035906142
 20
1134.440659981147
 30
0.0
 10
2642.834032542416
 20
1134.431702732885
 30
0.0
 10
2642.885019955598
 20
1134.420678427332
 30
0.0
 10
2642.936351878328
 20
1134.411548924297
 30
0.0
 10
2642.988372820156
 20
1134.40362520468
 30
0.0
 10
2643.08070137916
 20
1134.389500313191
 30
0.0
 10
2643.174063466811
 20
1134.379337281509
 30
0.0
 10
2643.250889096132
 20
1134.368657485505
 30
0.0
 10
2643.283272993693
 20
1134.364178861374
 30
0.0
 10
2643.312900814866
 20
1134.359527982469
 30
0.0
 10
2643.34941882701
 20
1134.352810046273
 30
0.0
 10
2643.479643436352
 20
1134.328349868328
 30
0.0
 10
2643.696684451923
 20
1134.276501181275
 30
0.0
 10
2643.792802615962
 20
1134.15023843174
 30
0.0
 10
2643.83758885727
 20
1134.091499553717
 30
0.0
 10
2643.855847863342
 20
1134.016568726913
 30
0.0
 10
2643.8654941307
 20
1133.971093466507
 30
0.0
 10
2643.874106869413
 20
1133.931130358878
 30
0.0
 10
2643.875829417156
 20
1133.913560371904
 30
0.0
 10
2643.87720745535
 20
1133.896334894477
 30
0.0
 10
2643.90063410465
 20
1133.612803536041
 30
0.0
 10
2643.90063410465
 20
1133.398346342085
 30
0.0
 10
2643.888576270452
 20
1122.019368209078
 30
0.0
  0
ENDBLK
  5
201
330
1FE
100
AcDbEntity
  8
0
100
AcDbBlockEnd
  0
BLOCK
  5
205
330
203
100
AcDbEntity
  8
0
100
AcDbBlockBegin
  2
block 73
 70
     0
 71
     0
 10
0.0
 20
0.0
 30
0.0
  3
block 73
  1

  0
SPLINE
  5
207
330
203
100
AcDbEntity
  8
Predefinito
 62
     7
370
    70
100
AcDbSpline
210
0.0
220
0.0
230
1.0
 70
     8
 71
     3
 72
    17
 73
    13
 74
     0
 42
0.0000000001
 43
0.0000000001
 40
0.0
 40
0.0
 40
0.0
 40
0.0
 40
1.0
 40
1.0
 40
1.0
 40
2.0
 40
2.0
 40
2.0
 40
3.0
 40
3.0
 40
3.0
 40
4.0
 40
4.0
 40
4.0
 40
4.0
 10
1845.598629638427
 20
1122.451727692477
 30
0.0
 10
1845.617577663596
 20
1130.870163020234
 30
0.0
 10
1845.617577663596
 20
1132.130206693964
 30
0.0
 10
1845.679933891879
 20
1132.814574912109
 30
0.0
 10
1845.742290120162
 20
1133.499115385028
 30
0.0
 10
1845.867691595825
 20
1133.60832491191
 30
0.0
 10
1845.992404052391
 20
1133.68911240104
 30
0.0
 10
1846.117805528054
 20
1133.769899890169
 30
0.0
 10
1846.243207003717
 20
1133.822609851093
 30
0.0
 10
1846.496766031431
 20
1133.897368423123
 30
0.0
 10
1846.750325059146
 20
1133.972126995153
 30
0.0
 10
1847.132041638911
 20
1134.068934178288
 30
0.0
 10
1847.529605657909
 20
1134.4516842867
 30
0.0
  0
ENDBLK
  5
206
330
203
100
AcDbEntity
  8
0
100
AcDbBlockEnd
  0
BLOCK
  5
20A
330
208
100
AcDbEntity
  8
0
100
AcDbBlockBegin
  2
block 74
 70
     0
 71
     0
 10
0.0
 20
0.0
 30
0.0
  3
block 74
  1

  0
POLYLINE
  5
20C
330
208
100
AcDbEntity
  8
Predefinito
 62
     7
370
    70
100
AcDb2dPolyline
 66
     1
 10
0.0
 20
0.0
 30
0.0
  0
VERTEX
  5
20D
330
20C
100
AcDbEntity
  8
Predefinito
 62
     7
370
    70
100
AcDbVertex
100
AcDb2dVertex
 10
1892.532887981728
 20
836.4519583412342
 30
0.0
  0
VERTEX
  5
20E
330
20C
100
AcDbEntity
  8
Predefinito
 62
     7
370
    70
100
AcDbVertex
100
AcDb2dVertex
 10
1892.532887981728
 20
822.451779308276
 30
0.0
  0
SEQEND
  5
20F
330
20C
100
AcDbEntity
  8
Predefinito
370
    70
  0
ENDBLK
  5
20B
330
208
100
AcDbEntity
  8
0
100
AcDbBlockEnd
  0
BLOCK
  5
212
330
210
100
AcDbEntity
  8
0
100
AcDbBlockBegin
  2
block 75
 70
     0
 71
     0
 10
0.0
 20
0.0
 30
0.0
  3
block 75
  1

  0
SPLINE
  5
214
330
210
100
AcDbEntity
  8
Predefinito
 62
     7
370
    70
100
AcDbSpline
210
0.0
220
0.0
230
1.0
 70
     8
 71
     3
 72
    17
 73
    13
 74
     0
 42
0.0000000001
 43
0.0000000001
 40
0.0
 40
0.0
 40
0.0
 40
0.0
 40
1.0
 40
1.0
 40
1.0
 40
2.0
 40
2.0
 40
2.0
 40
3.0
 40
3.0
 40
3.0
 40
4.0
 40
4.0
 40
4.0
 40
4.0
 10
1503.116864316061
 20
955.9605981768085
 30
0.0
 10
1503.116864316061
 20
954.8561005642374
 30
0.0
 10
1503.50719363454
 20
953.9131779299245
 30
0.0
 10
1504.288541290595
 20
953.1321747834183
 30
0.0
 10
1505.069544437101
 20
952.3511716369122
 30
0.0
 10
1506.012467071414
 20
951.960497808885
 30
0.0
 10
1507.116964683985
 20
951.960497808885
 30
0.0
 10
1508.221462296556
 20
951.960497808885
 30
0.0
 10
1509.16404042132
 20
952.3511716369122
 30
0.0
 10
1509.945388077375
 20
953.1321747834183
 30
0.0
 10
1510.726391223881
 20
953.9131779299245
 30
0.0
 10
1511.11672054236
 20
954.8561005642374
 30
0.0
 10
1511.11672054236
 20
955.9605981768085
 30
0.0
  0
ENDBLK
  5
213
330
210
100
AcDbEntity
  8
0
100
AcDbBlockEnd
  0
BLOCK
  5
217
330
215
100
AcDbEntity
  8
0
100
AcDbBlockBegin
  2
block 76
 70
     0
 71
     0
 10
0.0
 20
0.0
 30
0.0
  3
block 76
  1

  0
SPLINE
  5
219
330
215
100
AcDbEntity
  8
Predefinito
 62
     7
370
    70
100
AcDbSpline
210
0.0
220
0.0
230
1.0
 70
     8
 71
     3
 72
    56
 73
    52
 74
     0
 42
0.0000000001
 43
0.0000000001
 40
0.0
 40
0.0
 40
0.0
 40
0.0
 40
1.0
 40
1.0
 40
1.0
 40
2.0
 40
2.0
 40
2.0
 40
3.0
 40
3.0
 40
3.0
 40
4.0
 40
4.0
 40
4.0
 40
5.0
 40
5.0
 40
5.0
 40
6.0
 40
6.0
 40
6.0
 40
7.0
 40
7.0
 40
7.0
 40
8.0
 40
8.0
 40
8.0
 40
9.0
 40
9.0
 40
9.0
 40
10.0
 40
10.0
 40
10.0
 40
11.0
 40
11.0
 40
11.0
 40
12.0
 40
12.0
 40
12.0
 40
13.0
 40
13.0
 40
13.0
 40
14.0
 40
14.0
 40
14.0
 40
15.0
 40
15.0
 40
15.0
 40
16.0
 40
16.0
 40
16.0
 40
17.0
 40
17.0
 40
17.0
 40
17.0
 10
1513.101095541864
 20
956.2124346567803
 30
0.0
 10
1513.503827204089
 20
953.038123676671
 30
0.0
 10
1514.005433106742
 20
949.8844832694733
 30
0.0
 10
1514.607291288015
 20
946.7418671678284
 30
0.0
 10
1515.209149469288
 20
943.5978730279894
 30
0.0
 10
1515.908503852794
 20
940.4807506329354
 30
0.0
 10
1516.707421495823
 20
937.3808537153076
 30
0.0
 10
1517.498415419237
 20
934.310584618853
 30
0.0
 10
1518.383115939849
 20
931.2723549104111
 30
0.0
 10
1519.364279134048
 20
928.2572073417205
 30
0.0
 10
1519.854860731147
 20
926.7503225764722
 30
0.0
 10
1520.36817995845
 20
925.252050549937
 30
0.0
 10
1520.904925835052
 20
923.7613577334695
 30
0.0
 10
1521.442016221202
 20
922.2706649170018
 30
0.0
 10
1522.001844237555
 20
920.7892738583444
 30
0.0
 10
1522.58475439366
 20
919.3161510288516
 30
0.0
 10
1523.745062553092
 20
916.3836857518069
 30
0.0
 10
1524.992187118752
 20
913.4942841683279
 30
0.0
 10
1526.330262205223
 20
910.6386445206043
 30
0.0
 10
1527.668337291694
 20
907.7836938919777
 30
0.0
 10
1529.090472708005
 20
904.9759410714992
 30
0.0
 10
1530.600802568739
 20
902.2078068491008
 30
0.0
 10
1533.615261118332
 20
896.6808401621146
 30
0.0
 10
1536.966305496835
 20
891.3378415740406
 30
0.0
 10
1540.623274354428
 20
886.2136065492799
 30
0.0
 10
1542.453309076192
 20
883.6487329605114
 30
0.0
 10
1544.355690803147
 20
881.1438040331863
 30
0.0
 10
1546.334209140326
 20
878.691929576334
 30
0.0
 10
1548.312727477505
 20
876.2400551194817
 30
0.0
 10
1550.359803214841
 20
873.8512259100095
 30
0.0
 10
1552.478192428721
 20
871.5192407760438
 30
0.0
 10
1554.607261438605
 20
869.1755423174284
 30
0.0
 10
1556.800064714967
 20
866.8990232207752
 30
0.0
 10
1559.061425391485
 20
864.682793295114
 30
0.0
 10
1560.191416710647
 20
863.5751950966062
 30
0.0
 10
1561.336910959492
 20
862.4844778659761
 30
0.0
 10
1562.49825264757
 20
861.4096080745782
 30
0.0
 10
1563.659594335648
 20
860.3347382831803
 30
0.0
 10
1564.835749934312
 20
859.2774384787571
 30
0.0
 10
1566.027063953111
 20
858.235986113566
 30
0.0
 10
1568.424505901297
 20
856.1410235489856
 30
0.0
 10
1570.876380358149
 20
854.118752499144
 30
0.0
 10
1573.388199476445
 20
852.1626272826192
 30
0.0
 10
1574.64359227127
 20
851.1852536934538
 30
0.0
 10
1575.91173191939
 20
850.2257946008117
 30
0.0
 10
1577.193651949452
 20
849.2839054951444
 30
0.0
 10
1578.475571979513
 20
848.3420163894771
 30
0.0
 10
1579.769894353321
 20
847.4183862898816
 30
0.0
 10
1581.077652599522
 20
846.5123261772609
 30
0.0
 10
1586.350026730149
 20
842.8591469247019
 30
0.0
 10
1591.81739326524
 20
839.5056909793598
 30
0.0
 10
1597.457703593691
 20
836.4519583412342
 30
0.0
  0
ENDBLK
  5
218
330
215
100
AcDbEntity
  8
0
100
AcDbBlockEnd
  0
BLOCK
  5
21C
330
21A
100
AcDbEntity
  8
0
100
AcDbBlockBegin
  2
block 77
 70
     0
 71
     0
 10
0.0
 20
0.0
 30
0.0
  3
block 77
  1

  0
SPLINE
  5
21E
330
21A
100
AcDbEntity
  8
Predefinito
 62
     7
370
    70
100
AcDbSpline
210
0.0
220
0.0
230
1.0
 70
     8
 71
     3
 72
    11
 73
     7
 74
     0
 42
0.0000000001
 43
0.0000000001
 40
0.0
 40
0.0
 40
0.0
 40
0.0
 40
1.0
 40
1.0
 40
1.0
 40
2.0
 40
2.0
 40
2.0
 40
2.0
 10
1597.457703593691
 20
836.4519583412342
 30
0.0
 10
1602.755915940457
 20
833.5828828211182
 30
0.0
 10
1608.201233864443
 20
830.9825247488516
 30
0.0
 10
1613.759206410796
 20
828.6567407867594
 30
0.0
 10
1619.374023032657
 20
826.307185665819
 30
0.0
 10
1625.103905843724
 20
824.2390948460236
 30
0.0
 10
1630.921983099214
 20
822.451779308276
 30
0.0
  0
ENDBLK
  5
21D
330
21A
100
AcDbEntity
  8
0
100
AcDbBlockEnd
  0
BLOCK
  5
221
330
21F
100
AcDbEntity
  8
0
100
AcDbBlockBegin
  2
block 78
 70
     0
 71
     0
 10
0.0
 20
0.0
 30
0.0
  3
block 78
  1

  0
SPLINE
  5
223
330
21F
100
AcDbEntity
  8
Predefinito
 62
     7
370
    70
100
AcDbSpline
210
0.0
220
0.0
230
1.0
 70
     8
 71
     3
 72
    14
 73
    10
 74
     0
 42
0.0000000001
 43
0.0000000001
 40
0.0
 40
0.0
 40
0.0
 40
0.0
 40
1.0
 40
1.0
 40
1.0
 40
2.0
 40
2.0
 40
2.0
 40
3.0
 40
3.0
 40
3.0
 40
3.0
 10
1875.183042608461
 20
955.9605981768085
 30
0.0
 10
1875.183042608461
 20
954.3038517579519
 30
0.0
 10
1874.597376375969
 20
952.8896400612568
 30
0.0
 10
1873.425699401435
 20
951.7179630867233
 30
0.0
 10
1872.25436693645
 20
950.5462861121898
 30
0.0
 10
1870.839810730207
 20
949.9606198796973
 30
0.0
 10
1869.18306431135
 20
949.9606198796973
 30
0.0
 10
1868.71832093039
 20
949.9606198796973
 30
0.0
 10
1868.259778721303
 20
950.0140188597188
 30
0.0
 10
1867.80743768409
 20
950.120472310213
 30
0.0
  0
ENDBLK
  5
222
330
21F
100
AcDbEntity
  8
0
100
AcDbBlockEnd
  0
BLOCK
  5
226
330
224
100
AcDbEntity
  8
0
100
AcDbBlockBegin
  2
block 79
 70
     0
 71
     0
 10
0.0
 20
0.0
 30
0.0
  3
block 79
  1

  0
SPLINE
  5
228
330
224
100
AcDbEntity
  8
Predefinito
 62
     7
370
    70
100
AcDbSpline
210
0.0
220
0.0
230
1.0
 70
     8
 71
     3
 72
     8
 73
     4
 74
     0
 42
0.0000000001
 43
0.0000000001
 40
0.0
 40
0.0
 40
0.0
 40
0.0
 40
1.0
 40
1.0
 40
1.0
 40
1.0
 10
1866.137599902389
 20
948.8268389555017
 30
0.0
 10
1866.419753222631
 20
949.7132620238565
 30
0.0
 10
1866.976480653048
 20
950.1442434690612
 30
0.0
 10
1867.80743768409
 20
950.120472310213
 30
0.0
  0
ENDBLK
  5
227
330
224
100
AcDbEntity
  8
0
100
AcDbBlockEnd
  0
BLOCK
  5
22B
330
229
100
AcDbEntity
  8
0
100
AcDbBlockBegin
  2
block 80
 70
     0
 71
     0
 10
0.0
 20
0.0
 30
0.0
  3
block 80
  1

  0
POLYLINE
  5
22D
330
229
100
AcDbEntity
  8
Predefinito
 62
     7
370
    70
100
AcDb2dPolyline
 66
     1
 10
0.0
 20
0.0
 30
0.0
  0
VERTEX
  5
22E
330
22D
100
AcDbEntity
  8
Predefinito
 62
     7
370
    70
100
AcDbVertex
100
AcDb2dVertex
 10
1491.033880920644
 20
972.5366751040881
 30
0.0
  0
VERTEX
  5
22F
330
22D
100
AcDbEntity
  8
Predefinito
 62
     7
370
    70
100
AcDbVertex
100
AcDb2dVertex
 10
1491.033880920644
 20
762.4516518276163
 30
0.0
  0
SEQEND
  5
230
330
22D
100
AcDbEntity
  8
Predefinito
370
    70
  0
ENDBLK
  5
22C
330
229
100
AcDbEntity
  8
0
100
AcDbBlockEnd
  0
BLOCK
  5
233
330
231
100
AcDbEntity
  8
0
100
AcDbBlockBegin
  2
block 81
 70
     0
 71
     0
 10
0.0
 20
0.0
 30
0.0
  3
block 81
  1

  0
SPLINE
  5
235
330
231
100
AcDbEntity
  8
Predefinito
 62
     7
370
    70
100
AcDbSpline
210
0.0
220
0.0
230
1.0
 70
     8
 71
     3
 72
     8
 73
     4
 74
     0
 42
0.0000000001
 43
0.0000000001
 40
0.0
 40
0.0
 40
0.0
 40
0.0
 40
1.0
 40
1.0
 40
1.0
 40
1.0
 10
1865.532985644728
 20
960.7224091565208
 30
0.0
 10
1863.966156218036
 20
959.5217933799113
 30
0.0
 10
1863.183086014239
 20
957.9342933803082
 30
0.0
 10
1863.183086014239
 20
955.9605981768085
 30
0.0
  0
ENDBLK
  5
234
330
231
100
AcDbEntity
  8
0
100
AcDbBlockEnd
  0
BLOCK
  5
238
330
236
100
AcDbEntity
  8
0
100
AcDbBlockBegin
  2
block 82
 70
     0
 71
     0
 10
0.0
 20
0.0
 30
0.0
  3
block 82
  1

  0
POLYLINE
  5
23A
330
236
100
AcDbEntity
  8
Predefinito
 62
     7
370
    70
100
AcDb2dPolyline
 66
     1
 10
0.0
 20
0.0
 30
0.0
  0
VERTEX
  5
23B
330
23A
100
AcDbEntity
  8
Predefinito
 62
     7
370
    70
100
AcDbVertex
100
AcDb2dVertex
 10
2643.888231760903
 20
1129.550002430286
 30
0.0
  0
VERTEX
  5
23C
330
23A
100
AcDbEntity
  8
Predefinito
 62
     7
370
    70
100
AcDbVertex
100
AcDb2dVertex
 10
2643.888231760903
 20
1122.451727692477
 30
0.0
  0
SEQEND
  5
23D
330
23A
100
AcDbEntity
  8
Predefinito
370
    70
  0
ENDBLK
  5
239
330
236
100
AcDbEntity
  8
0
100
AcDbBlockEnd
  0
BLOCK
  5
240
330
23E
100
AcDbEntity
  8
0
100
AcDbBlockBegin
  2
block 83
 70
     0
 71
     0
 10
0.0
 20
0.0
 30
0.0
  3
block 83
  1

  0
POLYLINE
  5
242
330
23E
100
AcDbEntity
  8
Predefinito
 62
     7
370
    70
100
AcDb2dPolyline
 66
     1
 10
0.0
 20
0.0
 30
0.0
  0
VERTEX
  5
243
330
242
100
AcDbEntity
  8
Predefinito
 62
     7
370
    70
100
AcDbVertex
100
AcDb2dVertex
 10
1914.532578731436
 20
1122.451727692477
 30
0.0
  0
VERTEX
  5
244
330
242
100
AcDbEntity
  8
Predefinito
 62
     7
370
    70
100
AcDbVertex
100
AcDb2dVertex
 10
1914.532578731436
 20
984.5366316983103
 30
0.0
  0
SEQEND
  5
245
330
242
100
AcDbEntity
  8
Predefinito
370
    70
  0
ENDBLK
  5
241
330
23E
100
AcDbEntity
  8
0
100
AcDbBlockEnd
  0
BLOCK
  5
248
330
246
100
AcDbEntity
  8
0
100
AcDbBlockBegin
  2
block 84
 70
     0
 71
     0
 10
0.0
 20
0.0
 30
0.0
  3
block 84
  1

  0
POLYLINE
  5
24A
330
246
100
AcDbEntity
  8
Predefinito
 62
     7
370
    70
100
AcDb2dPolyline
 66
     1
 10
0.0
 20
0.0
 30
0.0
  0
VERTEX
  5
24B
330
24A
100
AcDbEntity
  8
Predefinito
 62
     7
370
    70
100
AcDbVertex
100
AcDb2dVertex
 10
1469.033501151839
 20
762.4516518276163
 30
0.0
  0
VERTEX
  5
24C
330
24A
100
AcDbEntity
  8
Predefinito
 62
     7
370
    70
100
AcDbVertex
100
AcDb2dVertex
 10
1491.033880920644
 20
762.4516518276163
 30
0.0
  0
SEQEND
  5
24D
330
24A
100
AcDbEntity
  8
Predefinito
370
    70
  0
ENDBLK
  5
249
330
246
100
AcDbEntity
  8
0
100
AcDbBlockEnd
  0
BLOCK
  5
250
330
24E
100
AcDbEntity
  8
0
100
AcDbBlockBegin
  2
block 85
 70
     0
 71
     0
 10
0.0
 20
0.0
 30
0.0
  3
block 85
  1

  0
SPLINE
  5
252
330
24E
100
AcDbEntity
  8
Predefinito
 62
     7
370
    70
100
AcDbSpline
210
0.0
220
0.0
230
1.0
 70
     8
 71
     3
 72
    11
 73
     7
 74
     0
 42
0.0000000001
 43
0.0000000001
 40
0.0
 40
0.0
 40
0.0
 40
0.0
 40
1.0
 40
1.0
 40
1.0
 40
2.0
 40
2.0
 40
2.0
 40
2.0
 10
1873.532841871027
 20
955.9605981768085
 30
0.0
 10
1873.532841871027
 20
961.4858423160522
 30
0.0
 10
1873.532841871027
 20
967.0114309648444
 30
0.0
 10
1873.532841871027
 20
972.5366751040881
 30
0.0
 10
1870.865993455895
 20
972.5366751040881
 30
0.0
 10
1868.199489550311
 20
972.5366751040881
 30
0.0
 10
1865.532985644728
 20
972.5366751040881
 30
0.0
  0
ENDBLK
  5
251
330
24E
100
AcDbEntity
  8
0
100
AcDbBlockEnd
  0
BLOCK
  5
255
330
253
100
AcDbEntity
  8
0
100
AcDbBlockBegin
  2
block 86
 70
     0
 71
     0
 10
0.0
 20
0.0
 30
0.0
  3
block 86
  1

  0
POLYLINE
  5
257
330
253
100
AcDbEntity
  8
Predefinito
 62
     7
370
    70
100
AcDb2dPolyline
 66
     1
 10
0.0
 20
0.0
 30
0.0
  0
VERTEX
  5
258
330
257
100
AcDbEntity
  8
Predefinito
 62
     7
370
    70
100
AcDbVertex
100
AcDb2dVertex
 10
1469.033501151839
 20
972.5366751040881
 30
0.0
  0
VERTEX
  5
259
330
257
100
AcDbEntity
  8
Predefinito
 62
     7
370
    70
100
AcDbVertex
100
AcDb2dVertex
 10
1469.033501151839
 20
762.4516518276163
 30
0.0
  0
SEQEND
  5
25A
330
257
100
AcDbEntity
  8
Predefinito
370
    70
  0
ENDBLK
  5
256
330
253
100
AcDbEntity
  8
0
100
AcDbBlockEnd
  0
BLOCK
  5
25D
330
25B
100
AcDbEntity
  8
0
100
AcDbBlockBegin
  2
block 87
 70
     0
 71
     0
 10
0.0
 20
0.0
 30
0.0
  3
block 87
  1

  0
SPLINE
  5
25F
330
25B
100
AcDbEntity
  8
Predefinito
 62
     7
370
    70
100
AcDbSpline
210
0.0
220
0.0
230
1.0
 70
     8
 71
     3
 72
    17
 73
    13
 74
     0
 42
0.0000000001
 43
0.0000000001
 40
0.0
 40
0.0
 40
0.0
 40
0.0
 40
1.0
 40
1.0
 40
1.0
 40
2.0
 40
2.0
 40
2.0
 40
3.0
 40
3.0
 40
3.0
 40
4.0
 40
4.0
 40
4.0
 40
4.0
 10
1469.699093599589
 20
972.5366751040881
 30
0.0
 10
1461.927647203963
 20
972.5366751040881
 30
0.0
 10
1454.156200808336
 20
972.5366751040881
 30
0.0
 10
1446.38475441271
 20
972.5366751040881
 30
0.0
 10
1444.718017216946
 20
974.8700382762478
 30
0.0
 10
1443.051280021182
 20
977.2034014484075
 30
0.0
 10
1441.384542825418
 20
979.5364201110187
 30
0.0
 10
1441.384542825418
 20
981.2031573067826
 30
0.0
 10
1441.384542825418
 20
982.8698945025465
 30
0.0
 10
1441.384542825418
 20
984.5366316983103
 30
0.0
 10
1450.822726416808
 20
984.5366316983103
 30
0.0
 10
1460.260910008199
 20
984.5366316983103
 30
0.0
 10
1469.699093599589
 20
984.5366316983103
 30
0.0
  0
ENDBLK
  5
25E
330
25B
100
AcDbEntity
  8
0
100
AcDbBlockEnd
  0
BLOCK
  5
262
330
260
100
AcDbEntity
  8
0
100
AcDbBlockBegin
  2
block 88
 70
     0
 71
     0
 10
0.0
 20
0.0
 30
0.0
  3
block 88
  1

  0
SPLINE
  5
264
330
260
100
AcDbEntity
  8
Predefinito
 62
     7
370
    70
100
AcDbSpline
210
0.0
220
0.0
230
1.0
 70
     8
 71
     3
 72
    23
 73
    19
 74
     0
 42
0.0000000001
 43
0.0000000001
 40
0.0
 40
0.0
 40
0.0
 40
0.0
 40
1.0
 40
1.0
 40
1.0
 40
2.0
 40
2.0
 40
2.0
 40
3.0
 40
3.0
 40
3.0
 40
4.0
 40
4.0
 40
4.0
 40
5.0
 40
5.0
 40
5.0
 40
6.0
 40
6.0
 40
6.0
 40
6.0
 10
1914.532578731436
 20
984.5366316983103
 30
0.0
 10
1923.61729552604
 20
984.5366316983103
 30
0.0
 10
1932.701323301547
 20
984.5366316983103
 30
0.0
 10
1941.786040096151
 20
984.5366316983103
 30
0.0
 10
1941.786040096151
 20
982.8698945025465
 30
0.0
 10
1941.786040096151
 20
981.2031573067826
 30
0.0
 10
1941.786040096151
 20
979.5364201110187
 30
0.0
 10
1941.786040096151
 20
981.2031573067826
 30
0.0
 10
1941.786040096151
 20
982.8698945025465
 30
0.0
 10
1941.786040096151
 20
984.5366316983103
 30
0.0
 10
1941.786040096151
 20
982.8698945025465
 30
0.0
 10
1941.786040096151
 20
981.2031573067826
 30
0.0
 10
1941.786040096151
 20
979.5364201110187
 30
0.0
 10
1940.119302900387
 20
977.2034014484075
 30
0.0
 10
1938.452565704623
 20
974.8700382762478
 30
0.0
 10
1936.785828508859
 20
972.5366751040881
 30
0.0
 10
1929.368193419568
 20
972.5366751040881
 30
0.0
 10
1921.950558330276
 20
972.5366751040881
 30
0.0
 10
1914.532578731436
 20
972.5366751040881
 30
0.0
  0
ENDBLK
  5
263
330
260
100
AcDbEntity
  8
0
100
AcDbBlockEnd
  0
BLOCK
  5
267
330
265
100
AcDbEntity
  8
0
100
AcDbBlockBegin
  2
block 89
 70
     0
 71
     0
 10
0.0
 20
0.0
 30
0.0
  3
block 89
  1

  0
SPLINE
  5
269
330
265
100
AcDbEntity
  8
Predefinito
 62
     7
370
    70
100
AcDbSpline
210
0.0
220
0.0
230
1.0
 70
    24
 71
     3
 72
     8
 73
     4
 74
     0
 42
0.0000000001
 43
0.0000000001
 40
0.0
 40
0.0
 40
0.0
 40
0.0
 40
1.0
 40
1.0
 40
1.0
 40
1.0
 10
1469.699093599589
 20
984.5366316983103
 30
0.0
 10
1610.28999525715
 20
984.5366316983103
 30
0.0
 10
1750.88089691471
 20
984.5366316983103
 30
0.0
 10
1891.471454062723
 20
984.5366316983103
 30
0.0
  0
ENDBLK
  5
268
330
265
100
AcDbEntity
  8
0
100
AcDbBlockEnd
  0
BLOCK
  5
26C
330
26A
100
AcDbEntity
  8
0
100
AcDbBlockBegin
  2
block 90
 70
     0
 71
     0
 10
0.0
 20
0.0
 30
0.0
  3
block 90
  1

  0
SPLINE
  5
26E
330
26A
100
AcDbEntity
  8
Predefinito
 62
     7
370
    70
100
AcDbSpline
210
0.0
220
0.0
230
1.0
 70
    24
 71
     3
 72
     8
 73
     4
 74
     0
 42
0.0000000001
 43
0.0000000001
 40
0.0
 40
0.0
 40
0.0
 40
0.0
 40
1.0
 40
1.0
 40
1.0
 40
1.0
 10
1491.699128858846
 20
972.5366751040881
 30
0.0
 10
1484.365554099395
 20
972.5366751040881
 30
0.0
 10
1477.032323849492
 20
972.5366751040881
 30
0.0
 10
1469.699093599589
 20
972.5366751040881
 30
0.0
  0
ENDBLK
  5
26D
330
26A
100
AcDbEntity
  8
0
100
AcDbBlockEnd
  0
BLOCK
  5
271
330
26F
100
AcDbEntity
  8
0
100
AcDbBlockBegin
  2
block 91
 70
     0
 71
     0
 10
0.0
 20
0.0
 30
0.0
  3
block 91
  1

  0
SPLINE
  5
273
330
26F
100
AcDbEntity
  8
Predefinito
 62
     7
370
    70
100
AcDbSpline
210
0.0
220
0.0
230
1.0
 70
    24
 71
     3
 72
     8
 73
     4
 74
     0
 42
0.0000000001
 43
0.0000000001
 40
0.0
 40
0.0
 40
0.0
 40
0.0
 40
1.0
 40
1.0
 40
1.0
 40
1.0
 10
1914.532578731436
 20
972.5366751040881
 30
0.0
 10
1914.509496591685
 20
972.5366751040881
 30
0.0
 10
1914.486414451934
 20
972.5366751040881
 30
0.0
 10
1914.462987802634
 20
972.5366751040881
 30
0.0
  0
ENDBLK
  5
272
330
26F
100
AcDbEntity
  8
0
100
AcDbBlockEnd
  0
BLOCK
  5
276
330
274
100
AcDbEntity
  8
0
100
AcDbBlockBegin
  2
block 92
 70
     0
 71
     0
 10
0.0
 20
0.0
 30
0.0
  3
block 92
  1

  0
POLYLINE
  5
278
330
274
100
AcDbEntity
  8
Predefinito
 62
     7
370
    70
100
AcDb2dPolyline
 66
     1
 10
0.0
 20
0.0
 30
0.0
  0
VERTEX
  5
279
330
278
100
AcDbEntity
  8
Predefinito
 62
     7
370
    70
100
AcDbVertex
100
AcDb2dVertex
 10
1863.454215028928
 20
945.3245548851967
 30
0.0
  0
VERTEX
  5
27A
330
278
100
AcDbEntity
  8
Predefinito
 62
     7
370
    70
100
AcDbVertex
100
AcDb2dVertex
 10
1865.398626920803
 20
944.8487871986837
 30
0.0
  0
SEQEND
  5
27B
330
278
100
AcDbEntity
  8
Predefinito
370
    70
  0
ENDBLK
  5
277
330
274
100
AcDbEntity
  8
0
100
AcDbBlockEnd
  0
BLOCK
  5
27E
330
27C
100
AcDbEntity
  8
0
100
AcDbBlockBegin
  2
block 93
 70
     0
 71
     0
 10
0.0
 20
0.0
 30
0.0
  3
block 93
  1

  0
SPLINE
  5
280
330
27C
100
AcDbEntity
  8
Predefinito
 62
     7
370
    70
100
AcDbSpline
210
0.0
220
0.0
230
1.0
 70
     8
 71
     3
 72
    17
 73
    13
 74
     0
 42
0.0000000001
 43
0.0000000001
 40
0.0
 40
0.0
 40
0.0
 40
0.0
 40
1.0
 40
1.0
 40
1.0
 40
2.0
 40
2.0
 40
2.0
 40
3.0
 40
3.0
 40
3.0
 40
4.0
 40
4.0
 40
4.0
 40
4.0
 10
1511.11672054236
 20
955.9605981768085
 30
0.0
 10
1511.11672054236
 20
954.8561005642374
 30
0.0
 10
1510.726391223881
 20
953.9131779299245
 30
0.0
 10
1509.945388077375
 20
953.1321747834183
 30
0.0
 10
1509.16404042132
 20
952.3511716369122
 30
0.0
 10
1508.221462296556
 20
951.960497808885
 30
0.0
 10
1507.116964683985
 20
951.960497808885
 30
0.0
 10
1506.012467071414
 20
951.960497808885
 30
0.0
 10
1505.069544437101
 20
952.3511716369122
 30
0.0
 10
1504.288541290595
 20
953.1321747834183
 30
0.0
 10
1503.50719363454
 20
953.9131779299245
 30
0.0
 10
1503.116864316061
 20
954.8561005642374
 30
0.0
 10
1503.116864316061
 20
955.9605981768085
 30
0.0
  0
ENDBLK
  5
27F
330
27C
100
AcDbEntity
  8
0
100
AcDbBlockEnd
  0
BLOCK
  5
283
330
281
100
AcDbEntity
  8
0
100
AcDbBlockBegin
  2
block 94
 70
     0
 71
     0
 10
0.0
 20
0.0
 30
0.0
  3
block 94
  1

  0
POLYLINE
  5
285
330
281
100
AcDbEntity
  8
Predefinito
 62
     7
370
    70
100
AcDb2dPolyline
 66
     1
 10
0.0
 20
0.0
 30
0.0
  0
VERTEX
  5
286
330
285
100
AcDbEntity
  8
Predefinito
 62
     7
370
    70
100
AcDbVertex
100
AcDb2dVertex
 10
1892.532887981728
 20
1122.451727692477
 30
0.0
  0
VERTEX
  5
287
330
285
100
AcDbEntity
  8
Predefinito
 62
     7
370
    70
100
AcDbVertex
100
AcDb2dVertex
 10
1892.532887981728
 20
984.5366316983103
 30
0.0
  0
SEQEND
  5
288
330
285
100
AcDbEntity
  8
Predefinito
370
    70
  0
ENDBLK
  5
284
330
281
100
AcDbEntity
  8
0
100
AcDbBlockEnd
  0
BLOCK
  5
28B
330
289
100
AcDbEntity
  8
0
100
AcDbBlockBegin
  2
block 95
 70
     0
 71
     0
 10
0.0
 20
0.0
 30
0.0
  3
block 95
  1

  0
SPLINE
  5
28D
330
289
100
AcDbEntity
  8
Predefinito
 62
     7
370
    70
100
AcDbSpline
210
0.0
220
0.0
230
1.0
 70
    24
 71
     3
 72
     8
 73
     4
 74
     0
 42
0.0000000001
 43
0.0000000001
 40
0.0
 40
0.0
 40
0.0
 40
0.0
 40
1.0
 40
1.0
 40
1.0
 40
1.0
 10
1891.471454062723
 20
984.5366316983103
 30
0.0
 10
1891.825265369058
 20
984.5366316983103
 30
0.0
 10
1892.179076675393
 20
984.5366316983103
 30
0.0
 10
1892.532887981728
 20
984.5366316983103
 30
0.0
  0
ENDBLK
  5
28C
330
289
100
AcDbEntity
  8
0
100
AcDbBlockEnd
  0
BLOCK
  5
290
330
28E
100
AcDbEntity
  8
0
100
AcDbBlockBegin
  2
block 96
 70
     0
 71
     0
 10
0.0
 20
0.0
 30
0.0
  3
block 96
  1

  0
SPLINE
  5
292
330
28E
100
AcDbEntity
  8
Predefinito
 62
     7
370
    70
100
AcDbSpline
210
0.0
220
0.0
230
1.0
 70
     8
 71
     3
 72
    26
 73
    22
 74
     0
 42
0.0000000001
 43
0.0000000001
 40
0.0
 40
0.0
 40
0.0
 40
0.0
 40
1.0
 40
1.0
 40
1.0
 40
2.0
 40
2.0
 40
2.0
 40
3.0
 40
3.0
 40
3.0
 40
4.0
 40
4.0
 40
4.0
 40
5.0
 40
5.0
 40
5.0
 40
6.0
 40
6.0
 40
6.0
 40
7.0
 40
7.0
 40
7.0
 40
7.0
 10
1847.448990423555
 20
1134.373136109636
 30
0.0
 10
1847.529605657909
 20
1134.4516842867
 30
0.0
 10
1847.596440510323
 20
1134.53574461654
 30
0.0
 10
1847.653629095378
 20
1134.622216513219
 30
0.0
 10
1847.719774928695
 20
1134.721779772743
 30
0.0
 10
1847.773173908716
 20
1134.824788127752
 30
0.0
 10
1847.817960150025
 20
1134.929174520955
 30
0.0
 10
1847.869981091852
 20
1135.050441882036
 30
0.0
 10
1847.910288709029
 20
1135.173431790859
 30
0.0
 10
1847.934059867878
 20
1135.250429674955
 30
0.0
 10
1847.960931612663
 20
1135.337590590732
 30
0.0
 10
1847.966443765439
 20
1135.366012628485
 30
0.0
 10
1847.974022975507
 20
1135.397362997401
 30
0.0
 10
1848.089433674262
 20
1135.874164212559
 30
0.0
 10
1848.683023626371
 20
1137.006911608109
 30
0.0
 10
1849.587016681701
 20
1138.199603665103
 30
0.0
 10
1851.082877141396
 20
1140.173471123377
 30
0.0
 10
1853.427953638206
 20
1142.311669636297
 30
0.0
 10
1856.811726423818
 20
1144.52393770215
 30
0.0
 10
1858.737534800073
 20
1145.783120102009
 30
0.0
 10
1860.999929005236
 20
1147.066418170265
 30
0.0
 10
1862.290806283559
 20
1147.716335433557
 30
0.0
  0
ENDBLK
  5
291
330
28E
100
AcDbEntity
  8
0
100
AcDbBlockEnd
  0
BLOCK
  5
295
330
293
100
AcDbEntity
  8
0
100
AcDbBlockBegin
  2
block 97
 70
     0
 71
     0
 10
0.0
 20
0.0
 30
0.0
  3
block 97
  1

  0
SPLINE
  5
297
330
293
100
AcDbEntity
  8
Predefinito
 62
     7
370
    70
100
AcDbSpline
210
0.0
220
0.0
230
1.0
 70
     8
 71
     3
 72
    17
 73
    13
 74
     0
 42
0.0000000001
 43
0.0000000001
 40
0.0
 40
0.0
 40
0.0
 40
0.0
 40
1.0
 40
1.0
 40
1.0
 40
2.0
 40
2.0
 40
2.0
 40
3.0
 40
3.0
 40
3.0
 40
4.0
 40
4.0
 40
4.0
 40
4.0
 10
1512.085481392812
 20
949.4448890855555
 30
0.0
 10
1511.783002009207
 20
950.0464027572801
 30
0.0
 10
1511.603168024877
 20
950.3316566634588
 30
0.0
 10
1511.395084257568
 20
950.5948619585319
 30
0.0
 10
1511.180110299288
 20
950.866679992318
 30
0.0
 10
1510.934819500739
 20
951.1147268672561
 30
0.0
 10
1510.660589900113
 20
951.3269447491475
 30
0.0
 10
1510.376714032128
 20
951.5463973315578
 30
0.0
 10
1510.062521323873
 20
951.727609354082
 30
0.0
 10
1509.729036080901
 20
951.8599010207156
 30
0.0
 10
1509.395895347478
 20
951.9925371968977
 30
0.0
 10
1509.043462079336
 20
952.0762530171893
 30
0.0
 10
1508.263492461476
 20
952.1282739590166
 30
0.0
  0
ENDBLK
  5
296
330
293
100
AcDbEntity
  8
0
100
AcDbBlockEnd
  0
BLOCK
  5
29A
330
298
100
AcDbEntity
  8
0
100
AcDbBlockBegin
  2
block 98
 70
     0
 71
     0
 10
0.0
 20
0.0
 30
0.0
  3
block 98
  1

  0
SPLINE
  5
29C
330
298
100
AcDbEntity
  8
Predefinito
 62
     7
370
    70
100
AcDbSpline
210
0.0
220
0.0
230
1.0
 70
     8
 71
     3
 72
    26
 73
    22
 74
     0
 42
0.0000000001
 43
0.0000000001
 40
0.0
 40
0.0
 40
0.0
 40
0.0
 40
1.0
 40
1.0
 40
1.0
 40
2.0
 40
2.0
 40
2.0
 40
3.0
 40
3.0
 40
3.0
 40
4.0
 40
4.0
 40
4.0
 40
5.0
 40
5.0
 40
5.0
 40
6.0
 40
6.0
 40
6.0
 40
7.0
 40
7.0
 40
7.0
 40
7.0
 10
-57.10676403737262
 20
823.0942896162751
 30
0.0
 10
-58.93903807120275
 20
822.5313610139852
 30
0.0
 10
-60.77923582464894
 20
821.9966821946745
 30
0.0
 10
-62.62856308113106
 20
821.4899086487942
 30
0.0
 10
-65.04064668512873
 20
820.8284503156262
 30
0.0
 10
-67.46358233990495
 20
820.2152233192518
 30
0.0
 10
-69.89978161229936
 20
819.6495386405737
 30
0.0
 10
-72.33649764901658
 20
819.0835094523472
 30
0.0
 10
-74.7818264244469
 20
818.5657116009141
 30
0.0
 10
-77.23869626975284
 20
818.095111557629
 30
0.0
 10
-79.69539386028448
 20
817.6245115143439
 30
0.0
 10
-82.15880938701238
 20
817.2021428078523
 30
0.0
 10
-84.63187118109899
 20
816.8266273999601
 30
0.0
 10
-87.08891328117916
 20
816.453868068456
 30
0.0
 10
-89.5507785149387
 20
816.1283065450999
 30
0.0
 10
-92.02005070399152
 20
815.8492538107947
 30
0.0
 10
-94.48983965736713
 20
815.5702010764894
 30
0.0
 10
-96.9625569419052
 20
815.3383461503321
 30
0.0
 10
-99.4411308887682
 20
815.1530000132257
 30
0.0
 10
-104.3946614322347
 20
814.7823077390128
 30
0.0
 10
-109.3673122556443
 20
814.5979951305519
 30
0.0
 10
-114.3346231810518
 20
814.5993731687461
 30
0.0
  0
ENDBLK
  5
29B
330
298
100
AcDbEntity
  8
0
100
AcDbBlockEnd
  0
BLOCK
  5
29F
330
29D
100
AcDbEntity
  8
0
100
AcDbBlockBegin
  2
block 99
 70
     0
 71
     0
 10
0.0
 20
0.0
 30
0.0
  3
block 99
  1

  0
SPLINE
  5
2A1
330
29D
100
AcDbEntity
  8
Predefinito
 62
     7
370
    70
100
AcDbSpline
210
0.0
220
0.0
230
1.0
 70
     8
 71
     3
 72
     8
 73
     4
 74
     0
 42
0.0000000001
 43
0.0000000001
 40
0.0
 40
0.0
 40
0.0
 40
0.0
 40
1.0
 40
1.0
 40
1.0
 40
1.0
 10
-292.3223808405479
 20
949.4693492635008
 30
0.0
 10
-292.6043619060156
 20
950.3557723318555
 30
0.0
 10
-293.1609170816577
 20
950.7867537770603
 30
0.0
 10
-293.9920463674742
 20
950.762982618212
 30
0.0
  0
ENDBLK
  5
2A0
330
29D
100
AcDbEntity
  8
0
100
AcDbBlockEnd
  0
BLOCK
  5
2A4
330
2A2
100
AcDbEntity
  8
0
100
AcDbBlockBegin
  2
block 100
 70
     0
 71
     0
 10
0.0
 20
0.0
 30
0.0
  3
block 100
  1

  0
SPLINE
  5
2A6
330
2A2
100
AcDbEntity
  8
Predefinito
 62
     7
370
    70
100
AcDbSpline
210
0.0
220
0.0
230
1.0
 70
     8
 71
     3
 72
    17
 73
    13
 74
     0
 42
0.0000000001
 43
0.0000000001
 40
0.0
 40
0.0
 40
0.0
 40
0.0
 40
1.0
 40
1.0
 40
1.0
 40
2.0
 40
2.0
 40
2.0
 40
3.0
 40
3.0
 40
3.0
 40
4.0
 40
4.0
 40
4.0
 40
4.0
 10
-299.3677733626581
 20
956.6031084848076
 30
0.0
 10
-299.3677733626581
 20
955.4986108722366
 30
0.0
 10
-298.977271789405
 20
954.5556882379236
 30
0.0
 10
-298.1962686428989
 20
953.7746850914175
 30
0.0
 10
-297.4150932416185
 20
952.9933374353628
 30
0.0
 10
-296.4723428620799
 20
952.603008116884
 30
0.0
 10
-295.3678452495087
 20
952.603008116884
 30
0.0
 10
-294.2631753821634
 20
952.603008116884
 30
0.0
 10
-293.3204250026247
 20
952.9933374353628
 30
0.0
 10
-292.5394218561186
 20
953.7746850914175
 30
0.0
 10
-291.7582464548382
 20
954.5556882379236
 30
0.0
 10
-291.3677448815852
 20
955.4986108722366
 30
0.0
 10
-291.3677448815852
 20
956.6031084848076
 30
0.0
  0
ENDBLK
  5
2A5
330
2A2
100
AcDbEntity
  8
0
100
AcDbBlockEnd
  0
BLOCK
  5
2A9
330
2A7
100
AcDbEntity
  8
0
100
AcDbBlockBegin
  2
block 101
 70
     0
 71
     0
 10
0.0
 20
0.0
 30
0.0
  3
block 101
  1

  0
POLYLINE
  5
2AB
330
2A7
100
AcDbEntity
  8
Predefinito
 62
     7
370
    70
100
AcDb2dPolyline
 66
     1
 10
0.0
 20
0.0
 30
0.0
  0
VERTEX
  5
2AC
330
2AB
100
AcDbEntity
  8
Predefinito
 62
     7
370
    70
100
AcDbVertex
100
AcDb2dVertex
 10
395.6657713854586
 20
1122.451727692477
 30
0.0
  0
VERTEX
  5
2AD
330
2AB
100
AcDbEntity
  8
Predefinito
 62
     7
370
    70
100
AcDbVertex
100
AcDb2dVertex
 10
395.6657713854586
 20
984.5366316983103
 30
0.0
  0
SEQEND
  5
2AE
330
2AB
100
AcDbEntity
  8
Predefinito
370
    70
  0
ENDBLK
  5
2AA
330
2A7
100
AcDbEntity
  8
0
100
AcDbBlockEnd
  0
BLOCK
  5
2B1
330
2AF
100
AcDbEntity
  8
0
100
AcDbBlockBegin
  2
block 102
 70
     0
 71
     0
 10
0.0
 20
0.0
 30
0.0
  3
block 102
  1

  0
SPLINE
  5
2B3
330
2AF
100
AcDbEntity
  8
Predefinito
 62
     7
370
    70
100
AcDbSpline
210
0.0
220
0.0
230
1.0
 70
     8
 71
     3
 72
   194
 73
   190
 74
     0
 42
0.0000000001
 43
0.0000000001
 40
0.0
 40
0.0
 40
0.0
 40
0.0
 40
1.0
 40
1.0
 40
1.0
 40
2.0
 40
2.0
 40
2.0
 40
3.0
 40
3.0
 40
3.0
 40
4.0
 40
4.0
 40
4.0
 40
5.0
 40
5.0
 40
5.0
 40
6.0
 40
6.0
 40
6.0
 40
7.0
 40
7.0
 40
7.0
 40
8.0
 40
8.0
 40
8.0
 40
9.0
 40
9.0
 40
9.0
 40
10.0
 40
10.0
 40
10.0
 40
11.0
 40
11.0
 40
11.0
 40
12.0
 40
12.0
 40
12.0
 40
13.0
 40
13.0
 40
13.0
 40
14.0
 40
14.0
 40
14.0
 40
15.0
 40
15.0
 40
15.0
 40
16.0
 40
16.0
 40
16.0
 40
17.0
 40
17.0
 40
17.0
 40
18.0
 40
18.0
 40
18.0
 40
19.0
 40
19.0
 40
19.0
 40
20.0
 40
20.0
 40
20.0
 40
21.0
 40
21.0
 40
21.0
 40
22.0
 40
22.0
 40
22.0
 40
23.0
 40
23.0
 40
23.0
 40
24.0
 40
24.0
 40
24.0
 40
25.0
 40
25.0
 40
25.0
 40
26.0
 40
26.0
 40
26.0
 40
27.0
 40
27.0
 40
27.0
 40
28.0
 40
28.0
 40
28.0
 40
29.0
 40
29.0
 40
29.0
 40
30.0
 40
30.0
 40
30.0
 40
31.0
 40
31.0
 40
31.0
 40
32.0
 40
32.0
 40
32.0
 40
33.0
 40
33.0
 40
33.0
 40
34.0
 40
34.0
 40
34.0
 40
35.0
 40
35.0
 40
35.0
 40
36.0
 40
36.0
 40
36.0
 40
37.0
 40
37.0
 40
37.0
 40
38.0
 40
38.0
 40
38.0
 40
39.0
 40
39.0
 40
39.0
 40
40.0
 40
40.0
 40
40.0
 40
41.0
 40
41.0
 40
41.0
 40
42.0
 40
42.0
 40
42.0
 40
43.0
 40
43.0
 40
43.0
 40
44.0
 40
44.0
 40
44.0
 40
45.0
 40
45.0
 40
45.0
 40
46.0
 40
46.0
 40
46.0
 40
47.0
 40
47.0
 40
47.0
 40
48.0
 40
48.0
 40
48.0
 40
49.0
 40
49.0
 40
49.0
 40
50.0
 40
50.0
 40
50.0
 40
51.0
 40
51.0
 40
51.0
 40
52.0
 40
52.0
 40
52.0
 40
53.0
 40
53.0
 40
53.0
 40
54.0
 40
54.0
 40
54.0
 40
55.0
 40
55.0
 40
55.0
 40
56.0
 40
56.0
 40
56.0
 40
57.0
 40
57.0
 40
57.0
 40
58.0
 40
58.0
 40
58.0
 40
59.0
 40
59.0
 40
59.0
 40
60.0
 40
60.0
 40
60.0
 40
61.0
 40
61.0
 40
61.0
 40
62.0
 40
62.0
 40
62.0
 40
63.0
 40
63.0
 40
63.0
 40
63.0
 10
-626.6014599399208
 20
1148.364013384784
 30
0.0
 10
-625.3616562021666
 20
1148.987920177163
 30
0.0
 10
-624.0775829874268
 20
1149.574447683527
 30
0.0
 10
-622.7623316585456
 20
1150.129969330523
 30
0.0
 10
-621.3448471211395
 20
1150.72872692586
 30
0.0
 10
-619.8911890811384
 20
1151.291483273375
 30
0.0
 10
-618.4123818440949
 20
1151.824784054492
 30
0.0
 10
-616.7945650042216
 20
1152.408210974919
 30
0.0
 10
-615.1466035788523
 20
1152.956497921396
 30
0.0
 10
-613.4777993257973
 20
1153.47636283012
 30
0.0
 10
-611.6703299794609
 20
1154.039463687185
 30
0.0
 10
-609.8384004551793
 20
1154.569319372816
 30
0.0
 10
-607.9893315808586
 20
1155.072647823211
 30
0.0
 10
-606.0093490780984
 20
1155.611460757104
 30
0.0
 10
-604.0097295310723
 20
1156.120301360276
 30
0.0
 10
-601.9958989651694
 20
1156.603992766405
 30
0.0
 10
-599.8167899433618
 20
1157.127647280163
 30
0.0
 10
-597.6210583358378
 20
1157.622362991845
 30
0.0
 10
-595.4139579132125
 20
1158.094341073324
 30
0.0
 10
-592.9720742332674
 20
1158.616445294113
 30
0.0
 10
-590.5160656618328
 20
1159.110988751021
 30
0.0
 10
-588.0505830778138
 20
1159.584517125468
 30
0.0
 10
-585.3634085993189
 20
1160.100764683933
 30
0.0
 10
-582.665037560497
 20
1160.59203530013
 30
0.0
 10
-579.9585705472847
 20
1161.064357891158
 30
0.0
 10
-576.906646584289
 20
1161.596625143629
 30
0.0
 10
-573.8444734622246
 20
1162.104432218154
 30
0.0
 10
-570.7749795122542
 20
1162.592774503189
 30
0.0
 10
-569.458436272566
 20
1162.802064053918
 30
0.0
 10
-568.1405149946836
 20
1163.008080763936
 30
0.0
 10
-566.8213879333815
 20
1163.210652378468
 30
0.0
 10
-564.8079018770272
 20
1163.519677443495
 30
0.0
 10
-562.7916597442847
 20
1163.821295553229
 30
0.0
 10
-560.7730060447026
 20
1164.116023471992
 30
0.0
 10
-554.690689965494
 20
1165.004169088089
 30
0.0
 10
-548.5873588038254
 20
1165.830647495001
 30
0.0
 10
-542.4711085340871
 20
1166.615440246541
 30
0.0
 10
-541.2056388349677
 20
1166.777704243896
 30
0.0
 10
-539.9396523715255
 20
1166.938245693509
 30
0.0
 10
-538.6730630163735
 20
1167.097064595378
 30
0.0
 10
-530.3629759416281
 20
1168.139378234441
 30
0.0
 10
-522.0310125105512
 20
1169.108311339667
 30
0.0
 10
-513.6837184045652
 20
1170.017816547773
 30
0.0
 10
-504.7134649074588
 20
1170.995190136939
 30
0.0
 10
-495.7254691686034
 20
1171.903834071173
 30
0.0
 10
-486.725071086001
 20
1172.757528732418
 30
0.0
 10
-476.9378131945676
 20
1173.685809710919
 30
0.0
 10
-467.135913647322
 20
1174.548806129974
 30
0.0
 10
-457.3232481766848
 20
1175.357025530814
 30
0.0
 10
-447.1702933994922
 20
1176.193322459858
 30
0.0
 10
-437.0058836798111
 20
1176.971052765653
 30
0.0
 10
-426.8318276927712
 20
1177.692111250716
 30
0.0
 10
-416.6017889040961
 20
1178.416959340813
 30
0.0
 10
-406.361931593288
 20
1179.084791100628
 30
0.0
 10
-396.1141505628639
 20
1179.695778784937
 30
0.0
 10
-385.8498330741104
 20
1180.307627743118
 30
0.0
 10
-375.5775918657411
 20
1180.862632625791
 30
0.0
 10
-365.2986327211754
 20
1181.359415394764
 30
0.0
 10
-355.3264593295712
 20
1181.841384253151
 30
0.0
 10
-345.3479125113193
 20
1182.268403838548
 30
0.0
 10
-335.364542559388
 20
1182.638579348438
 30
0.0
 10
-325.395125244172
 20
1183.008238094005
 30
0.0
 10
-315.4207125405024
 20
1183.321052764066
 30
0.0
 10
-305.4428547413476
 20
1183.573922772683
 30
0.0
 10
-295.6622286587233
 20
1183.821625138072
 30
0.0
 10
-285.8781574806138
 20
1184.01144989931
 30
0.0
 10
-276.0921914999874
 20
1184.139951960909
 30
0.0
 10
-266.5058688027312
 20
1184.26604245567
 30
0.0
 10
-256.9176513029581
 20
1184.333221817632
 30
0.0
 10
-247.3296060579593
 20
1184.33597789402
 30
0.0
 10
-237.7305365074077
 20
1184.338561715634
 30
0.0
 10
-228.1316392116303
 20
1184.276377742125
 30
0.0
 10
-218.5346367183698
 20
1184.154765871496
 30
0.0
 10
-208.4945949457062
 20
1184.02764184809
 30
0.0
 10
-198.456792485108
 20
1183.835750029562
 30
0.0
 10
-188.4224351199951
 20
1183.584602568687
 30
0.0
 10
-178.1619072362755
 20
1183.327942955036
 30
0.0
 10
-167.9053412123639
 20
1183.009443877425
 30
0.0
 10
-157.653770576906
 20
1182.633756214758
 30
0.0
 10
-147.183608632909
 20
1182.25031708725
 30
0.0
 10
-136.7189588416883
 20
1181.806933298298
 30
0.0
 10
-126.2606824771154
 20
1181.307394452937
 30
0.0
 10
-115.5882934281342
 20
1180.797692575894
 30
0.0
 10
-104.9226223153492
 20
1180.229251820828
 30
0.0
 10
-94.26504717695458
 20
1179.60413924503
 30
0.0
 10
-83.59627547823288
 20
1178.978509904908
 30
0.0
 10
-72.93559975390151
 20
1178.29603648928
 30
0.0
 10
-62.2843980421546
 20
1177.556718998146
 30
0.0
 10
-51.60408527355732
 20
1176.81533444972
 30
0.0
 10
-40.93324651754447
 20
1176.016761316239
 30
0.0
 10
-30.27394883140721
 20
1175.158932540412
 30
0.0
 10
-20.03891465427847
 20
1174.335210209888
 30
0.0
 10
-9.814388018379736
 20
1173.45671086115
 30
0.0
 10
0.3953247069324188
 20
1172.511376659997
 30
0.0
 10
9.47935248243919
 20
1171.670084342499
 30
0.0
 10
18.55166693329611
 20
1170.775909809303
 30
0.0
 10
27.60658365195252
 20
1169.81317787595
 30
0.0
 10
31.88160263959904
 20
1169.358769781445
 30
0.0
 10
36.1528320222118
 20
1168.888858757257
 30
0.0
 10
40.41941052591945
 20
1168.402755784288
 30
0.0
 10
44.5037434784574
 20
1167.937323384231
 30
0.0
 10
48.58394231641304
 20
1167.456732564039
 30
0.0
 10
52.65845674681803
 20
1166.956849209129
 30
0.0
 10
56.35194361655438
 20
1166.503819152819
 30
0.0
 10
60.04077960738564
 20
1166.03511391205
 30
0.0
 10
63.72358668111772
 20
1165.547116136565
 30
0.0
 10
67.17557235733805
 20
1165.089435201349
 30
0.0
 10
70.62221813555625
 20
1164.614873298256
 30
0.0
 10
74.06162921325543
 20
1164.119640822251
 30
0.0
 10
77.28227672764125
 20
1163.655930969937
 30
0.0
 10
80.4967230701536
 20
1163.17396211155
 30
0.0
 10
83.70255667395284
 20
1162.66960013251
 30
0.0
 10
86.66223820533098
 20
1162.203995477678
 30
0.0
 10
89.61485729096435
 20
1161.719270542904
 30
0.0
 10
92.55731334491624
 20
1161.210257684958
 30
0.0
 10
95.23001842237305
 20
1160.748098125612
 30
0.0
 10
97.89428301589102
 20
1160.265784757677
 30
0.0
 10
100.5471787943077
 20
1159.758322192699
 30
0.0
 10
102.9685641561155
 20
1159.294956849933
 30
0.0
 10
105.3803032505647
 20
1158.810576424707
 30
0.0
 10
107.77774519875
 20
1158.29829072605
 30
0.0
 10
109.9514281951684
 20
1157.833719599864
 30
0.0
 10
112.1132256121627
 20
1157.346066333927
 30
0.0
 10
114.2581420612792
 20
1156.82930201114
 30
0.0
 10
116.2504407803992
 20
1156.349055700496
 30
0.0
 10
118.2282700984811
 20
1155.843832447584
 30
0.0
 10
119.8304117538966
 20
1155.411300709411
 30
0.0
 10
121.3260999588178
 20
1155.007191008991
 30
0.0
 10
122.4945040926403
 20
1154.666643320274
 30
0.0
 10
123.9504014447069
 20
1154.229116193648
 30
0.0
 10
127.6742051547134
 20
1153.110321434813
 30
0.0
 10
133.2790309996664
 20
1151.357801361466
 30
0.0
 10
137.9285318665596
 20
1149.657302229947
 30
0.0
 10
143.5156154697635
 20
1147.614016097645
 30
0.0
 10
147.7231105858991
 20
1145.646005301696
 30
0.0
 10
149.9779255809951
 20
1143.250458156028
 30
0.0
 10
150.4676459042234
 20
1142.729904228207
 30
0.0
 10
150.8653821779955
 20
1142.189368746571
 30
0.0
 10
151.2148871149741
 20
1141.499316120875
 30
0.0
 10
151.5528509820771
 20
1140.831656615834
 30
0.0
 10
151.845511843549
 20
1140.02447074364
 30
0.0
 10
152.0599690375059
 20
1139.208499877958
 30
0.0
 10
152.1664224880001
 20
1138.803184394119
 30
0.0
 10
152.2535834037769
 20
1138.395629598214
 30
0.0
 10
152.3104274792835
 20
1138.085226494993
 30
0.0
 10
152.3689941025328
 20
1137.765177124413
 30
0.0
 10
152.3955213377692
 20
1137.548480618391
 30
0.0
 10
152.4282497448791
 20
1137.349009589795
 30
0.0
 10
152.5496893607341
 20
1136.605557984078
 30
0.0
 10
152.7562228350749
 20
1136.102574043231
 30
0.0
 10
152.8959214570017
 20
1135.814564060664
 30
0.0
 10
152.9052232148119
 20
1135.795271525947
 30
0.0
 10
152.9143527178478
 20
1135.776668010327
 30
0.0
 10
152.9574164114134
 20
1135.716723348883
 30
0.0
 10
152.9947956974284
 20
1135.664357897508
 30
0.0
 10
153.0580131995827
 20
1135.580297567667
 30
0.0
 10
153.1338053002582
 20
1135.500888116733
 30
0.0
 10
153.2290621904254
 20
1135.400808092886
 30
0.0
 10
153.3458509273754
 20
1135.307962769559
 30
0.0
 10
153.4862385683993
 20
1135.23285968798
 30
0.0
 10
153.5513508730705
 20
1135.198236478353
 30
0.0
 10
153.6212863114211
 20
1135.167230618986
 30
0.0
 10
153.6951836095797
 20
1135.140703383749
 30
0.0
 10
153.7325628955946
 20
1135.127612020906
 30
0.0
 10
153.7708034554809
 20
1135.115381931933
 30
0.0
 10
153.8097330344642
 20
1135.10435762638
 30
0.0
 10
153.8495238873189
 20
1135.093161066053
 30
0.0
 10
153.8901760140448
 20
1135.083170289146
 30
0.0
 10
153.9313449050936
 20
1135.074213040884
 30
0.0
 10
153.9819878087267
 20
1135.063188735332
 30
0.0
 10
154.0336642410055
 20
1135.053886977521
 30
0.0
 10
154.0856851828327
 20
1135.045963257905
 30
0.0
 10
154.1778414870632
 20
1135.03201062119
 30
0.0
 10
154.2713758294877
 20
1135.021847589509
 30
0.0
 10
154.3480292040345
 20
1135.011167793504
 30
0.0
 10
154.3807576111444
 20
1135.006689169373
 30
0.0
 10
154.4103854323176
 20
1135.001866035694
 30
0.0
 10
154.4469034444612
 20
1134.995148099498
 30
0.0
 10
154.5771280538036
 20
1134.970860176327
 30
0.0
 10
154.7939968146001
 20
1134.9188392345
 30
0.0
 10
154.8901149786386
 20
1134.792748739739
 30
0.0
 10
154.9347289651726
 20
1134.733837606942
 30
0.0
 10
154.9533324807929
 20
1134.659079034912
 30
0.0
 10
154.9629787481516
 20
1134.613431519732
 30
0.0
 10
154.9712469773162
 20
1134.573640666878
 30
0.0
 10
154.9727972702846
 20
1134.556070679903
 30
0.0
 10
154.9743475632529
 20
1134.538672947702
 30
0.0
 10
154.9977742125527
 20
1134.25531384404
 30
0.0
 10
154.9981187221012
 20
1134.040684395309
 30
0.0
 10
154.9858886331285
 20
1122.661706262303
 30
0.0
  0
ENDBLK
  5
2B2
330
2AF
100
AcDbEntity
  8
0
100
AcDbBlockEnd
  0
BLOCK
  5
2B6
330
2B4
100
AcDbEntity
  8
0
100
AcDbBlockBegin
  2
block 103
 70
     0
 71
     0
 10
0.0
 20
0.0
 30
0.0
  3
block 103
  1

  0
POLYLINE
  5
2B8
330
2B4
100
AcDbEntity
  8
Predefinito
 62
     7
370
    25
100
AcDb2dPolyline
 66
     1
 10
0.0
 20
0.0
 30
0.0
  0
VERTEX
  5
2B9
330
2B8
100
AcDbEntity
  8
Predefinito
 62
     7
370
    25
100
AcDbVertex
100
AcDb2dVertex
 10
1147.021115164634
 20
1129.550002430286
 30
0.0
  0
VERTEX
  5
2BA
330
2B8
100
AcDbEntity
  8
Predefinito
 62
     7
370
    25
100
AcDbVertex
100
AcDb2dVertex
 10
1147.021115164634
 20
1122.451727692477
 30
0.0
  0
SEQEND
  5
2BB
330
2B8
100
AcDbEntity
  8
Predefinito
370
    25
  0
ENDBLK
  5
2B7
330
2B4
100
AcDbEntity
  8
0
100
AcDbBlockEnd
  0
BLOCK
  5
2BE
330
2BC
100
AcDbEntity
  8
0
100
AcDbBlockBegin
  2
block 104
 70
     0
 71
     0
 10
0.0
 20
0.0
 30
0.0
  3
block 104
  1

  0
POLYLINE
  5
2C0
330
2BC
100
AcDbEntity
  8
Predefinito
 62
     7
370
    70
100
AcDb2dPolyline
 66
     1
 10
0.0
 20
0.0
 30
0.0
  0
VERTEX
  5
2C1
330
2C0
100
AcDbEntity
  8
Predefinito
 62
     7
370
    70
100
AcDbVertex
100
AcDb2dVertex
 10
840.1034150460506
 20
972.5366751040881
 30
0.0
  0
VERTEX
  5
2C2
330
2C0
100
AcDbEntity
  8
Predefinito
 62
     7
370
    70
100
AcDbVertex
100
AcDb2dVertex
 10
840.1034150460506
 20
836.4519583412342
 30
0.0
  0
SEQEND
  5
2C3
330
2C0
100
AcDbEntity
  8
Predefinito
370
    70
  0
ENDBLK
  5
2BF
330
2BC
100
AcDbEntity
  8
0
100
AcDbBlockEnd
  0
BLOCK
  5
2C6
330
2C4
100
AcDbEntity
  8
0
100
AcDbBlockBegin
  2
block 105
 70
     0
 71
     0
 10
0.0
 20
0.0
 30
0.0
  3
block 105
  1

  0
POLYLINE
  5
2C8
330
2C4
100
AcDbEntity
  8
Predefinito
 62
     7
370
    70
100
AcDb2dPolyline
 66
     1
 10
0.0
 20
0.0
 30
0.0
  0
VERTEX
  5
2C9
330
2C8
100
AcDbEntity
  8
Predefinito
 62
     7
370
    70
100
AcDbVertex
100
AcDb2dVertex
 10
-573.8872787736289
 20
837.0941241396848
 30
0.0
  0
VERTEX
  5
2CA
330
2C8
100
AcDbEntity
  8
Predefinito
 62
     7
370
    70
100
AcDbVertex
100
AcDb2dVertex
 10
86.07002629141653
 20
837.0941241396848
 30
0.0
  0
SEQEND
  5
2CB
330
2C8
100
AcDbEntity
  8
Predefinito
370
    70
  0
ENDBLK
  5
2C7
330
2C4
100
AcDbEntity
  8
0
100
AcDbBlockEnd
  0
BLOCK
  5
2CE
330
2CC
100
AcDbEntity
  8
0
100
AcDbBlockBegin
  2
block 106
 70
     0
 71
     0
 10
0.0
 20
0.0
 30
0.0
  3
block 106
  1

  0
SPLINE
  5
2D0
330
2CC
100
AcDbEntity
  8
Predefinito
 62
     7
370
    70
100
AcDbSpline
210
0.0
220
0.0
230
1.0
 70
     8
 71
     3
 72
    11
 73
     7
 74
     0
 42
0.0000000001
 43
0.0000000001
 40
0.0
 40
0.0
 40
0.0
 40
0.0
 40
1.0
 40
1.0
 40
1.0
 40
2.0
 40
2.0
 40
2.0
 40
2.0
 10
71.0482041923074
 20
956.6031084848076
 30
0.0
 10
71.0482041923074
 20
962.1283526240513
 30
0.0
 10
71.0482041923074
 20
967.653596763295
 30
0.0
 10
71.0482041923074
 20
973.1791854120872
 30
0.0
 10
68.38152803194976
 20
973.1791854120872
 30
0.0
 10
65.71485187159212
 20
973.1791854120872
 30
0.0
 10
63.04817571123449
 20
973.1791854120872
 30
0.0
  0
ENDBLK
  5
2CF
330
2CC
100
AcDbEntity
  8
0
100
AcDbBlockEnd
  0
BLOCK
  5
2D3
330
2D1
100
AcDbEntity
  8
0
100
AcDbBlockBegin
  2
block 107
 70
     0
 71
     0
 10
0.0
 20
0.0
 30
0.0
  3
block 107
  1

  0
POLYLINE
  5
2D5
330
2D1
100
AcDbEntity
  8
Predefinito
 62
     7
370
    70
100
AcDb2dPolyline
 66
     1
 10
0.0
 20
0.0
 30
0.0
  0
VERTEX
  5
2D6
330
2D5
100
AcDbEntity
  8
Predefinito
 62
     7
370
    70
100
AcDbVertex
100
AcDb2dVertex
 10
1077.623111709761
 20
1122.451727692477
 30
0.0
  0
VERTEX
  5
2D7
330
2D5
100
AcDbEntity
  8
Predefinito
 62
     7
370
    70
100
AcDbVertex
100
AcDb2dVertex
 10
1077.623111709761
 20
762.4516518276163
 30
0.0
  0
SEQEND
  5
2D8
330
2D5
100
AcDbEntity
  8
Predefinito
370
    70
  0
ENDBLK
  5
2D4
330
2D1
100
AcDbEntity
  8
0
100
AcDbBlockEnd
  0
BLOCK
  5
2DB
330
2D9
100
AcDbEntity
  8
0
100
AcDbBlockBegin
  2
block 108
 70
     0
 71
     0
 10
0.0
 20
0.0
 30
0.0
  3
block 108
  1

  0
SPLINE
  5
2DD
330
2D9
100
AcDbEntity
  8
Predefinito
 62
     7
370
    70
100
AcDbSpline
210
0.0
220
0.0
230
1.0
 70
     8
 71
     3
 72
    17
 73
    13
 74
     0
 42
0.0000000001
 43
0.0000000001
 40
0.0
 40
0.0
 40
0.0
 40
0.0
 40
1.0
 40
1.0
 40
1.0
 40
2.0
 40
2.0
 40
2.0
 40
3.0
 40
3.0
 40
3.0
 40
4.0
 40
4.0
 40
4.0
 40
4.0
 10
71.0482041923074
 20
956.6031084848076
 30
0.0
 10
71.0482041923074
 20
955.4986108722366
 30
0.0
 10
70.65753036428006
 20
954.5556882379236
 30
0.0
 10
69.87652721777393
 20
953.7746850914175
 30
0.0
 10
69.09552407126779
 20
952.9933374353628
 30
0.0
 10
68.15277369172917
 20
952.603008116884
 30
0.0
 10
67.04810382438382
 20
952.603008116884
 30
0.0
 10
65.9436062118127
 20
952.603008116884
 30
0.0
 10
65.00068357749983
 20
952.9933374353628
 30
0.0
 10
64.21968043099369
 20
953.7746850914175
 30
0.0
 10
63.43867728448755
 20
954.5556882379236
 30
0.0
 10
63.04817571123449
 20
955.4986108722366
 30
0.0
 10
63.04817571123449
 20
956.6031084848076
 30
0.0
  0
ENDBLK
  5
2DC
330
2D9
100
AcDbEntity
  8
0
100
AcDbBlockEnd
  0
BLOCK
  5
2E0
330
2DE
100
AcDbEntity
  8
0
100
AcDbBlockBegin
  2
block 109
 70
     0
 71
     0
 10
0.0
 20
0.0
 30
0.0
  3
block 109
  1

  0
POLYLINE
  5
2E2
330
2DE
100
AcDbEntity
  8
Predefinito
 62
     7
370
    70
100
AcDb2dPolyline
 66
     1
 10
0.0
 20
0.0
 30
0.0
  0
VERTEX
  5
2E3
330
2E2
100
AcDbEntity
  8
Predefinito
 62
     7
370
    70
100
AcDbVertex
100
AcDb2dVertex
 10
1099.109483232167
 20
1122.451727692477
 30
0.0
  0
VERTEX
  5
2E4
330
2E2
100
AcDbEntity
  8
Predefinito
 62
     7
370
    70
100
AcDbVertex
100
AcDb2dVertex
 10
1099.109483232167
 20
762.4516518276163
 30
0.0
  0
SEQEND
  5
2E5
330
2E2
100
AcDbEntity
  8
Predefinito
370
    70
  0
ENDBLK
  5
2E1
330
2DE
100
AcDbEntity
  8
0
100
AcDbBlockEnd
  0
BLOCK
  5
2E8
330
2E6
100
AcDbEntity
  8
0
100
AcDbBlockBegin
  2
block 110
 70
     0
 71
     0
 10
0.0
 20
0.0
 30
0.0
  3
block 110
  1

  0
POLYLINE
  5
2EA
330
2E6
100
AcDbEntity
  8
Predefinito
 62
     7
370
    70
100
AcDb2dPolyline
 66
     1
 10
0.0
 20
0.0
 30
0.0
  0
VERTEX
  5
2EB
330
2EA
100
AcDbEntity
  8
Predefinito
 62
     7
370
    70
100
AcDbVertex
100
AcDb2dVertex
 10
108.0698892958992
 20
837.0941241396848
 30
0.0
  0
VERTEX
  5
2EC
330
2EA
100
AcDbEntity
  8
Predefinito
 62
     7
370
    70
100
AcDbVertex
100
AcDb2dVertex
 10
108.0698892958992
 20
823.0942896162751
 30
0.0
  0
SEQEND
  5
2ED
330
2EA
100
AcDbEntity
  8
Predefinito
370
    70
  0
ENDBLK
  5
2E9
330
2E6
100
AcDbEntity
  8
0
100
AcDbBlockEnd
  0
BLOCK
  5
2F0
330
2EE
100
AcDbEntity
  8
0
100
AcDbBlockBegin
  2
block 111
 70
     0
 71
     0
 10
0.0
 20
0.0
 30
0.0
  3
block 111
  1

  0
SPLINE
  5
2F2
330
2EE
100
AcDbEntity
  8
Predefinito
 62
     7
370
    70
100
AcDbSpline
210
0.0
220
0.0
230
1.0
 70
     8
 71
     3
 72
     8
 73
     4
 74
     0
 42
0.0000000001
 43
0.0000000001
 40
0.0
 40
0.0
 40
0.0
 40
0.0
 40
1.0
 40
1.0
 40
1.0
 40
1.0
 10
72.69840492974207
 20
956.6031084848076
 30
0.0
 10
72.69840492974207
 20
958.2002547517694
 30
0.0
 10
72.14822318074766
 20
959.5779484363209
 30
0.0
 10
71.0482041923074
 20
960.7358450289133
 30
0.0
  0
ENDBLK
  5
2F1
330
2EE
100
AcDbEntity
  8
0
100
AcDbBlockEnd
  0
BLOCK
  5
2F5
330
2F3
100
AcDbEntity
  8
0
100
AcDbBlockBegin
  2
block 112
 70
     0
 71
     0
 10
0.0
 20
0.0
 30
0.0
  3
block 112
  1

  0
POLYLINE
  5
2F7
330
2F3
100
AcDbEntity
  8
Predefinito
 62
     7
370
    70
100
AcDb2dPolyline
 66
     1
 10
0.0
 20
0.0
 30
0.0
  0
VERTEX
  5
2F8
330
2F7
100
AcDbEntity
  8
Predefinito
 62
     7
370
    70
100
AcDbVertex
100
AcDb2dVertex
 10
86.07002629141653
 20
763.0941621356154
 30
0.0
  0
VERTEX
  5
2F9
330
2F7
100
AcDbEntity
  8
Predefinito
 62
     7
370
    70
100
AcDbVertex
100
AcDb2dVertex
 10
108.0698892958992
 20
763.0941621356154
 30
0.0
  0
SEQEND
  5
2FA
330
2F7
100
AcDbEntity
  8
Predefinito
370
    70
  0
ENDBLK
  5
2F6
330
2F3
100
AcDbEntity
  8
0
100
AcDbBlockEnd
  0
BLOCK
  5
2FD
330
2FB
100
AcDbEntity
  8
0
100
AcDbBlockBegin
  2
block 113
 70
     0
 71
     0
 10
0.0
 20
0.0
 30
0.0
  3
block 113
  1

  0
SPLINE
  5
2FF
330
2FB
100
AcDbEntity
  8
Predefinito
 62
     7
370
    70
100
AcDbSpline
210
0.0
220
0.0
230
1.0
 70
    24
 71
     3
 72
     8
 73
     4
 74
     0
 42
0.0000000001
 43
0.0000000001
 40
0.0
 40
0.0
 40
0.0
 40
0.0
 40
1.0
 40
1.0
 40
1.0
 40
1.0
 10
86.07002629141653
 20
973.1791854120872
 30
0.0
 10
-47.18747286146702
 20
973.1791854120872
 30
0.0
 10
-180.4449720143506
 20
973.1791854120872
 30
0.0
 10
-313.7024711672341
 20
973.1791854120872
 30
0.0
  0
ENDBLK
  5
2FE
330
2FB
100
AcDbEntity
  8
0
100
AcDbBlockEnd
  0
BLOCK
  5
302
330
300
100
AcDbEntity
  8
0
100
AcDbBlockBegin
  2
block 114
 70
     0
 71
     0
 10
0.0
 20
0.0
 30
0.0
  3
block 114
  1

  0
SPLINE
  5
304
330
300
100
AcDbEntity
  8
Predefinito
 62
     7
370
    70
100
AcDbSpline
210
0.0
220
0.0
230
1.0
 70
    24
 71
     3
 72
     8
 73
     4
 74
     0
 42
0.0000000001
 43
0.0000000001
 40
0.0
 40
0.0
 40
0.0
 40
0.0
 40
1.0
 40
1.0
 40
1.0
 40
1.0
 10
108.6653740505246
 20
973.1791854120872
 30
0.0
 10
108.4669365505742
 20
973.1791854120872
 30
0.0
 10
108.2683267958496
 20
973.1791854120872
 30
0.0
 10
108.0698892958992
 20
973.1791854120872
 30
0.0
  0
ENDBLK
  5
303
330
300
100
AcDbEntity
  8
0
100
AcDbBlockEnd
  0
BLOCK
  5
307
330
305
100
AcDbEntity
  8
0
100
AcDbBlockBegin
  2
block 115
 70
     0
 71
     0
 10
0.0
 20
0.0
 30
0.0
  3
block 115
  1

  0
POLYLINE
  5
309
330
305
100
AcDbEntity
  8
Predefinito
 62
     7
370
    70
100
AcDb2dPolyline
 66
     1
 10
0.0
 20
0.0
 30
0.0
  0
VERTEX
  5
30A
330
309
100
AcDbEntity
  8
Predefinito
 62
     7
370
    70
100
AcDbVertex
100
AcDb2dVertex
 10
1077.523203940689
 20
822.451779308276
 30
0.0
  0
VERTEX
  5
30B
330
309
100
AcDbEntity
  8
Predefinito
 62
     7
370
    70
100
AcDbVertex
100
AcDb2dVertex
 10
417.6658066447155
 20
822.451779308276
 30
0.0
  0
SEQEND
  5
30C
330
309
100
AcDbEntity
  8
Predefinito
370
    70
  0
ENDBLK
  5
308
330
305
100
AcDbEntity
  8
0
100
AcDbBlockEnd
  0
BLOCK
  5
30F
330
30D
100
AcDbEntity
  8
0
100
AcDbBlockBegin
  2
block 116
 70
     0
 71
     0
 10
0.0
 20
0.0
 30
0.0
  3
block 116
  1

  0
SPLINE
  5
311
330
30D
100
AcDbEntity
  8
Predefinito
 62
     7
370
    70
100
AcDbSpline
210
0.0
220
0.0
230
1.0
 70
     8
 71
     3
 72
    26
 73
    22
 74
     0
 42
0.0000000001
 43
0.0000000001
 40
0.0
 40
0.0
 40
0.0
 40
0.0
 40
1.0
 40
1.0
 40
1.0
 40
2.0
 40
2.0
 40
2.0
 40
3.0
 40
3.0
 40
3.0
 40
4.0
 40
4.0
 40
4.0
 40
5.0
 40
5.0
 40
5.0
 40
6.0
 40
6.0
 40
6.0
 40
7.0
 40
7.0
 40
7.0
 40
7.0
 10
350.5822183368336
 20
1134.373136109636
 30
0.0
 10
350.6623168068657
 20
1134.4516842867
 30
0.0
 10
350.7291516592795
 20
1134.53574461654
 30
0.0
 10
350.7865124991089
 20
1134.622216513219
 30
0.0
 10
350.8526583324257
 20
1134.721779772743
 30
0.0
 10
350.9060573124471
 20
1134.824788127752
 30
0.0
 10
350.9508435537554
 20
1134.929174520955
 30
0.0
 10
351.0028644955826
 20
1135.050441882036
 30
0.0
 10
351.04317211276
 20
1135.173431790859
 30
0.0
 10
351.0669432716083
 20
1135.250429674955
 30
0.0
 10
351.0938150163933
 20
1135.337590590732
 30
0.0
 10
351.0993271691696
 20
1135.366012628485
 30
0.0
 10
351.1069063792372
 20
1135.397362997401
 30
0.0
 10
351.2223170779931
 20
1135.874164212559
 30
0.0
 10
351.8159070301016
 20
1137.006911608109
 30
0.0
 10
352.7199000854312
 20
1138.199603665103
 30
0.0
 10
354.2155882903523
 20
1140.173471123377
 30
0.0
 10
356.5608370419362
 20
1142.311669636297
 30
0.0
 10
359.9446098275486
 20
1144.52393770215
 30
0.0
 10
361.8704182038032
 20
1145.783120102009
 30
0.0
 10
364.1328124089668
 20
1147.066418170265
 30
0.0
 10
365.4236896872899
 20
1147.716335433557
 30
0.0
  0
ENDBLK
  5
310
330
30D
100
AcDbEntity
  8
0
100
AcDbBlockEnd
  0
BLOCK
  5
314
330
312
100
AcDbEntity
  8
0
100
AcDbBlockBegin
  2
block 117
 70
     0
 71
     0
 10
0.0
 20
0.0
 30
0.0
  3
block 117
  1

  0
POLYLINE
  5
316
330
312
100
AcDbEntity
  8
Predefinito
 62
     7
370
    70
100
AcDb2dPolyline
 66
     1
 10
0.0
 20
0.0
 30
0.0
  0
VERTEX
  5
317
330
316
100
AcDbEntity
  8
Predefinito
 62
     7
370
    70
100
AcDbVertex
100
AcDb2dVertex
 10
417.6658066447155
 20
972.5366751040881
 30
0.0
  0
VERTEX
  5
318
330
316
100
AcDbEntity
  8
Predefinito
 62
     7
370
    70
100
AcDbVertex
100
AcDb2dVertex
 10
417.6658066447155
 20
984.5366316983103
 30
0.0
  0
SEQEND
  5
319
330
316
100
AcDbEntity
  8
Predefinito
370
    70
  0
ENDBLK
  5
315
330
312
100
AcDbEntity
  8
0
100
AcDbBlockEnd
  0
BLOCK
  5
31C
330
31A
100
AcDbEntity
  8
0
100
AcDbBlockBegin
  2
block 118
 70
     0
 71
     0
 10
0.0
 20
0.0
 30
0.0
  3
block 118
  1

  0
POLYLINE
  5
31E
330
31A
100
AcDbEntity
  8
Predefinito
 62
     7
370
    70
100
AcDb2dPolyline
 66
     1
 10
0.0
 20
0.0
 30
0.0
  0
VERTEX
  5
31F
330
31E
100
AcDbEntity
  8
Predefinito
 62
     7
370
    70
100
AcDbVertex
100
AcDb2dVertex
 10
-336.3677543646928
 20
763.0941621356154
 30
0.0
  0
VERTEX
  5
320
330
31E
100
AcDbEntity
  8
Predefinito
 62
     7
370
    70
100
AcDbVertex
100
AcDb2dVertex
 10
-314.3677191054359
 20
763.0941621356154
 30
0.0
  0
SEQEND
  5
321
330
31E
100
AcDbEntity
  8
Predefinito
370
    70
  0
ENDBLK
  5
31D
330
31A
100
AcDbEntity
  8
0
100
AcDbBlockEnd
  0
BLOCK
  5
324
330
322
100
AcDbEntity
  8
0
100
AcDbBlockBegin
  2
block 119
 70
     0
 71
     0
 10
0.0
 20
0.0
 30
0.0
  3
block 119
  1

  0
SPLINE
  5
326
330
322
100
AcDbEntity
  8
Predefinito
 62
     7
370
    70
100
AcDbSpline
210
0.0
220
0.0
230
1.0
 70
     8
 71
     3
 72
     8
 73
     4
 74
     0
 42
0.0000000001
 43
0.0000000001
 40
0.0
 40
0.0
 40
0.0
 40
0.0
 40
1.0
 40
1.0
 40
1.0
 40
1.0
 10
-292.3223808405479
 20
949.4693492635008
 30
0.0
 10
-292.0931097360045
 20
948.1402314252914
 30
0.0
 10
-291.8467854088091
 20
946.8142141730187
 30
0.0
 10
-291.5832356041876
 20
945.4912975066828
 30
0.0
  0
ENDBLK
  5
325
330
322
100
AcDbEntity
  8
0
100
AcDbBlockEnd
  0
BLOCK
  5
329
330
327
100
AcDbEntity
  8
0
100
AcDbBlockBegin
  2
block 120
 70
     0
 71
     0
 10
0.0
 20
0.0
 30
0.0
  3
block 120
  1

  0
POLYLINE
  5
32B
330
327
100
AcDbEntity
  8
Predefinito
 62
     7
370
    25
100
AcDb2dPolyline
 66
     1
 10
0.0
 20
0.0
 30
0.0
  0
VERTEX
  5
32C
330
32B
100
AcDbEntity
  8
Predefinito
 62
     7
370
    25
100
AcDbVertex
100
AcDb2dVertex
 10
1147.021115164634
 20
1129.550002430286
 30
0.0
  0
VERTEX
  5
32D
330
32B
100
AcDbEntity
  8
Predefinito
 62
     7
370
    25
100
AcDbVertex
100
AcDb2dVertex
 10
1147.021115164634
 20
1122.451727692477
 30
0.0
  0
SEQEND
  5
32E
330
32B
100
AcDbEntity
  8
Predefinito
370
    25
  0
ENDBLK
  5
32A
330
327
100
AcDbEntity
  8
0
100
AcDbBlockEnd
  0
BLOCK
  5
331
330
32F
100
AcDbEntity
  8
0
100
AcDbBlockBegin
  2
block 121
 70
     0
 71
     0
 10
0.0
 20
0.0
 30
0.0
  3
block 121
  1

  0
POLYLINE
  5
333
330
32F
100
AcDbEntity
  8
Predefinito
 62
     7
370
    70
100
AcDb2dPolyline
 66
     1
 10
0.0
 20
0.0
 30
0.0
  0
VERTEX
  5
334
330
333
100
AcDbEntity
  8
Predefinito
 62
     7
370
    70
100
AcDbVertex
100
AcDb2dVertex
 10
818.1033797867937
 20
812.4517006432412
 30
0.0
  0
VERTEX
  5
335
330
333
100
AcDbEntity
  8
Predefinito
 62
     7
370
    70
100
AcDbVertex
100
AcDb2dVertex
 10
417.6658066447155
 20
812.4517006432412
 30
0.0
  0
SEQEND
  5
336
330
333
100
AcDbEntity
  8
Predefinito
370
    70
  0
ENDBLK
  5
332
330
32F
100
AcDbEntity
  8
0
100
AcDbBlockEnd
  0
BLOCK
  5
339
330
337
100
AcDbEntity
  8
0
100
AcDbBlockBegin
  2
block 122
 70
     0
 71
     0
 10
0.0
 20
0.0
 30
0.0
  3
block 122
  1

  0
POLYLINE
  5
33B
330
337
100
AcDbEntity
  8
Predefinito
 62
     7
370
    70
100
AcDb2dPolyline
 66
     1
 10
0.0
 20
0.0
 30
0.0
  0
VERTEX
  5
33C
330
33B
100
AcDbEntity
  8
Predefinito
 62
     7
370
    70
100
AcDbVertex
100
AcDb2dVertex
 10
417.6658066447155
 20
972.5366751040881
 30
0.0
  0
VERTEX
  5
33D
330
33B
100
AcDbEntity
  8
Predefinito
 62
     7
370
    70
100
AcDbVertex
100
AcDb2dVertex
 10
417.6658066447155
 20
762.4516518276163
 30
0.0
  0
SEQEND
  5
33E
330
33B
100
AcDbEntity
  8
Predefinito
370
    70
  0
ENDBLK
  5
33A
330
337
100
AcDbEntity
  8
0
100
AcDbBlockEnd
  0
BLOCK
  5
341
330
33F
100
AcDbEntity
  8
0
100
AcDbBlockBegin
  2
block 123
 70
     0
 71
     0
 10
0.0
 20
0.0
 30
0.0
  3
block 123
  1

  0
POLYLINE
  5
343
330
33F
100
AcDbEntity
  8
Predefinito
 62
     7
370
    70
100
AcDb2dPolyline
 66
     1
 10
0.0
 20
0.0
 30
0.0
  0
VERTEX
  5
344
330
343
100
AcDbEntity
  8
Predefinito
 62
     7
370
    70
100
AcDbVertex
100
AcDb2dVertex
 10
417.6658066447155
 20
1122.451727692477
 30
0.0
  0
VERTEX
  5
345
330
343
100
AcDbEntity
  8
Predefinito
 62
     7
370
    70
100
AcDbVertex
100
AcDb2dVertex
 10
417.6658066447155
 20
984.5366316983103
 30
0.0
  0
SEQEND
  5
346
330
343
100
AcDbEntity
  8
Predefinito
370
    70
  0
ENDBLK
  5
342
330
33F
100
AcDbEntity
  8
0
100
AcDbBlockEnd
  0
BLOCK
  5
349
330
347
100
AcDbEntity
  8
0
100
AcDbBlockBegin
  2
block 124
 70
     0
 71
     0
 10
0.0
 20
0.0
 30
0.0
  3
block 124
  1

  0
SPLINE
  5
34B
330
347
100
AcDbEntity
  8
Predefinito
 62
     7
370
    25
100
AcDbSpline
210
0.0
220
0.0
230
1.0
 70
     8
 71
     3
 72
    17
 73
    13
 74
     0
 42
0.0000000001
 43
0.0000000001
 40
0.0
 40
0.0
 40
0.0
 40
0.0
 40
1.0
 40
1.0
 40
1.0
 40
2.0
 40
2.0
 40
2.0
 40
3.0
 40
3.0
 40
3.0
 40
4.0
 40
4.0
 40
4.0
 40
4.0
 10
1147.039718680254
 20
1122.451727692477
 30
0.0
 10
1147.021115164634
 20
1130.870163020234
 30
0.0
 10
1147.021115164634
 20
1132.130206693964
 30
0.0
 10
1146.958414426802
 20
1132.814574912109
 30
0.0
 10
1146.896058198519
 20
1133.499115385028
 30
0.0
 10
1146.771001232405
 20
1133.60832491191
 30
0.0
 10
1146.645599756741
 20
1133.68911240104
 30
0.0
 10
1146.520542790627
 20
1133.769899890169
 30
0.0
 10
1146.395485824512
 20
1133.822609851093
 30
0.0
 10
1146.141926796798
 20
1133.897368423123
 30
0.0
 10
1145.888367769084
 20
1133.972126995153
 30
0.0
 10
1145.506306679769
 20
1134.068934178288
 30
0.0
 10
1145.10908717032
 20
1134.4516842867
 30
0.0
  0
ENDBLK
  5
34A
330
347
100
AcDbEntity
  8
0
100
AcDbBlockEnd
  0
BLOCK
  5
34E
330
34C
100
AcDbEntity
  8
0
100
AcDbBlockBegin
  2
block 125
 70
     0
 71
     0
 10
0.0
 20
0.0
 30
0.0
  3
block 125
  1

  0
SPLINE
  5
350
330
34C
100
AcDbEntity
  8
Predefinito
 62
     7
370
    70
100
AcDbSpline
210
0.0
220
0.0
230
1.0
 70
     8
 71
     3
 72
     8
 73
     4
 74
     0
 42
0.0000000001
 43
0.0000000001
 40
0.0
 40
0.0
 40
0.0
 40
0.0
 40
1.0
 40
1.0
 40
1.0
 40
1.0
 10
63.65296222367009
 20
949.4693492635008
 30
0.0
 10
63.42386337390098
 20
948.1402314252914
 30
0.0
 10
63.17736679193136
 20
946.8142141730187
 30
0.0
 10
62.91398924208401
 20
945.4912975066828
 30
0.0
  0
ENDBLK
  5
34F
330
34C
100
AcDbEntity
  8
0
100
AcDbBlockEnd
  0
BLOCK
  5
353
330
351
100
AcDbEntity
  8
0
100
AcDbBlockBegin
  2
block 126
 70
     0
 71
     0
 10
0.0
 20
0.0
 30
0.0
  3
block 126
  1

  0
POLYLINE
  5
355
330
351
100
AcDbEntity
  8
Predefinito
 62
     7
370
    70
100
AcDb2dPolyline
 66
     1
 10
0.0
 20
0.0
 30
0.0
  0
VERTEX
  5
356
330
355
100
AcDbEntity
  8
Predefinito
 62
     7
370
    70
100
AcDbVertex
100
AcDb2dVertex
 10
-573.787543259331
 20
823.0942896162751
 30
0.0
  0
VERTEX
  5
357
330
355
100
AcDbEntity
  8
Predefinito
 62
     7
370
    70
100
AcDbVertex
100
AcDb2dVertex
 10
86.07002629141653
 20
823.0942896162751
 30
0.0
  0
SEQEND
  5
358
330
355
100
AcDbEntity
  8
Predefinito
370
    70
  0
ENDBLK
  5
354
330
351
100
AcDbEntity
  8
0
100
AcDbBlockEnd
  0
BLOCK
  5
35B
330
359
100
AcDbEntity
  8
0
100
AcDbBlockBegin
  2
block 127
 70
     0
 71
     0
 10
0.0
 20
0.0
 30
0.0
  3
block 127
  1

  0
POLYLINE
  5
35D
330
359
100
AcDbEntity
  8
Predefinito
 62
     7
370
    70
100
AcDb2dPolyline
 66
     1
 10
0.0
 20
0.0
 30
0.0
  0
VERTEX
  5
35E
330
35D
100
AcDbEntity
  8
Predefinito
 62
     7
370
    70
100
AcDbVertex
100
AcDb2dVertex
 10
1099.109483232167
 20
762.4516518276163
 30
0.0
  0
VERTEX
  5
35F
330
35D
100
AcDbEntity
  8
Predefinito
 62
     7
370
    70
100
AcDbVertex
100
AcDb2dVertex
 10
1077.623111709761
 20
762.4516518276163
 30
0.0
  0
SEQEND
  5
360
330
35D
100
AcDbEntity
  8
Predefinito
370
    70
  0
ENDBLK
  5
35C
330
359
100
AcDbEntity
  8
0
100
AcDbBlockEnd
  0
BLOCK
  5
363
330
361
100
AcDbEntity
  8
0
100
AcDbBlockBegin
  2
block 128
 70
     0
 71
     0
 10
0.0
 20
0.0
 30
0.0
  3
block 128
  1

  0
SPLINE
  5
365
330
361
100
AcDbEntity
  8
Predefinito
 62
     7
370
    70
100
AcDbSpline
210
0.0
220
0.0
230
1.0
 70
     8
 71
     3
 72
    17
 73
    13
 74
     0
 42
0.0000000001
 43
0.0000000001
 40
0.0
 40
0.0
 40
0.0
 40
0.0
 40
1.0
 40
1.0
 40
1.0
 40
2.0
 40
2.0
 40
2.0
 40
3.0
 40
3.0
 40
3.0
 40
4.0
 40
4.0
 40
4.0
 40
4.0
 10
-335.702506426491
 20
973.1791854120872
 30
0.0
 10
-343.4739528221177
 20
973.1791854120872
 30
0.0
 10
-351.2453992177443
 20
973.1791854120872
 30
0.0
 10
-359.0168456133708
 20
973.1791854120872
 30
0.0
 10
-360.6835828091347
 20
975.5125485842469
 30
0.0
 10
-362.3503200048985
 20
977.8455672468581
 30
0.0
 10
-364.0168849458881
 20
980.1792749285663
 30
0.0
 10
-364.0168849458881
 20
981.8456676147816
 30
0.0
 10
-364.0168849458881
 20
983.5124048105456
 30
0.0
 10
-364.0168849458881
 20
985.1791420063095
 30
0.0
 10
-354.5787013544977
 20
985.1791420063095
 30
0.0
 10
-345.1405177631073
 20
985.1791420063095
 30
0.0
 10
-335.702506426491
 20
985.1791420063095
 30
0.0
  0
ENDBLK
  5
364
330
361
100
AcDbEntity
  8
0
100
AcDbBlockEnd
  0
BLOCK
  5
368
330
366
100
AcDbEntity
  8
0
100
AcDbBlockBegin
  2
block 129
 70
     0
 71
     0
 10
0.0
 20
0.0
 30
0.0
  3
block 129
  1

  0
POLYLINE
  5
36A
330
366
100
AcDbEntity
  8
Predefinito
 62
     7
370
    70
100
AcDb2dPolyline
 66
     1
 10
0.0
 20
0.0
 30
0.0
  0
VERTEX
  5
36B
330
36A
100
AcDbEntity
  8
Predefinito
 62
     7
370
    70
100
AcDbVertex
100
AcDb2dVertex
 10
-299.3677733626581
 20
956.6031084848076
 30
0.0
  0
VERTEX
  5
36C
330
36A
100
AcDbEntity
  8
Predefinito
 62
     7
370
    70
100
AcDbVertex
100
AcDb2dVertex
 10
-299.3677733626581
 20
973.1791854120872
 30
0.0
  0
SEQEND
  5
36D
330
36A
100
AcDbEntity
  8
Predefinito
370
    70
  0
ENDBLK
  5
369
330
366
100
AcDbEntity
  8
0
100
AcDbBlockEnd
  0
BLOCK
  5
370
330
36E
100
AcDbEntity
  8
0
100
AcDbBlockBegin
  2
block 130
 70
     0
 71
     0
 10
0.0
 20
0.0
 30
0.0
  3
block 130
  1

  0
SPLINE
  5
372
330
36E
100
AcDbEntity
  8
Predefinito
 62
     7
370
    70
100
AcDbSpline
210
0.0
220
0.0
230
1.0
 70
    24
 71
     3
 72
     8
 73
     4
 74
     0
 42
0.0000000001
 43
0.0000000001
 40
0.0
 40
0.0
 40
0.0
 40
0.0
 40
1.0
 40
1.0
 40
1.0
 40
1.0
 10
131.3844007375532
 20
973.1791854120872
 30
0.0
 10
123.811391841877
 20
973.1791854120872
 30
0.0
 10
116.2383829462008
 20
973.1791854120872
 30
0.0
 10
108.6653740505246
 20
973.1791854120872
 30
0.0
  0
ENDBLK
  5
371
330
36E
100
AcDbEntity
  8
0
100
AcDbBlockEnd
  0
BLOCK
  5
375
330
373
100
AcDbEntity
  8
0
100
AcDbBlockBegin
  2
block 131
 70
     0
 71
     0
 10
0.0
 20
0.0
 30
0.0
  3
block 131
  1

  0
POLYLINE
  5
377
330
373
100
AcDbEntity
  8
Predefinito
 62
     7
370
    70
100
AcDb2dPolyline
 66
     1
 10
0.0
 20
0.0
 30
0.0
  0
VERTEX
  5
378
330
377
100
AcDbEntity
  8
Predefinito
 62
     7
370
    70
100
AcDbVertex
100
AcDb2dVertex
 10
136.3844400700706
 20
985.1791420063095
 30
0.0
  0
VERTEX
  5
379
330
377
100
AcDbEntity
  8
Predefinito
 62
     7
370
    70
100
AcDbVertex
100
AcDb2dVertex
 10
136.3844400700706
 20
980.1792749285663
 30
0.0
  0
VERTEX
  5
37A
330
377
100
AcDbEntity
  8
Predefinito
 62
     7
370
    70
100
AcDbVertex
100
AcDb2dVertex
 10
131.3844007375532
 20
973.1791854120872
 30
0.0
  0
SEQEND
  5
37B
330
377
100
AcDbEntity
  8
Predefinito
370
    70
  0
ENDBLK
  5
376
330
373
100
AcDbEntity
  8
0
100
AcDbBlockEnd
  0
BLOCK
  5
37E
330
37C
100
AcDbEntity
  8
0
100
AcDbBlockBegin
  2
block 132
 70
     0
 71
     0
 10
0.0
 20
0.0
 30
0.0
  3
block 132
  1

  0
POLYLINE
  5
380
330
37C
100
AcDbEntity
  8
Predefinito
 62
     7
370
    70
100
AcDb2dPolyline
 66
     1
 10
0.0
 20
0.0
 30
0.0
  0
VERTEX
  5
381
330
380
100
AcDbEntity
  8
Predefinito
 62
     7
370
    70
100
AcDbVertex
100
AcDb2dVertex
 10
136.3844400700706
 20
980.1792749285663
 30
0.0
  0
VERTEX
  5
382
330
380
100
AcDbEntity
  8
Predefinito
 62
     7
370
    70
100
AcDbVertex
100
AcDb2dVertex
 10
136.3844400700706
 20
985.1791420063095
 30
0.0
  0
SEQEND
  5
383
330
380
100
AcDbEntity
  8
Predefinito
370
    70
  0
ENDBLK
  5
37F
330
37C
100
AcDbEntity
  8
0
100
AcDbBlockEnd
  0
BLOCK
  5
386
330
384
100
AcDbEntity
  8
0
100
AcDbBlockBegin
  2
block 133
 70
     0
 71
     0
 10
0.0
 20
0.0
 30
0.0
  3
block 133
  1

  0
POLYLINE
  5
388
330
384
100
AcDbEntity
  8
Predefinito
 62
     7
370
    70
100
AcDb2dPolyline
 66
     1
 10
0.0
 20
0.0
 30
0.0
  0
VERTEX
  5
389
330
388
100
AcDbEntity
  8
Predefinito
 62
     7
370
    70
100
AcDbVertex
100
AcDb2dVertex
 10
136.3844400700706
 20
985.1791420063095
 30
0.0
  0
VERTEX
  5
38A
330
388
100
AcDbEntity
  8
Predefinito
 62
     7
370
    70
100
AcDbVertex
100
AcDb2dVertex
 10
136.3844400700706
 20
980.1792749285663
 30
0.0
  0
SEQEND
  5
38B
330
388
100
AcDbEntity
  8
Predefinito
370
    70
  0
ENDBLK
  5
387
330
384
100
AcDbEntity
  8
0
100
AcDbBlockEnd
  0
BLOCK
  5
38E
330
38C
100
AcDbEntity
  8
0
100
AcDbBlockBegin
  2
block 134
 70
     0
 71
     0
 10
0.0
 20
0.0
 30
0.0
  3
block 134
  1

  0
SPLINE
  5
390
330
38C
100
AcDbEntity
  8
Predefinito
 62
     7
370
    70
100
AcDbSpline
210
0.0
220
0.0
230
1.0
 70
    24
 71
     3
 72
     8
 73
     4
 74
     0
 42
0.0000000001
 43
0.0000000001
 40
0.0
 40
0.0
 40
0.0
 40
0.0
 40
1.0
 40
1.0
 40
1.0
 40
1.0
 10
108.6653740505246
 20
985.1791420063095
 30
0.0
 10
117.9049478871904
 20
985.1791420063095
 30
0.0
 10
127.1446939786305
 20
985.1791420063095
 30
0.0
 10
136.3844400700706
 20
985.1791420063095
 30
0.0
  0
ENDBLK
  5
38F
330
38C
100
AcDbEntity
  8
0
100
AcDbBlockEnd
  0
BLOCK
  5
393
330
391
100
AcDbEntity
  8
0
100
AcDbBlockBegin
  2
block 135
 70
     0
 71
     0
 10
0.0
 20
0.0
 30
0.0
  3
block 135
  1

  0
SPLINE
  5
395
330
391
100
AcDbEntity
  8
Predefinito
 62
     7
370
    70
100
AcDbSpline
210
0.0
220
0.0
230
1.0
 70
    24
 71
     3
 72
     8
 73
     4
 74
     0
 42
0.0000000001
 43
0.0000000001
 40
0.0
 40
0.0
 40
0.0
 40
0.0
 40
1.0
 40
1.0
 40
1.0
 40
1.0
 10
108.7353094888752
 20
973.1791854120872
 30
0.0
 10
108.7120550943498
 20
973.1791854120872
 30
0.0
 10
108.6886284450501
 20
973.1791854120872
 30
0.0
 10
108.6653740505246
 20
973.1791854120872
 30
0.0
  0
ENDBLK
  5
394
330
391
100
AcDbEntity
  8
0
100
AcDbBlockEnd
  0
BLOCK
  5
398
330
396
100
AcDbEntity
  8
0
100
AcDbBlockBegin
  2
block 136
 70
     0
 71
     0
 10
0.0
 20
0.0
 30
0.0
  3
block 136
  1

  0
POLYLINE
  5
39A
330
396
100
AcDbEntity
  8
Predefinito
 62
     7
370
    70
100
AcDb2dPolyline
 66
     1
 10
0.0
 20
0.0
 30
0.0
  0
VERTEX
  5
39B
330
39A
100
AcDbEntity
  8
Predefinito
 62
     7
370
    70
100
AcDbVertex
100
AcDb2dVertex
 10
-314.3677191054359
 20
973.1791854120872
 30
0.0
  0
VERTEX
  5
39C
330
39A
100
AcDbEntity
  8
Predefinito
 62
     7
370
    70
100
AcDbVertex
100
AcDb2dVertex
 10
-314.3677191054359
 20
837.0941241396848
 30
0.0
  0
SEQEND
  5
39D
330
39A
100
AcDbEntity
  8
Predefinito
370
    70
  0
ENDBLK
  5
399
330
396
100
AcDbEntity
  8
0
100
AcDbBlockEnd
  0
BLOCK
  5
3A0
330
39E
100
AcDbEntity
  8
0
100
AcDbBlockBegin
  2
block 137
 70
     0
 71
     0
 10
0.0
 20
0.0
 30
0.0
  3
block 137
  1

  0
POLYLINE
  5
3A2
330
39E
100
AcDbEntity
  8
Predefinito
 62
     7
370
    70
100
AcDb2dPolyline
 66
     1
 10
0.0
 20
0.0
 30
0.0
  0
VERTEX
  5
3A3
330
3A2
100
AcDbEntity
  8
Predefinito
 62
     7
370
    70
100
AcDbVertex
100
AcDb2dVertex
 10
818.1033797867937
 20
822.451779308276
 30
0.0
  0
VERTEX
  5
3A4
330
3A2
100
AcDbEntity
  8
Predefinito
 62
     7
370
    70
100
AcDbVertex
100
AcDb2dVertex
 10
818.1033797867937
 20
762.4516518276163
 30
0.0
  0
SEQEND
  5
3A5
330
3A2
100
AcDbEntity
  8
Predefinito
370
    70
  0
ENDBLK
  5
3A1
330
39E
100
AcDbEntity
  8
0
100
AcDbBlockEnd
  0
BLOCK
  5
3A8
330
3A6
100
AcDbEntity
  8
0
100
AcDbBlockBegin
  2
block 138
 70
     0
 71
     0
 10
0.0
 20
0.0
 30
0.0
  3
block 138
  1

  0
POLYLINE
  5
3AA
330
3A6
100
AcDbEntity
  8
Predefinito
 62
     7
370
    70
100
AcDb2dPolyline
 66
     1
 10
0.0
 20
0.0
 30
0.0
  0
VERTEX
  5
3AB
330
3AA
100
AcDbEntity
  8
Predefinito
 62
     7
370
    70
100
AcDbVertex
100
AcDb2dVertex
 10
840.1034150460506
 20
762.4516518276163
 30
0.0
  0
VERTEX
  5
3AC
330
3AA
100
AcDbEntity
  8
Predefinito
 62
     7
370
    70
100
AcDbVertex
100
AcDb2dVertex
 10
818.1033797867937
 20
762.4516518276163
 30
0.0
  0
SEQEND
  5
3AD
330
3AA
100
AcDbEntity
  8
Predefinito
370
    70
  0
ENDBLK
  5
3A9
330
3A6
100
AcDbEntity
  8
0
100
AcDbBlockEnd
  0
BLOCK
  5
3B0
330
3AE
100
AcDbEntity
  8
0
100
AcDbBlockBegin
  2
block 139
 70
     0
 71
     0
 10
0.0
 20
0.0
 30
0.0
  3
block 139
  1

  0
SPLINE
  5
3B2
330
3AE
100
AcDbEntity
  8
Predefinito
 62
     7
370
    70
100
AcDbSpline
210
0.0
220
0.0
230
1.0
 70
     8
 71
     3
 72
    17
 73
    13
 74
     0
 42
0.0000000001
 43
0.0000000001
 40
0.0
 40
0.0
 40
0.0
 40
0.0
 40
1.0
 40
1.0
 40
1.0
 40
2.0
 40
2.0
 40
2.0
 40
3.0
 40
3.0
 40
3.0
 40
4.0
 40
4.0
 40
4.0
 40
4.0
 10
-291.3677448815852
 20
956.6031084848076
 30
0.0
 10
-291.3677448815852
 20
955.4986108722366
 30
0.0
 10
-291.7582464548382
 20
954.5556882379236
 30
0.0
 10
-292.5394218561186
 20
953.7746850914175
 30
0.0
 10
-293.3204250026247
 20
952.9933374353628
 30
0.0
 10
-294.2631753821634
 20
952.603008116884
 30
0.0
 10
-295.3678452495087
 20
952.603008116884
 30
0.0
 10
-296.4723428620799
 20
952.603008116884
 30
0.0
 10
-297.4150932416185
 20
952.9933374353628
 30
0.0
 10
-298.1962686428989
 20
953.7746850914175
 30
0.0
 10
-298.977271789405
 20
954.5556882379236
 30
0.0
 10
-299.3677733626581
 20
955.4986108722366
 30
0.0
 10
-299.3677733626581
 20
956.6031084848076
 30
0.0
  0
ENDBLK
  5
3B1
330
3AE
100
AcDbEntity
  8
0
100
AcDbBlockEnd
  0
BLOCK
  5
3B5
330
3B3
100
AcDbEntity
  8
0
100
AcDbBlockBegin
  2
block 140
 70
     0
 71
     0
 10
0.0
 20
0.0
 30
0.0
  3
block 140
  1

  0
POLYLINE
  5
3B7
330
3B3
100
AcDbEntity
  8
Predefinito
 62
     7
370
    70
100
AcDb2dPolyline
 66
     1
 10
0.0
 20
0.0
 30
0.0
  0
VERTEX
  5
3B8
330
3B7
100
AcDbEntity
  8
Predefinito
 62
     7
370
    70
100
AcDbVertex
100
AcDb2dVertex
 10
108.0698892958992
 20
973.1791854120872
 30
0.0
  0
VERTEX
  5
3B9
330
3B7
100
AcDbEntity
  8
Predefinito
 62
     7
370
    70
100
AcDbVertex
100
AcDb2dVertex
 10
108.0698892958992
 20
763.0941621356154
 30
0.0
  0
SEQEND
  5
3BA
330
3B7
100
AcDbEntity
  8
Predefinito
370
    70
  0
ENDBLK
  5
3B6
330
3B3
100
AcDbEntity
  8
0
100
AcDbBlockEnd
  0
BLOCK
  5
3BD
330
3BB
100
AcDbEntity
  8
0
100
AcDbBlockBegin
  2
block 141
 70
     0
 71
     0
 10
0.0
 20
0.0
 30
0.0
  3
block 141
  1

  0
SPLINE
  5
3BF
330
3BB
100
AcDbEntity
  8
Predefinito
 62
     7
370
    70
100
AcDbSpline
210
0.0
220
0.0
230
1.0
 70
    24
 71
     3
 72
     8
 73
     4
 74
     0
 42
0.0000000001
 43
0.0000000001
 40
0.0
 40
0.0
 40
0.0
 40
0.0
 40
1.0
 40
1.0
 40
1.0
 40
1.0
 10
-335.702506426491
 20
973.1791854120872
 30
0.0
 10
-328.369103921814
 20
973.1791854120872
 30
0.0
 10
-321.0357014171369
 20
973.1791854120872
 30
0.0
 10
-313.7024711672341
 20
973.1791854120872
 30
0.0
  0
ENDBLK
  5
3BE
330
3BB
100
AcDbEntity
  8
0
100
AcDbBlockEnd
  0
BLOCK
  5
3C2
330
3C0
100
AcDbEntity
  8
0
100
AcDbBlockBegin
  2
block 142
 70
     0
 71
     0
 10
0.0
 20
0.0
 30
0.0
  3
block 142
  1

  0
POLYLINE
  5
3C4
330
3C0
100
AcDbEntity
  8
Predefinito
 62
     7
370
    70
100
AcDb2dPolyline
 66
     1
 10
0.0
 20
0.0
 30
0.0
  0
VERTEX
  5
3C5
330
3C4
100
AcDbEntity
  8
Predefinito
 62
     7
370
    70
100
AcDbVertex
100
AcDb2dVertex
 10
60.969577350209
 20
945.9670651931958
 30
0.0
  0
VERTEX
  5
3C6
330
3C4
100
AcDbEntity
  8
Predefinito
 62
     7
370
    70
100
AcDbVertex
100
AcDb2dVertex
 10
62.91398924208401
 20
945.4912975066828
 30
0.0
  0
SEQEND
  5
3C7
330
3C4
100
AcDbEntity
  8
Predefinito
370
    70
  0
ENDBLK
  5
3C3
330
3C0
100
AcDbEntity
  8
0
100
AcDbBlockEnd
  0
BLOCK
  5
3CA
330
3C8
100
AcDbEntity
  8
0
100
AcDbBlockBegin
  2
block 143
 70
     0
 71
     0
 10
0.0
 20
0.0
 30
0.0
  3
block 143
  1

  0
SPLINE
  5
3CC
330
3C8
100
AcDbEntity
  8
Predefinito
 62
     7
370
    70
100
AcDbSpline
210
0.0
220
0.0
230
1.0
 70
     8
 71
     3
 72
    17
 73
    13
 74
     0
 42
0.0000000001
 43
0.0000000001
 40
0.0
 40
0.0
 40
0.0
 40
0.0
 40
1.0
 40
1.0
 40
1.0
 40
2.0
 40
2.0
 40
2.0
 40
3.0
 40
3.0
 40
3.0
 40
4.0
 40
4.0
 40
4.0
 40
4.0
 10
61.72990992380364
 20
950.0877439031032
 30
0.0
 10
62.03256156218283
 20
950.6885685557306
 30
0.0
 10
62.21205103696435
 20
950.9738224619093
 30
0.0
 10
62.4203070590477
 20
951.237372266531
 30
0.0
 10
62.63528101732729
 20
951.5091903003172
 30
0.0
 10
62.88074407065135
 20
951.7572371752552
 30
0.0
 10
63.15462916172871
 20
951.9694550571465
 30
0.0
 10
63.43833277493903
 20
952.1892521491055
 30
0.0
 10
63.75252548319381
 20
952.3701196620812
 30
0.0
 10
64.086010726166
 20
952.5024113287147
 30
0.0
 10
64.41949596913818
 20
952.6350475048969
 30
0.0
 10
64.77210149205351
 20
952.7187633251884
 30
0.0
 10
65.55207110991407
 20
952.7707842670156
 30
0.0
  0
ENDBLK
  5
3CB
330
3C8
100
AcDbEntity
  8
0
100
AcDbBlockEnd
  0
BLOCK
  5
3CF
330
3CD
100
AcDbEntity
  8
0
100
AcDbBlockBegin
  2
block 144
 70
     0
 71
     0
 10
0.0
 20
0.0
 30
0.0
  3
block 144
  1

  0
POLYLINE
  5
3D1
330
3CD
100
AcDbEntity
  8
Predefinito
 62
     7
370
    70
100
AcDb2dPolyline
 66
     1
 10
0.0
 20
0.0
 30
0.0
  0
VERTEX
  5
3D2
330
3D1
100
AcDbEntity
  8
Predefinito
 62
     7
370
    70
100
AcDbVertex
100
AcDb2dVertex
 10
108.0698892958992
 20
1123.094238000476
 30
0.0
  0
VERTEX
  5
3D3
330
3D1
100
AcDbEntity
  8
Predefinito
 62
     7
370
    70
100
AcDbVertex
100
AcDb2dVertex
 10
108.0698892958992
 20
983.0941702186362
 30
0.0
  0
SEQEND
  5
3D4
330
3D1
100
AcDbEntity
  8
Predefinito
370
    70
  0
ENDBLK
  5
3D0
330
3CD
100
AcDbEntity
  8
0
100
AcDbBlockEnd
  0
BLOCK
  5
3D7
330
3D5
100
AcDbEntity
  8
0
100
AcDbBlockBegin
  2
block 145
 70
     0
 71
     0
 10
0.0
 20
0.0
 30
0.0
  3
block 145
  1

  0
POLYLINE
  5
3D9
330
3D5
100
AcDbEntity
  8
Predefinito
 62
     7
370
    70
100
AcDb2dPolyline
 66
     1
 10
0.0
 20
0.0
 30
0.0
  0
VERTEX
  5
3DA
330
3D9
100
AcDbEntity
  8
Predefinito
 62
     7
370
    70
100
AcDbVertex
100
AcDb2dVertex
 10
395.6657713854586
 20
972.5366751040881
 30
0.0
  0
VERTEX
  5
3DB
330
3D9
100
AcDbEntity
  8
Predefinito
 62
     7
370
    70
100
AcDbVertex
100
AcDb2dVertex
 10
395.6657713854586
 20
762.4516518276163
 30
0.0
  0
SEQEND
  5
3DC
330
3D9
100
AcDbEntity
  8
Predefinito
370
    70
  0
ENDBLK
  5
3D8
330
3D5
100
AcDbEntity
  8
0
100
AcDbBlockEnd
  0
BLOCK
  5
3DF
330
3DD
100
AcDbEntity
  8
0
100
AcDbBlockBegin
  2
block 146
 70
     0
 71
     0
 10
0.0
 20
0.0
 30
0.0
  3
block 146
  1

  0
POLYLINE
  5
3E1
330
3DD
100
AcDbEntity
  8
Predefinito
 62
     7
370
    70
100
AcDb2dPolyline
 66
     1
 10
0.0
 20
0.0
 30
0.0
  0
VERTEX
  5
3E2
330
3E1
100
AcDbEntity
  8
Predefinito
 62
     7
370
    70
100
AcDbVertex
100
AcDb2dVertex
 10
63.04817571123449
 20
956.6031084848076
 30
0.0
  0
VERTEX
  5
3E3
330
3E1
100
AcDbEntity
  8
Predefinito
 62
     7
370
    70
100
AcDbVertex
100
AcDb2dVertex
 10
63.04817571123449
 20
973.1791854120872
 30
0.0
  0
SEQEND
  5
3E4
330
3E1
100
AcDbEntity
  8
Predefinito
370
    70
  0
ENDBLK
  5
3E0
330
3DD
100
AcDbEntity
  8
0
100
AcDbBlockEnd
  0
BLOCK
  5
3E7
330
3E5
100
AcDbEntity
  8
0
100
AcDbBlockBegin
  2
block 147
 70
     0
 71
     0
 10
0.0
 20
0.0
 30
0.0
  3
block 147
  1

  0
POLYLINE
  5
3E9
330
3E5
100
AcDbEntity
  8
Predefinito
 62
     7
370
    70
100
AcDb2dPolyline
 66
     1
 10
0.0
 20
0.0
 30
0.0
  0
VERTEX
  5
3EA
330
3E9
100
AcDbEntity
  8
Predefinito
 62
     7
370
    70
100
AcDbVertex
100
AcDb2dVertex
 10
-314.3677191054359
 20
823.0942896162751
 30
0.0
  0
VERTEX
  5
3EB
330
3E9
100
AcDbEntity
  8
Predefinito
 62
     7
370
    70
100
AcDbVertex
100
AcDb2dVertex
 10
-314.3677191054359
 20
763.0941621356154
 30
0.0
  0
SEQEND
  5
3EC
330
3E9
100
AcDbEntity
  8
Predefinito
370
    70
  0
ENDBLK
  5
3E8
330
3E5
100
AcDbEntity
  8
0
100
AcDbBlockEnd
  0
BLOCK
  5
3EF
330
3ED
100
AcDbEntity
  8
0
100
AcDbBlockBegin
  2
block 148
 70
     0
 71
     0
 10
0.0
 20
0.0
 30
0.0
  3
block 148
  1

  0
SPLINE
  5
3F1
330
3ED
100
AcDbEntity
  8
Predefinito
 62
     7
370
    70
100
AcDbSpline
210
0.0
220
0.0
230
1.0
 70
     8
 71
     3
 72
    44
 73
    40
 74
     0
 42
0.0000000001
 43
0.0000000001
 40
0.0
 40
0.0
 40
0.0
 40
0.0
 40
1.0
 40
1.0
 40
1.0
 40
2.0
 40
2.0
 40
2.0
 40
3.0
 40
3.0
 40
3.0
 40
4.0
 40
4.0
 40
4.0
 40
5.0
 40
5.0
 40
5.0
 40
6.0
 40
6.0
 40
6.0
 40
7.0
 40
7.0
 40
7.0
 40
8.0
 40
8.0
 40
8.0
 40
9.0
 40
9.0
 40
9.0
 40
10.0
 40
10.0
 40
10.0
 40
11.0
 40
11.0
 40
11.0
 40
12.0
 40
12.0
 40
12.0
 40
13.0
 40
13.0
 40
13.0
 40
13.0
 10
-291.3677448815852
 20
956.6031084848076
 30
0.0
 10
-291.023752097383
 20
953.89319637611
 30
0.0
 10
-290.6087903461846
 20
951.1970646493536
 30
0.0
 10
-290.1216538445703
 20
948.5088566422131
 30
0.0
 10
-289.6341728334074
 20
945.8196151064271
 30
0.0
 10
-289.0764118743455
 20
943.1479435576158
 30
0.0
 10
-288.4468206744161
 20
940.4883298430029
 30
0.0
 10
-287.1876382745573
 20
935.1687579042286
 30
0.0
 10
-285.6483696117476
 20
929.9256670852269
 30
0.0
 10
-283.8329765457952
 20
924.7693926724535
 30
0.0
 10
-282.0530679633409
 20
919.7137150478494
 30
0.0
 10
-280.0108153596848
 20
914.7527775490896
 30
0.0
 10
-277.7184488237996
 20
909.9082842777314
 30
0.0
 10
-276.5717487915342
 20
907.4850041134066
 30
0.0
 10
-275.3647595882769
 20
905.0951413752888
 30
0.0
 10
-274.0954141567366
 20
902.7338729296985
 30
0.0
 10
-272.8260687251963
 20
900.3726044841083
 30
0.0
 10
-271.498328925181
 20
898.0475095411132
 30
0.0
 10
-270.1102999541739
 20
895.7537649670338
 30
0.0
 10
-267.3860906992125
 20
891.2520586964579
 30
0.0
 10
-264.4369167090644
 20
886.8857446784522
 30
0.0
 10
-261.2818982636726
 20
882.6748044668313
 30
0.0
 10
-259.7035277671054
 20
880.5684730871496
 30
0.0
 10
-258.0760646598733
 20
878.5034828532908
 30
0.0
 10
-256.3970973751369
 20
876.4760441602214
 30
0.0
 10
-254.7179578356261
 20
874.4486054671518
 30
0.0
 10
-252.9921372522902
 20
872.464919486745
 30
0.0
 10
-251.2173963130637
 20
870.52050759487
 30
0.0
 10
-247.7304429176681
 20
866.7012747399219
 30
0.0
 10
-244.0621052449741
 20
863.0446503918778
 30
0.0
 10
-240.2351209251843
 20
859.5664819899695
 30
0.0
 10
-236.407792095846
 20
856.0876245689642
 30
0.0
 10
-232.4190605430237
 20
852.7841225081581
 30
0.0
 10
-228.2916638969201
 20
849.6673446226526
 30
0.0
 10
-224.2049193775425
 20
846.5815725965143
 30
0.0
 10
-219.9834716246916
 20
843.6794241597399
 30
0.0
 10
-215.6417900394055
 20
840.963999898266
 30
0.0
 10
-213.5060030933249
 20
839.6283363786346
 30
0.0
 10
-211.3416218547167
 20
838.3381481194085
 30
0.0
 10
-209.1510578904206
 20
837.0941241396848
 30
0.0
  0
ENDBLK
  5
3F0
330
3ED
100
AcDbEntity
  8
0
100
AcDbBlockEnd
  0
BLOCK
  5
3F4
330
3F2
100
AcDbEntity
  8
0
100
AcDbBlockBegin
  2
block 149
 70
     0
 71
     0
 10
0.0
 20
0.0
 30
0.0
  3
block 149
  1

  0
SPLINE
  5
3F6
330
3F2
100
AcDbEntity
  8
Predefinito
 62
     7
370
    70
100
AcDbSpline
210
0.0
220
0.0
230
1.0
 70
     8
 71
     3
 72
    14
 73
    10
 74
     0
 42
0.0000000001
 43
0.0000000001
 40
0.0
 40
0.0
 40
0.0
 40
0.0
 40
1.0
 40
1.0
 40
1.0
 40
2.0
 40
2.0
 40
2.0
 40
3.0
 40
3.0
 40
3.0
 40
3.0
 10
72.69840492974207
 20
956.6031084848076
 30
0.0
 10
72.69840492974207
 20
954.9460175564025
 30
0.0
 10
72.11256644247534
 20
953.5321503692559
 30
0.0
 10
70.94106172271613
 20
952.3604733947225
 30
0.0
 10
69.76938474818266
 20
951.188796420189
 30
0.0
 10
68.3551730514876
 20
950.6031301876965
 30
0.0
 10
66.69842663263096
 20
950.6031301876965
 30
0.0
 10
66.23368325167075
 20
950.6031301876965
 30
0.0
 10
65.775141042584
 20
950.6561846581693
 30
0.0
 10
65.32262775059642
 20
950.762982618212
 30
0.0
  0
ENDBLK
  5
3F5
330
3F2
100
AcDbEntity
  8
0
100
AcDbBlockEnd
  0
BLOCK
  5
3F9
330
3F7
100
AcDbEntity
  8
0
100
AcDbBlockBegin
  2
block 150
 70
     0
 71
     0
 10
0.0
 20
0.0
 30
0.0
  3
block 150
  1

  0
POLYLINE
  5
3FB
330
3F7
100
AcDbEntity
  8
Predefinito
 62
     7
370
    70
100
AcDb2dPolyline
 66
     1
 10
0.0
 20
0.0
 30
0.0
  0
VERTEX
  5
3FC
330
3FB
100
AcDbEntity
  8
Predefinito
 62
     7
370
    70
100
AcDbVertex
100
AcDb2dVertex
 10
86.07002629141653
 20
973.1791854120872
 30
0.0
  0
VERTEX
  5
3FD
330
3FB
100
AcDbEntity
  8
Predefinito
 62
     7
370
    70
100
AcDbVertex
100
AcDb2dVertex
 10
86.07002629141653
 20
985.1791420063095
 30
0.0
  0
SEQEND
  5
3FE
330
3FB
100
AcDbEntity
  8
Predefinito
370
    70
  0
ENDBLK
  5
3FA
330
3F7
100
AcDbEntity
  8
0
100
AcDbBlockEnd
  0
BLOCK
  5
401
330
3FF
100
AcDbEntity
  8
0
100
AcDbBlockBegin
  2
block 151
 70
     0
 71
     0
 10
0.0
 20
0.0
 30
0.0
  3
block 151
  1

  0
SPLINE
  5
403
330
3FF
100
AcDbEntity
  8
Predefinito
 62
     7
370
    70
100
AcDbSpline
210
0.0
220
0.0
230
1.0
 70
     8
 71
     3
 72
    26
 73
    22
 74
     0
 42
0.0000000001
 43
0.0000000001
 40
0.0
 40
0.0
 40
0.0
 40
0.0
 40
1.0
 40
1.0
 40
1.0
 40
2.0
 40
2.0
 40
2.0
 40
3.0
 40
3.0
 40
3.0
 40
4.0
 40
4.0
 40
4.0
 40
5.0
 40
5.0
 40
5.0
 40
6.0
 40
6.0
 40
6.0
 40
7.0
 40
7.0
 40
7.0
 40
7.0
 10
-641.4535249589943
 20
1135.015646417635
 30
0.0
 10
-641.3733403615751
 20
1135.094194594699
 30
0.0
 10
-641.3064193817742
 20
1135.178254924539
 30
0.0
 10
-641.2490585419447
 20
1135.264726821219
 30
0.0
 10
-641.1830849634022
 20
1135.364290080742
 30
0.0
 10
-641.1295998559937
 20
1135.467298435751
 30
0.0
 10
-641.0847274872983
 20
1135.571684828954
 30
0.0
 10
-641.0327926728581
 20
1135.692779935261
 30
0.0
 10
-640.9923989282936
 20
1135.815769844084
 30
0.0
 10
-640.9686277694453
 20
1135.89276772818
 30
0.0
 10
-640.9417560246604
 20
1135.980100898731
 30
0.0
 10
-640.936243871884
 20
1136.008522936484
 30
0.0
 10
-640.9286646618165
 20
1136.039701050626
 30
0.0
 10
-640.8132539630606
 20
1136.516674520558
 30
0.0
 10
-640.2196640109521
 20
1137.649421916109
 30
0.0
 10
-639.3158432103968
 20
1138.842113973102
 30
0.0
 10
-637.8200688780884
 20
1140.815981431376
 30
0.0
 10
-635.4747339991175
 20
1142.954007689522
 30
0.0
 10
-632.090961213505
 20
1145.166275755375
 30
0.0
 10
-630.1651528372504
 20
1146.425458155234
 30
0.0
 10
-627.902844759474
 20
1147.708756223489
 30
0.0
 10
-626.612053608538
 20
1148.358845741556
 30
0.0
  0
ENDBLK
  5
402
330
3FF
100
AcDbEntity
  8
0
100
AcDbBlockEnd
  0
BLOCK
  5
406
330
404
100
AcDbEntity
  8
0
100
AcDbBlockBegin
  2
block 152
 70
     0
 71
     0
 10
0.0
 20
0.0
 30
0.0
  3
block 152
  1

  0
POLYLINE
  5
408
330
404
100
AcDbEntity
  8
Predefinito
 62
     7
370
    70
100
AcDb2dPolyline
 66
     1
 10
0.0
 20
0.0
 30
0.0
  0
VERTEX
  5
409
330
408
100
AcDbEntity
  8
Predefinito
 62
     7
370
    70
100
AcDbVertex
100
AcDb2dVertex
 10
-595.3739948055836
 20
1123.094238000476
 30
0.0
  0
VERTEX
  5
40A
330
408
100
AcDbEntity
  8
Predefinito
 62
     7
370
    70
100
AcDbVertex
100
AcDb2dVertex
 10
-595.3739948055836
 20
763.0941621356154
 30
0.0
  0
SEQEND
  5
40B
330
408
100
AcDbEntity
  8
Predefinito
370
    70
  0
ENDBLK
  5
407
330
404
100
AcDbEntity
  8
0
100
AcDbBlockEnd
  0
BLOCK
  5
40E
330
40C
100
AcDbEntity
  8
0
100
AcDbBlockBegin
  2
block 153
 70
     0
 71
     0
 10
0.0
 20
0.0
 30
0.0
  3
block 153
  1

  0
POLYLINE
  5
410
330
40C
100
AcDbEntity
  8
Predefinito
 62
     7
370
    70
100
AcDb2dPolyline
 66
     1
 10
0.0
 20
0.0
 30
0.0
  0
VERTEX
  5
411
330
410
100
AcDbEntity
  8
Predefinito
 62
     7
370
    70
100
AcDbVertex
100
AcDb2dVertex
 10
86.07002629141653
 20
1123.094238000476
 30
0.0
  0
VERTEX
  5
412
330
410
100
AcDbEntity
  8
Predefinito
 62
     7
370
    70
100
AcDbVertex
100
AcDb2dVertex
 10
86.07002629141653
 20
983.0941702186362
 30
0.0
  0
SEQEND
  5
413
330
410
100
AcDbEntity
  8
Predefinito
370
    70
  0
ENDBLK
  5
40F
330
40C
100
AcDbEntity
  8
0
100
AcDbBlockEnd
  0
BLOCK
  5
416
330
414
100
AcDbEntity
  8
0
100
AcDbBlockBegin
  2
block 154
 70
     0
 71
     0
 10
0.0
 20
0.0
 30
0.0
  3
block 154
  1

  0
SPLINE
  5
418
330
414
100
AcDbEntity
  8
Predefinito
 62
     7
370
    70
100
AcDbSpline
210
0.0
220
0.0
230
1.0
 70
    24
 71
     3
 72
     8
 73
     4
 74
     0
 42
0.0000000001
 43
0.0000000001
 40
0.0
 40
0.0
 40
0.0
 40
0.0
 40
1.0
 40
1.0
 40
1.0
 40
1.0
 10
817.4381318485919
 20
972.5366751040881
 30
0.0
 10
684.1806326957084
 20
972.5366751040881
 30
0.0
 10
550.9231335428248
 20
972.5366751040881
 30
0.0
 10
417.6658066447155
 20
972.5366751040881
 30
0.0
  0
ENDBLK
  5
417
330
414
100
AcDbEntity
  8
0
100
AcDbBlockEnd
  0
BLOCK
  5
41B
330
419
100
AcDbEntity
  8
0
100
AcDbBlockBegin
  2
block 155
 70
     0
 71
     0
 10
0.0
 20
0.0
 30
0.0
  3
block 155
  1

  0
SPLINE
  5
41D
330
419
100
AcDbEntity
  8
Predefinito
 62
     7
370
    70
100
AcDbSpline
210
0.0
220
0.0
230
1.0
 70
    24
 71
     3
 72
     8
 73
     4
 74
     0
 42
0.0000000001
 43
0.0000000001
 40
0.0
 40
0.0
 40
0.0
 40
0.0
 40
1.0
 40
1.0
 40
1.0
 40
1.0
 10
840.1034150460506
 20
972.5366751040881
 30
0.0
 10
840.0801606515251
 20
972.5366751040881
 30
0.0
 10
840.0569062569997
 20
972.5366751040881
 30
0.0
 10
840.0334796077
 20
972.5366751040881
 30
0.0
  0
ENDBLK
  5
41C
330
419
100
AcDbEntity
  8
0
100
AcDbBlockEnd
  0
BLOCK
  5
420
330
41E
100
AcDbEntity
  8
0
100
AcDbBlockBegin
  2
block 156
 70
     0
 71
     0
 10
0.0
 20
0.0
 30
0.0
  3
block 156
  1

  0
POLYLINE
  5
422
330
41E
100
AcDbEntity
  8
Predefinito
 62
     7
370
    70
100
AcDb2dPolyline
 66
     1
 10
0.0
 20
0.0
 30
0.0
  0
VERTEX
  5
423
330
422
100
AcDbEntity
  8
Predefinito
 62
     7
370
    70
100
AcDbVertex
100
AcDb2dVertex
 10
-573.8872787736289
 20
1123.094238000476
 30
0.0
  0
VERTEX
  5
424
330
422
100
AcDbEntity
  8
Predefinito
 62
     7
370
    70
100
AcDbVertex
100
AcDb2dVertex
 10
-573.8872787736289
 20
763.0941621356154
 30
0.0
  0
SEQEND
  5
425
330
422
100
AcDbEntity
  8
Predefinito
370
    70
  0
ENDBLK
  5
421
330
41E
100
AcDbEntity
  8
0
100
AcDbBlockEnd
  0
BLOCK
  5
428
330
426
100
AcDbEntity
  8
0
100
AcDbBlockBegin
  2
block 157
 70
     0
 71
     0
 10
0.0
 20
0.0
 30
0.0
  3
block 157
  1

  0
POLYLINE
  5
42A
330
426
100
AcDbEntity
  8
Predefinito
 62
     7
370
    70
100
AcDb2dPolyline
 66
     1
 10
0.0
 20
0.0
 30
0.0
  0
VERTEX
  5
42B
330
42A
100
AcDbEntity
  8
Predefinito
 62
     7
370
    70
100
AcDbVertex
100
AcDb2dVertex
 10
417.6658066447155
 20
972.5366751040881
 30
0.0
  0
VERTEX
  5
42C
330
42A
100
AcDbEntity
  8
Predefinito
 62
     7
370
    70
100
AcDbVertex
100
AcDb2dVertex
 10
417.6658066447155
 20
984.5366316983103
 30
0.0
  0
SEQEND
  5
42D
330
42A
100
AcDbEntity
  8
Predefinito
370
    70
  0
ENDBLK
  5
429
330
426
100
AcDbEntity
  8
0
100
AcDbBlockEnd
  0
BLOCK
  5
430
330
42E
100
AcDbEntity
  8
0
100
AcDbBlockBegin
  2
block 158
 70
     0
 71
     0
 10
0.0
 20
0.0
 30
0.0
  3
block 158
  1

  0
POLYLINE
  5
432
330
42E
100
AcDbEntity
  8
Predefinito
 62
     7
370
    70
100
AcDb2dPolyline
 66
     1
 10
0.0
 20
0.0
 30
0.0
  0
VERTEX
  5
433
330
432
100
AcDbEntity
  8
Predefinito
 62
     7
370
    70
100
AcDbVertex
100
AcDb2dVertex
 10
1099.109483232167
 20
762.4516518276163
 30
0.0
  0
VERTEX
  5
434
330
432
100
AcDbEntity
  8
Predefinito
 62
     7
370
    70
100
AcDbVertex
100
AcDb2dVertex
 10
1077.623111709761
 20
762.4516518276163
 30
0.0
  0
SEQEND
  5
435
330
432
100
AcDbEntity
  8
Predefinito
370
    70
  0
ENDBLK
  5
431
330
42E
100
AcDbEntity
  8
0
100
AcDbBlockEnd
  0
BLOCK
  5
438
330
436
100
AcDbEntity
  8
0
100
AcDbBlockBegin
  2
block 159
 70
     0
 71
     0
 10
0.0
 20
0.0
 30
0.0
  3
block 159
  1

  0
SPLINE
  5
43A
330
436
100
AcDbEntity
  8
Predefinito
 62
     7
370
    70
100
AcDbSpline
210
0.0
220
0.0
230
1.0
 70
    24
 71
     3
 72
     8
 73
     4
 74
     0
 42
0.0000000001
 43
0.0000000001
 40
0.0
 40
0.0
 40
0.0
 40
0.0
 40
1.0
 40
1.0
 40
1.0
 40
1.0
 10
417.6658066447155
 20
984.5366316983103
 30
0.0
 10
550.9231335428248
 20
984.5366316983103
 30
0.0
 10
684.1806326957084
 20
984.5366316983103
 30
0.0
 10
817.4381318485919
 20
984.5366316983103
 30
0.0
  0
ENDBLK
  5
439
330
436
100
AcDbEntity
  8
0
100
AcDbBlockEnd
  0
BLOCK
  5
43D
330
43B
100
AcDbEntity
  8
0
100
AcDbBlockBegin
  2
block 160
 70
     0
 71
     0
 10
0.0
 20
0.0
 30
0.0
  3
block 160
  1

  0
POLYLINE
  5
43F
330
43B
100
AcDbEntity
  8
Predefinito
 62
     7
370
    70
100
AcDb2dPolyline
 66
     1
 10
0.0
 20
0.0
 30
0.0
  0
VERTEX
  5
440
330
43F
100
AcDbEntity
  8
Predefinito
 62
     7
370
    70
100
AcDbVertex
100
AcDb2dVertex
 10
-643.2852822285016
 20
1123.094238000476
 30
0.0
  0
VERTEX
  5
441
330
43F
100
AcDbEntity
  8
Predefinito
 62
     7
370
    70
100
AcDbVertex
100
AcDb2dVertex
 10
154.9853718688057
 20
1123.094238000476
 30
0.0
  0
SEQEND
  5
442
330
43F
100
AcDbEntity
  8
Predefinito
370
    70
  0
ENDBLK
  5
43E
330
43B
100
AcDbEntity
  8
0
100
AcDbBlockEnd
  0
BLOCK
  5
445
330
443
100
AcDbEntity
  8
0
100
AcDbBlockBegin
  2
block 161
 70
     0
 71
     0
 10
0.0
 20
0.0
 30
0.0
  3
block 161
  1

  0
SPLINE
  5
447
330
443
100
AcDbEntity
  8
Predefinito
 62
     7
370
    70
100
AcDbSpline
210
0.0
220
0.0
230
1.0
 70
     8
 71
     3
 72
    59
 73
    55
 74
     0
 42
0.0000000001
 43
0.0000000001
 40
0.0
 40
0.0
 40
0.0
 40
0.0
 40
1.0
 40
1.0
 40
1.0
 40
2.0
 40
2.0
 40
2.0
 40
3.0
 40
3.0
 40
3.0
 40
4.0
 40
4.0
 40
4.0
 40
5.0
 40
5.0
 40
5.0
 40
6.0
 40
6.0
 40
6.0
 40
7.0
 40
7.0
 40
7.0
 40
8.0
 40
8.0
 40
8.0
 40
9.0
 40
9.0
 40
9.0
 40
10.0
 40
10.0
 40
10.0
 40
11.0
 40
11.0
 40
11.0
 40
12.0
 40
12.0
 40
12.0
 40
13.0
 40
13.0
 40
13.0
 40
14.0
 40
14.0
 40
14.0
 40
15.0
 40
15.0
 40
15.0
 40
16.0
 40
16.0
 40
16.0
 40
17.0
 40
17.0
 40
17.0
 40
18.0
 40
18.0
 40
18.0
 40
18.0
 10
60.71429577475198
 20
956.8549449647794
 30
0.0
 10
60.37874347448865
 20
954.2108341798502
 30
0.0
 10
59.97463377406884
 20
951.5805037768619
 30
0.0
 10
59.50093314484699
 20
948.9577525839412
 30
0.0
 10
59.02688800607661
 20
946.3339678623748
 30
0.0
 10
58.48514674102108
 20
943.7267195991378
 30
0.0
 10
57.87415905671202
 20
941.1311846605506
 30
0.0
 10
57.26334362717722
 20
938.5356497219634
 30
0.0
 10
56.58534883568005
 20
935.9607853562876
 30
0.0
 10
55.83914115357494
 20
933.401079410747
 30
0.0
 10
55.09293347146983
 20
930.8413734652064
 30
0.0
 10
54.28092446559643
 20
928.3057831880625
 30
0.0
 10
53.40156384298642
 20
925.7884519169904
 30
0.0
 10
52.52961017566968
 20
923.292480237927
 30
0.0
 10
51.59426675142435
 20
920.8237248131969
 30
0.0
 10
50.59432778683059
 20
918.3759844709268
 30
0.0
 10
49.59456107701109
 20
915.9285886382054
 30
0.0
 10
48.53312715800561
 20
913.5111651362056
 30
0.0
 10
47.4084757368458
 20
911.1185463216996
 30
0.0
 10
46.84640840842729
 20
909.9227536787694
 30
0.0
 10
46.26918265987368
 20
908.7345402459067
 30
0.0
 10
45.67645398163644
 20
907.5532170040145
 30
0.0
 10
45.08389755817347
 20
906.3725827812194
 30
0.0
 10
44.47652722412393
 20
905.1995277684919
 30
0.0
 10
43.85382621516501
 20
904.0340519658318
 30
0.0
 10
42.60859645202147
 20
901.7031003605117
 30
0.0
 10
41.30566133949998
 20
899.4076332386898
 30
0.0
 10
39.94329832985792
 20
897.1431719762351
 30
0.0
 10
38.59747177854508
 20
894.9059269681138
 30
0.0
 10
37.19772948288807
 20
892.7055444816848
 30
0.0
 10
35.74200438559575
 20
890.5382349119141
 30
0.0
 10
34.28610703352917
 20
888.3709253421434
 30
0.0
 10
32.77887775873236
 20
886.2425453513561
 30
0.0
 10
31.2177327395914
 20
884.1496498440667
 30
0.0
 10
28.09630397518078
 20
879.9642033390368
 30
0.0
 10
24.77247585101174
 20
875.9375757358767
 30
0.0
 10
21.2589952203797
 20
872.0756236969116
 30
0.0
 10
17.78427191395671
 20
868.2563908419637
 30
0.0
 10
14.13591579507713
 20
864.6107907994724
 30
0.0
 10
10.317888723549
 20
861.1350339644038
 30
0.0
 10
8.409478079494853
 20
859.3976723111923
 30
0.0
 10
6.46334363987722
 20
857.7068194470316
 30
0.0
 10
4.476729328307901
 20
856.0593747859851
 30
0.0
 10
2.490115016738582
 20
854.4119301249387
 30
0.0
 10
0.4683607312197154
 20
852.8123722911372
 30
0.0
 10
-1.5912896046369
 20
851.2572561890954
 30
0.0
 10
-5.658913844071383
 20
848.1862980735438
 30
0.0
 10
-9.861069062204873
 20
845.2993080569044
 30
0.0
 10
-14.18397487709637
 20
842.5997312346626
 30
0.0
 10
-16.34611680363917
 20
841.2495983139931
 30
0.0
 10
-18.53513047496691
 20
839.9480412396658
 30
0.0
 10
-20.75377196746781
 20
838.6926484448408
 30
0.0
 10
-21.71202527669005
 20
838.150734925011
 30
0.0
 10
-22.67475721004312
 20
837.6181231629913
 30
0.0
 10
-23.64214002230127
 20
837.0941241396848
 30
0.0
  0
ENDBLK
  5
446
330
443
100
AcDbEntity
  8
0
100
AcDbBlockEnd
  0
BLOCK
  5
44A
330
448
100
AcDbEntity
  8
0
100
AcDbBlockBegin
  2
block 162
 70
     0
 71
     0
 10
0.0
 20
0.0
 30
0.0
  3
block 162
  1

  0
SPLINE
  5
44C
330
448
100
AcDbEntity
  8
Predefinito
 62
     7
370
    70
100
AcDbSpline
210
0.0
220
0.0
230
1.0
 70
    24
 71
     3
 72
     8
 73
     4
 74
     0
 42
0.0000000001
 43
0.0000000001
 40
0.0
 40
0.0
 40
0.0
 40
0.0
 40
1.0
 40
1.0
 40
1.0
 40
1.0
 10
840.0334796077
 20
972.5366751040881
 30
0.0
 10
832.5018118578469
 20
972.5366751040881
 30
0.0
 10
824.9697995984451
 20
972.5366751040881
 30
0.0
 10
817.4381318485919
 20
972.5366751040881
 30
0.0
  0
ENDBLK
  5
44B
330
448
100
AcDbEntity
  8
0
100
AcDbBlockEnd
  0
BLOCK
  5
44F
330
44D
100
AcDbEntity
  8
0
100
AcDbBlockBegin
  2
block 163
 70
     0
 71
     0
 10
0.0
 20
0.0
 30
0.0
  3
block 163
  1

  0
POLYLINE
  5
451
330
44D
100
AcDbEntity
  8
Predefinito
 62
     7
370
    70
100
AcDb2dPolyline
 66
     1
 10
0.0
 20
0.0
 30
0.0
  0
VERTEX
  5
452
330
451
100
AcDbEntity
  8
Predefinito
 62
     7
370
    70
100
AcDbVertex
100
AcDb2dVertex
 10
395.6657713854586
 20
972.5366751040881
 30
0.0
  0
VERTEX
  5
453
330
451
100
AcDbEntity
  8
Predefinito
 62
     7
370
    70
100
AcDbVertex
100
AcDb2dVertex
 10
395.6657713854586
 20
984.5366316983103
 30
0.0
  0
SEQEND
  5
454
330
451
100
AcDbEntity
  8
Predefinito
370
    70
  0
ENDBLK
  5
450
330
44D
100
AcDbEntity
  8
0
100
AcDbBlockEnd
  0
BLOCK
  5
457
330
455
100
AcDbEntity
  8
0
100
AcDbBlockBegin
  2
block 164
 70
     0
 71
     0
 10
0.0
 20
0.0
 30
0.0
  3
block 164
  1

  0
SPLINE
  5
459
330
455
100
AcDbEntity
  8
Predefinito
 62
     7
370
    70
100
AcDbSpline
210
0.0
220
0.0
230
1.0
 70
     8
 71
     3
 72
    17
 73
    13
 74
     0
 42
0.0000000001
 43
0.0000000001
 40
0.0
 40
0.0
 40
0.0
 40
0.0
 40
1.0
 40
1.0
 40
1.0
 40
2.0
 40
2.0
 40
2.0
 40
3.0
 40
3.0
 40
3.0
 40
4.0
 40
4.0
 40
4.0
 40
4.0
 10
-299.3677733626581
 20
956.6031084848076
 30
0.0
 10
-299.3677733626581
 20
955.4986108722366
 30
0.0
 10
-298.977271789405
 20
954.5556882379236
 30
0.0
 10
-298.1962686428989
 20
953.7746850914175
 30
0.0
 10
-297.4150932416185
 20
952.9933374353628
 30
0.0
 10
-296.4723428620799
 20
952.603008116884
 30
0.0
 10
-295.3678452495087
 20
952.603008116884
 30
0.0
 10
-294.2631753821634
 20
952.603008116884
 30
0.0
 10
-293.3204250026247
 20
952.9933374353628
 30
0.0
 10
-292.5394218561186
 20
953.7746850914175
 30
0.0
 10
-291.7582464548382
 20
954.5556882379236
 30
0.0
 10
-291.3677448815852
 20
955.4986108722366
 30
0.0
 10
-291.3677448815852
 20
956.6031084848076
 30
0.0
  0
ENDBLK
  5
458
330
455
100
AcDbEntity
  8
0
100
AcDbBlockEnd
  0
BLOCK
  5
45C
330
45A
100
AcDbEntity
  8
0
100
AcDbBlockBegin
  2
block 165
 70
     0
 71
     0
 10
0.0
 20
0.0
 30
0.0
  3
block 165
  1

  0
SPLINE
  5
45E
330
45A
100
AcDbEntity
  8
Predefinito
 62
     7
370
    70
100
AcDbSpline
210
0.0
220
0.0
230
1.0
 70
     8
 71
     3
 72
     8
 73
     4
 74
     0
 42
0.0000000001
 43
0.0000000001
 40
0.0
 40
0.0
 40
0.0
 40
0.0
 40
1.0
 40
1.0
 40
1.0
 40
1.0
 10
63.65296222367009
 20
949.4693492635008
 30
0.0
 10
63.93494328913779
 20
950.3557723318555
 30
0.0
 10
64.49167071955416
 20
950.7867537770603
 30
0.0
 10
65.32262775059642
 20
950.762982618212
 30
0.0
  0
ENDBLK
  5
45D
330
45A
100
AcDbEntity
  8
0
100
AcDbBlockEnd
  0
BLOCK
  5
461
330
45F
100
AcDbEntity
  8
0
100
AcDbBlockBegin
  2
block 166
 70
     0
 71
     0
 10
0.0
 20
0.0
 30
0.0
  3
block 166
  1

  0
SPLINE
  5
463
330
45F
100
AcDbEntity
  8
Predefinito
 62
     7
370
    70
100
AcDbSpline
210
0.0
220
0.0
230
1.0
 70
     8
 71
     3
 72
    17
 73
    13
 74
     0
 42
0.0000000001
 43
0.0000000001
 40
0.0
 40
0.0
 40
0.0
 40
0.0
 40
1.0
 40
1.0
 40
1.0
 40
2.0
 40
2.0
 40
2.0
 40
3.0
 40
3.0
 40
3.0
 40
4.0
 40
4.0
 40
4.0
 40
4.0
 10
-290.3991562859072
 20
950.0877439031032
 30
0.0
 10
-290.7019801790606
 20
950.6885685557306
 30
0.0
 10
-290.8814696538421
 20
950.9738224619093
 30
0.0
 10
-291.0897256759255
 20
951.237372266531
 30
0.0
 10
-291.3046996342051
 20
951.5091903003172
 30
0.0
 10
-291.5501626875292
 20
951.7572371752552
 30
0.0
 10
-291.8240477786065
 20
951.9694550571465
 30
0.0
 10
-292.1077513918168
 20
952.1892521491055
 30
0.0
 10
-292.4219441000716
 20
952.3701196620812
 30
0.0
 10
-292.7554293430438
 20
952.5024113287147
 30
0.0
 10
-293.0887423312417
 20
952.6350475048969
 30
0.0
 10
-293.4415201089313
 20
952.7187633251884
 30
0.0
 10
-294.2213174720176
 20
952.7707842670156
 30
0.0
  0
ENDBLK
  5
462
330
45F
100
AcDbEntity
  8
0
100
AcDbBlockEnd
  0
BLOCK
  5
466
330
464
100
AcDbEntity
  8
0
100
AcDbBlockBegin
  2
block 167
 70
     0
 71
     0
 10
0.0
 20
0.0
 30
0.0
  3
block 167
  1

  0
POLYLINE
  5
468
330
464
100
AcDbEntity
  8
Predefinito
 62
     7
370
    70
100
AcDb2dPolyline
 66
     1
 10
0.0
 20
0.0
 30
0.0
  0
VERTEX
  5
469
330
468
100
AcDbEntity
  8
Predefinito
 62
     7
370
    70
100
AcDbVertex
100
AcDb2dVertex
 10
86.07002629141653
 20
973.1791854120872
 30
0.0
  0
VERTEX
  5
46A
330
468
100
AcDbEntity
  8
Predefinito
 62
     7
370
    70
100
AcDbVertex
100
AcDb2dVertex
 10
86.07002629141653
 20
763.0941621356154
 30
0.0
  0
SEQEND
  5
46B
330
468
100
AcDbEntity
  8
Predefinito
370
    70
  0
ENDBLK
  5
467
330
464
100
AcDbEntity
  8
0
100
AcDbBlockEnd
  0
BLOCK
  5
46E
330
46C
100
AcDbEntity
  8
0
100
AcDbBlockBegin
  2
block 168
 70
     0
 71
     0
 10
0.0
 20
0.0
 30
0.0
  3
block 168
  1

  0
SPLINE
  5
470
330
46C
100
AcDbEntity
  8
Predefinito
 62
     7
370
    70
100
AcDbSpline
210
0.0
220
0.0
230
1.0
 70
     8
 71
     3
 72
     8
 73
     4
 74
     0
 42
0.0000000001
 43
0.0000000001
 40
0.0
 40
0.0
 40
0.0
 40
0.0
 40
1.0
 40
1.0
 40
1.0
 40
1.0
 10
-289.3676946976234
 20
956.6031084848076
 30
0.0
 10
-289.3678669523976
 20
958.3918020607493
 30
0.0
 10
-290.0344929287935
 20
959.8824948772169
 30
0.0
 10
-291.3677448815852
 20
961.0751869342104
 30
0.0
  0
ENDBLK
  5
46F
330
46C
100
AcDbEntity
  8
0
100
AcDbBlockEnd
  0
BLOCK
  5
473
330
471
100
AcDbEntity
  8
0
100
AcDbBlockBegin
  2
block 169
 70
     0
 71
     0
 10
0.0
 20
0.0
 30
0.0
  3
block 169
  1

  0
SPLINE
  5
475
330
471
100
AcDbEntity
  8
Predefinito
 62
     7
370
    70
100
AcDbSpline
210
0.0
220
0.0
230
1.0
 70
     8
 71
     3
 72
    23
 73
    19
 74
     0
 42
0.0000000001
 43
0.0000000001
 40
0.0
 40
0.0
 40
0.0
 40
0.0
 40
1.0
 40
1.0
 40
1.0
 40
2.0
 40
2.0
 40
2.0
 40
3.0
 40
3.0
 40
3.0
 40
4.0
 40
4.0
 40
4.0
 40
5.0
 40
5.0
 40
5.0
 40
6.0
 40
6.0
 40
6.0
 40
6.0
 10
-171.5626545795052
 20
823.0942896162751
 30
0.0
 10
-166.9830891509626
 20
821.6876571296476
 30
0.0
 10
-162.3440958252994
 20
820.4539684363796
 30
0.0
 10
-157.671512818655
 20
819.397702160602
 30
0.0
 10
-152.9618950355442
 20
818.3331676556598
 30
0.0
 10
-148.229022857908
 20
817.4488116445962
 30
0.0
 10
-143.4530869867062
 20
816.7391219746347
 30
0.0
 10
-141.0568508219407
 20
816.3828991014599
 30
0.0
 10
-138.6557915234958
 20
816.0714624695933
 30
0.0
 10
-136.2480142888547
 20
815.8044675694864
 30
0.0
 10
-133.8292127486608
 20
815.5360946311855
 30
0.0
 10
-131.4074828773044
 20
815.3128524437412
 30
0.0
 10
-128.9804131079459
 20
815.1343964976053
 30
0.0
 10
-126.5486924596823
 20
814.9555960419209
 30
0.0
 10
-124.1157660279988
 20
814.8219263370931
 30
0.0
 10
-121.6790499912816
 20
814.7326983640252
 30
0.0
 10
-119.2313096490116
 20
814.6431258814087
 30
0.0
 10
-116.7840860710644
 20
814.598684149649
 30
0.0
 10
-114.3346231810518
 20
814.5993731687461
 30
0.0
  0
ENDBLK
  5
474
330
471
100
AcDbEntity
  8
0
100
AcDbBlockEnd
  0
BLOCK
  5
478
330
476
100
AcDbEntity
  8
0
100
AcDbBlockBegin
  2
block 170
 70
     0
 71
     0
 10
0.0
 20
0.0
 30
0.0
  3
block 170
  1

  0
POLYLINE
  5
47A
330
476
100
AcDbEntity
  8
Predefinito
 62
     7
370
    70
100
AcDb2dPolyline
 66
     1
 10
0.0
 20
0.0
 30
0.0
  0
VERTEX
  5
47B
330
47A
100
AcDbEntity
  8
Predefinito
 62
     7
370
    70
100
AcDbVertex
100
AcDb2dVertex
 10
818.1033797867937
 20
972.5366751040881
 30
0.0
  0
VERTEX
  5
47C
330
47A
100
AcDbEntity
  8
Predefinito
 62
     7
370
    70
100
AcDbVertex
100
AcDb2dVertex
 10
818.1033797867937
 20
836.4519583412342
 30
0.0
  0
SEQEND
  5
47D
330
47A
100
AcDbEntity
  8
Predefinito
370
    70
  0
ENDBLK
  5
479
330
476
100
AcDbEntity
  8
0
100
AcDbBlockEnd
  0
BLOCK
  5
480
330
47E
100
AcDbEntity
  8
0
100
AcDbBlockBegin
  2
block 171
 70
     0
 71
     0
 10
0.0
 20
0.0
 30
0.0
  3
block 171
  1

  0
POLYLINE
  5
482
330
47E
100
AcDbEntity
  8
Predefinito
 62
     7
370
    70
100
AcDb2dPolyline
 66
     1
 10
0.0
 20
0.0
 30
0.0
  0
VERTEX
  5
483
330
482
100
AcDbEntity
  8
Predefinito
 62
     7
370
    70
100
AcDbVertex
100
AcDb2dVertex
 10
395.6657713854586
 20
836.4519583412342
 30
0.0
  0
VERTEX
  5
484
330
482
100
AcDbEntity
  8
Predefinito
 62
     7
370
    70
100
AcDbVertex
100
AcDb2dVertex
 10
395.6657713854586
 20
822.451779308276
 30
0.0
  0
SEQEND
  5
485
330
482
100
AcDbEntity
  8
Predefinito
370
    70
  0
ENDBLK
  5
481
330
47E
100
AcDbEntity
  8
0
100
AcDbBlockEnd
  0
BLOCK
  5
488
330
486
100
AcDbEntity
  8
0
100
AcDbBlockBegin
  2
block 172
 70
     0
 71
     0
 10
0.0
 20
0.0
 30
0.0
  3
block 172
  1

  0
SPLINE
  5
48A
330
486
100
AcDbEntity
  8
Predefinito
 62
     7
370
    70
100
AcDbSpline
210
0.0
220
0.0
230
1.0
 70
     8
 71
     3
 72
    17
 73
    13
 74
     0
 42
0.0000000001
 43
0.0000000001
 40
0.0
 40
0.0
 40
0.0
 40
0.0
 40
1.0
 40
1.0
 40
1.0
 40
2.0
 40
2.0
 40
2.0
 40
3.0
 40
3.0
 40
3.0
 40
4.0
 40
4.0
 40
4.0
 40
4.0
 10
-643.3040579988963
 20
1123.094238000476
 30
0.0
 10
-643.2852822285016
 20
1131.512673328233
 30
0.0
 10
-643.2852822285016
 20
1132.772544747189
 30
0.0
 10
-643.2227537454444
 20
1133.457085220108
 30
0.0
 10
-643.160225262387
 20
1134.141625693027
 30
0.0
 10
-643.0352544236596
 20
1134.25083521991
 30
0.0
 10
-642.910111330158
 20
1134.331622709039
 30
0.0
 10
-642.7849682366563
 20
1134.412410198168
 30
0.0
 10
-642.6596528883803
 20
1134.464947904318
 30
0.0
 10
-642.4060938606659
 20
1134.539706476348
 30
0.0
 10
-642.1525348329515
 20
1134.614465048378
 30
0.0
 10
-641.7706459984115
 20
1134.711444486288
 30
0.0
 10
-641.3733403615751
 20
1135.094194594699
 30
0.0
  0
ENDBLK
  5
489
330
486
100
AcDbEntity
  8
0
100
AcDbBlockEnd
  0
BLOCK
  5
48D
330
48B
100
AcDbEntity
  8
0
100
AcDbBlockBegin
  2
block 173
 70
     0
 71
     0
 10
0.0
 20
0.0
 30
0.0
  3
block 173
  1

  0
POLYLINE
  5
48F
330
48B
100
AcDbEntity
  8
Predefinito
 62
     7
370
    70
100
AcDb2dPolyline
 66
     1
 10
0.0
 20
0.0
 30
0.0
  0
VERTEX
  5
490
330
48F
100
AcDbEntity
  8
Predefinito
 62
     7
370
    70
100
AcDbVertex
100
AcDb2dVertex
 10
840.1034150460506
 20
822.451779308276
 30
0.0
  0
VERTEX
  5
491
330
48F
100
AcDbEntity
  8
Predefinito
 62
     7
370
    70
100
AcDbVertex
100
AcDb2dVertex
 10
840.1034150460506
 20
762.4516518276163
 30
0.0
  0
SEQEND
  5
492
330
48F
100
AcDbEntity
  8
Predefinito
370
    70
  0
ENDBLK
  5
48E
330
48B
100
AcDbEntity
  8
0
100
AcDbBlockEnd
  0
BLOCK
  5
495
330
493
100
AcDbEntity
  8
0
100
AcDbBlockBegin
  2
block 174
 70
     0
 71
     0
 10
0.0
 20
0.0
 30
0.0
  3
block 174
  1

  0
POLYLINE
  5
497
330
493
100
AcDbEntity
  8
Predefinito
 62
     7
370
    70
100
AcDb2dPolyline
 66
     1
 10
0.0
 20
0.0
 30
0.0
  0
VERTEX
  5
498
330
497
100
AcDbEntity
  8
Predefinito
 62
     7
370
    70
100
AcDbVertex
100
AcDb2dVertex
 10
395.6657713854586
 20
836.4519583412342
 30
0.0
  0
VERTEX
  5
499
330
497
100
AcDbEntity
  8
Predefinito
 62
     7
370
    70
100
AcDbVertex
100
AcDb2dVertex
 10
395.6657713854586
 20
822.451779308276
 30
0.0
  0
SEQEND
  5
49A
330
497
100
AcDbEntity
  8
Predefinito
370
    70
  0
ENDBLK
  5
496
330
493
100
AcDbEntity
  8
0
100
AcDbBlockEnd
  0
BLOCK
  5
49D
330
49B
100
AcDbEntity
  8
0
100
AcDbBlockBegin
  2
block 175
 70
     0
 71
     0
 10
0.0
 20
0.0
 30
0.0
  3
block 175
  1

  0
POLYLINE
  5
49F
330
49B
100
AcDbEntity
  8
Predefinito
 62
     7
370
    70
100
AcDb2dPolyline
 66
     1
 10
0.0
 20
0.0
 30
0.0
  0
VERTEX
  5
4A0
330
49F
100
AcDbEntity
  8
Predefinito
 62
     7
370
    70
100
AcDbVertex
100
AcDb2dVertex
 10
417.6658066447155
 20
762.4516518276163
 30
0.0
  0
VERTEX
  5
4A1
330
49F
100
AcDbEntity
  8
Predefinito
 62
     7
370
    70
100
AcDbVertex
100
AcDb2dVertex
 10
395.6657713854586
 20
762.4516518276163
 30
0.0
  0
SEQEND
  5
4A2
330
49F
100
AcDbEntity
  8
Predefinito
370
    70
  0
ENDBLK
  5
49E
330
49B
100
AcDbEntity
  8
0
100
AcDbBlockEnd
  0
BLOCK
  5
4A5
330
4A3
100
AcDbEntity
  8
0
100
AcDbBlockBegin
  2
block 176
 70
     0
 71
     0
 10
0.0
 20
0.0
 30
0.0
  3
block 176
  1

  0
POLYLINE
  5
4A7
330
4A3
100
AcDbEntity
  8
Predefinito
 62
     7
370
    70
100
AcDb2dPolyline
 66
     1
 10
0.0
 20
0.0
 30
0.0
  0
VERTEX
  5
4A8
330
4A7
100
AcDbEntity
  8
Predefinito
 62
     7
370
    70
100
AcDbVertex
100
AcDb2dVertex
 10
-336.3677543646928
 20
973.1791854120872
 30
0.0
  0
VERTEX
  5
4A9
330
4A7
100
AcDbEntity
  8
Predefinito
 62
     7
370
    70
100
AcDbVertex
100
AcDb2dVertex
 10
-336.3677543646928
 20
837.0941241396848
 30
0.0
  0
SEQEND
  5
4AA
330
4A7
100
AcDbEntity
  8
Predefinito
370
    70
  0
ENDBLK
  5
4A6
330
4A3
100
AcDbEntity
  8
0
100
AcDbBlockEnd
  0
BLOCK
  5
4AD
330
4AB
100
AcDbEntity
  8
0
100
AcDbBlockBegin
  2
block 177
 70
     0
 71
     0
 10
0.0
 20
0.0
 30
0.0
  3
block 177
  1

  0
SPLINE
  5
4AF
330
4AB
100
AcDbEntity
  8
Predefinito
 62
     7
370
    70
100
AcDbSpline
210
0.0
220
0.0
230
1.0
 70
     8
 71
     3
 72
   194
 73
   190
 74
     0
 42
0.0000000001
 43
0.0000000001
 40
0.0
 40
0.0
 40
0.0
 40
0.0
 40
1.0
 40
1.0
 40
1.0
 40
2.0
 40
2.0
 40
2.0
 40
3.0
 40
3.0
 40
3.0
 40
4.0
 40
4.0
 40
4.0
 40
5.0
 40
5.0
 40
5.0
 40
6.0
 40
6.0
 40
6.0
 40
7.0
 40
7.0
 40
7.0
 40
8.0
 40
8.0
 40
8.0
 40
9.0
 40
9.0
 40
9.0
 40
10.0
 40
10.0
 40
10.0
 40
11.0
 40
11.0
 40
11.0
 40
12.0
 40
12.0
 40
12.0
 40
13.0
 40
13.0
 40
13.0
 40
14.0
 40
14.0
 40
14.0
 40
15.0
 40
15.0
 40
15.0
 40
16.0
 40
16.0
 40
16.0
 40
17.0
 40
17.0
 40
17.0
 40
18.0
 40
18.0
 40
18.0
 40
19.0
 40
19.0
 40
19.0
 40
20.0
 40
20.0
 40
20.0
 40
21.0
 40
21.0
 40
21.0
 40
22.0
 40
22.0
 40
22.0
 40
23.0
 40
23.0
 40
23.0
 40
24.0
 40
24.0
 40
24.0
 40
25.0
 40
25.0
 40
25.0
 40
26.0
 40
26.0
 40
26.0
 40
27.0
 40
27.0
 40
27.0
 40
28.0
 40
28.0
 40
28.0
 40
29.0
 40
29.0
 40
29.0
 40
30.0
 40
30.0
 40
30.0
 40
31.0
 40
31.0
 40
31.0
 40
32.0
 40
32.0
 40
32.0
 40
33.0
 40
33.0
 40
33.0
 40
34.0
 40
34.0
 40
34.0
 40
35.0
 40
35.0
 40
35.0
 40
36.0
 40
36.0
 40
36.0
 40
37.0
 40
37.0
 40
37.0
 40
38.0
 40
38.0
 40
38.0
 40
39.0
 40
39.0
 40
39.0
 40
40.0
 40
40.0
 40
40.0
 40
41.0
 40
41.0
 40
41.0
 40
42.0
 40
42.0
 40
42.0
 40
43.0
 40
43.0
 40
43.0
 40
44.0
 40
44.0
 40
44.0
 40
45.0
 40
45.0
 40
45.0
 40
46.0
 40
46.0
 40
46.0
 40
47.0
 40
47.0
 40
47.0
 40
48.0
 40
48.0
 40
48.0
 40
49.0
 40
49.0
 40
49.0
 40
50.0
 40
50.0
 40
50.0
 40
51.0
 40
51.0
 40
51.0
 40
52.0
 40
52.0
 40
52.0
 40
53.0
 40
53.0
 40
53.0
 40
54.0
 40
54.0
 40
54.0
 40
55.0
 40
55.0
 40
55.0
 40
56.0
 40
56.0
 40
56.0
 40
57.0
 40
57.0
 40
57.0
 40
58.0
 40
58.0
 40
58.0
 40
59.0
 40
59.0
 40
59.0
 40
60.0
 40
60.0
 40
60.0
 40
61.0
 40
61.0
 40
61.0
 40
62.0
 40
62.0
 40
62.0
 40
63.0
 40
63.0
 40
63.0
 40
63.0
 10
365.43419722852
 20
1147.721675331559
 30
0.0
 10
366.6739148388871
 20
1148.345409869164
 30
0.0
 10
367.958074181014
 20
1148.932109630302
 30
0.0
 10
369.2732393825081
 20
1149.487459022524
 30
0.0
 10
370.6907239199141
 20
1150.08621661786
 30
0.0
 10
372.1443819599153
 20
1150.64914522015
 30
0.0
 10
373.623361451733
 20
1151.182446001267
 30
0.0
 10
375.2411782916064
 20
1151.76570066692
 30
0.0
 10
376.8889674622014
 20
1152.313987613397
 30
0.0
 10
378.5579439700307
 20
1152.834024776896
 30
0.0
 10
380.3652410615927
 20
1153.396953379186
 30
0.0
 10
382.1971705858743
 20
1153.926809064817
 30
0.0
 10
384.0463255875822
 20
1154.430137515212
 30
0.0
 10
386.0262219629553
 20
1154.969122703879
 30
0.0
 10
388.0259276373685
 20
1155.477791052276
 30
0.0
 10
390.0397582032713
 20
1155.961482458405
 30
0.0
 10
392.2189533524661
 20
1156.485136972163
 30
0.0
 10
394.4145127052158
 20
1156.979852683845
 30
0.0
 10
396.6217853826154
 20
1157.451830765325
 30
0.0
 10
399.0636690625605
 20
1157.973934986114
 30
0.0
 10
401.5196776339951
 20
1158.468478443022
 30
0.0
 10
403.9849879632399
 20
1158.942179072244
 30
0.0
 10
406.6721624417348
 20
1159.458254375934
 30
0.0
 10
409.3705334805567
 20
1159.949697246905
 30
0.0
 10
412.0770004937689
 20
1160.421847583159
 30
0.0
 10
415.1290105841518
 20
1160.95411483563
 30
0.0
 10
418.1911837062161
 20
1161.461921910155
 30
0.0
 10
421.2607637835737
 20
1161.95026419519
 30
0.0
 10
422.5771347684877
 20
1162.159726000693
 30
0.0
 10
423.8952283011442
 20
1162.365570455936
 30
0.0
 10
425.2143553624464
 20
1162.568142070469
 30
0.0
 10
427.2276691640265
 20
1162.87733939027
 30
0.0
 10
429.2440835515432
 20
1163.178957500004
 30
0.0
 10
431.262564996351
 20
1163.473513163993
 30
0.0
 10
437.3448810755596
 20
1164.36165878009
 30
0.0
 10
443.4483844920025
 20
1165.188309441776
 30
0.0
 10
449.5646347617408
 20
1165.972929938541
 30
0.0
 10
450.830018333473
 20
1166.135193935897
 30
0.0
 10
452.0960909243024
 20
1166.295735385509
 30
0.0
 10
453.3625080246802
 20
1166.45455428738
 30
0.0
 10
461.6725950994256
 20
1167.496867926442
 30
0.0
 10
470.0045585305024
 20
1168.465801031668
 30
0.0
 10
478.3518526364884
 20
1169.375306239774
 30
0.0
 10
487.322192260982
 20
1170.35267982894
 30
0.0
 10
496.3101018724503
 20
1171.261496017949
 30
0.0
 10
505.3105860824397
 20
1172.115190679194
 30
0.0
 10
515.097757846486
 20
1173.04329940292
 30
0.0
 10
524.8997435211188
 20
1173.906295821975
 30
0.0
 10
534.712408991756
 20
1174.714515222814
 30
0.0
 10
544.8652776415615
 20
1175.550984406633
 30
0.0
 10
555.0296873612426
 20
1176.328542457654
 30
0.0
 10
565.2037433482824
 20
1177.049600942717
 30
0.0
 10
575.4339543917318
 20
1177.774449032813
 30
0.0
 10
585.6736394477656
 20
1178.442453047403
 30
0.0
 10
595.9215927329641
 20
1179.053268476938
 30
0.0
 10
606.1857379669432
 20
1179.665289689893
 30
0.0
 10
616.4581514300869
 20
1180.220294572566
 30
0.0
 10
626.7371105746525
 20
1180.716905086765
 30
0.0
 10
636.7092839662567
 20
1181.198873945152
 30
0.0
 10
646.6876585297343
 20
1181.625893530548
 30
0.0
 10
656.6712007364399
 20
1181.996069040438
 30
0.0
 10
666.6404457968816
 20
1182.365727786006
 30
0.0
 10
676.6148585005511
 20
1182.678714710841
 30
0.0
 10
686.5928885544803
 20
1182.931412464684
 30
0.0
 10
696.3733423823303
 20
1183.179114830073
 30
0.0
 10
706.1574135604399
 20
1183.368939591311
 30
0.0
 10
715.9433795410663
 20
1183.497613907685
 30
0.0
 10
725.5297022383224
 20
1183.623532147671
 30
0.0
 10
735.1179197380956
 20
1183.690883764407
 30
0.0
 10
744.7059649830944
 20
1183.693467586021
 30
0.0
 10
754.305034533646
 20
1183.696051407635
 30
0.0
 10
763.9039318294234
 20
1183.633867434126
 30
0.0
 10
773.5011065774581
 20
1183.512255563497
 30
0.0
 10
783.5409760953474
 20
1183.385131540091
 30
0.0
 10
793.5789508107199
 20
1183.193239721563
 30
0.0
 10
803.6131359210585
 20
1182.942092260688
 30
0.0
 10
813.8736638047782
 20
1182.685432647037
 30
0.0
 10
824.1302298286897
 20
1182.366933569426
 30
0.0
 10
834.3818004641477
 20
1181.991418161533
 30
0.0
 10
844.8519624081447
 20
1181.607806779251
 30
0.0
 10
855.3167844541396
 20
1181.164595245074
 30
0.0
 10
865.7748885639382
 20
1180.665056399712
 30
0.0
 10
876.4474498676938
 20
1180.15535452267
 30
0.0
 10
887.1131209804787
 20
1179.586741512829
 30
0.0
 10
897.7705238640991
 20
1178.961628937031
 30
0.0
 10
908.4392955628208
 20
1178.335999596909
 30
0.0
 10
919.1001435419264
 20
1177.653526181281
 30
0.0
 10
929.751172998899
 20
1176.914208690147
 30
0.0
 10
940.4314857674964
 20
1176.172824141721
 30
0.0
 10
951.1023245235092
 20
1175.37425100824
 30
0.0
 10
961.7617944644207
 20
1174.516422232413
 30
0.0
 10
971.9968286415494
 20
1173.692699901889
 30
0.0
 10
982.2211830226739
 20
1172.814200553151
 30
0.0
 10
992.4310680027603
 20
1171.868866351998
 30
0.0
 10
1001.515095778267
 20
1171.0275740345
 30
0.0
 10
1010.587410229124
 20
1170.133571756078
 30
0.0
 10
1019.642154693006
 20
1169.17066756795
 30
0.0
 10
1023.917173680653
 20
1168.716259473446
 30
0.0
 10
1028.188403063265
 20
1168.246348449258
 30
0.0
 10
1032.455153821747
 20
1167.760245476289
 30
0.0
 10
1036.539314519511
 20
1167.294813076232
 30
0.0
 10
1040.619341102692
 20
1166.81422225604
 30
0.0
 10
1044.694200042646
 20
1166.314511155904
 30
0.0
 10
1048.387342402834
 20
1165.861481099594
 30
0.0
 10
1052.076350648439
 20
1165.392775858825
 30
0.0
 10
1055.759157722171
 20
1164.904605828566
 30
0.0
 10
1059.211143398392
 20
1164.447097148124
 30
0.0
 10
1062.657616921836
 20
1163.972535245031
 30
0.0
 10
1066.097200254309
 20
1163.477302769027
 30
0.0
 10
1069.318020023469
 20
1163.013592916712
 30
0.0
 10
1072.532294111207
 20
1162.531451803551
 30
0.0
 10
1075.738299969781
 20
1162.027089824511
 30
0.0
 10
1078.697981501159
 20
1161.561485169679
 30
0.0
 10
1081.650428332018
 20
1161.076760234904
 30
0.0
 10
1084.59288438597
 20
1160.567919631733
 30
0.0
 10
1087.265589463427
 20
1160.105587817613
 30
0.0
 10
1089.930026311719
 20
1159.623274449678
 30
0.0
 10
1092.582749835361
 20
1159.1158118847
 30
0.0
 10
1095.004307451943
 20
1158.652446541934
 30
0.0
 10
1097.415874291618
 20
1158.168238371482
 30
0.0
 10
1099.813660749352
 20
1157.655780418051
 30
0.0
 10
1101.986826981448
 20
1157.19138154664
 30
0.0
 10
1104.148968907991
 20
1156.703556025928
 30
0.0
 10
1106.293885357107
 20
1156.186791703141
 30
0.0
 10
1108.286184076227
 20
1155.706717647271
 30
0.0
 10
1110.264013394309
 20
1155.201494394359
 30
0.0
 10
1111.86598279495
 20
1154.768790401412
 30
0.0
 10
1113.361843254646
 20
1154.364852955767
 30
0.0
 10
1114.530075133694
 20
1154.02430526705
 30
0.0
 10
1115.985972485761
 20
1153.586778140423
 30
0.0
 10
1119.709776195767
 20
1152.467811126814
 30
0.0
 10
1125.31460204072
 20
1150.715291053467
 30
0.0
 10
1129.964102907613
 20
1149.014791921948
 30
0.0
 10
1135.551358765591
 20
1146.971505789646
 30
0.0
 10
1139.758853881727
 20
1145.003667248471
 30
0.0
 10
1142.013324367274
 20
1142.607947848029
 30
0.0
 10
1142.503216945277
 20
1142.087566174982
 30
0.0
 10
1142.901125473823
 20
1141.546858438572
 30
0.0
 10
1143.250458156028
 20
1140.856805812876
 30
0.0
 10
1143.588422023131
 20
1140.189318562609
 30
0.0
 10
1143.881255139377
 20
1139.381960435641
 30
0.0
 10
1144.095540078559
 20
1138.566161824733
 30
0.0
 10
1144.201993529054
 20
1138.16067408612
 30
0.0
 10
1144.289154444831
 20
1137.753119290214
 30
0.0
 10
1144.345998520337
 20
1137.442716186993
 30
0.0
 10
1144.404565143587
 20
1137.122666816414
 30
0.0
 10
1144.431092378823
 20
1136.905970310392
 30
0.0
 10
1144.463820785933
 20
1136.706499281796
 30
0.0
 10
1144.585432656562
 20
1135.963047676079
 30
0.0
 10
1144.791793876128
 20
1135.460063735232
 30
0.0
 10
1144.931320243281
 20
1135.17222600744
 30
0.0
 10
1144.94096651064
 20
1135.152761217948
 30
0.0
 10
1144.949923758901
 20
1135.134157702328
 30
0.0
 10
1144.992987452467
 20
1135.074213040884
 30
0.0
 10
1145.030538993256
 20
1135.021847589509
 30
0.0
 10
1145.093584240636
 20
1134.937787259668
 30
0.0
 10
1145.169376341312
 20
1134.858550063508
 30
0.0
 10
1145.264805486253
 20
1134.758297784887
 30
0.0
 10
1145.381594223203
 20
1134.665624716334
 30
0.0
 10
1145.521809609453
 20
1134.590521634755
 30
0.0
 10
1145.586921914124
 20
1134.555726170354
 30
0.0
 10
1145.656857352475
 20
1134.524720310987
 30
0.0
 10
1145.730926905408
 20
1134.498365330525
 30
0.0
 10
1145.768133936648
 20
1134.485101712906
 30
0.0
 10
1145.806374496535
 20
1134.473043878708
 30
0.0
 10
1145.845648585066
 20
1134.462019573155
 30
0.0
 10
1145.885267183147
 20
1134.450650758054
 30
0.0
 10
1145.925919309873
 20
1134.440659981147
 30
0.0
 10
1145.966915946147
 20
1134.431702732885
 30
0.0
 10
1146.017903359329
 20
1134.420678427332
 30
0.0
 10
1146.069235282059
 20
1134.411548924297
 30
0.0
 10
1146.121256223886
 20
1134.40362520468
 30
0.0
 10
1146.213584782891
 20
1134.389500313191
 30
0.0
 10
1146.306946870541
 20
1134.379337281509
 30
0.0
 10
1146.383772499863
 20
1134.368657485505
 30
0.0
 10
1146.416500906972
 20
1134.364178861374
 30
0.0
 10
1146.446128728145
 20
1134.359527982469
 30
0.0
 10
1146.482302230741
 20
1134.352810046273
 30
0.0
 10
1146.612871349632
 20
1134.328349868328
 30
0.0
 10
1146.829567855654
 20
1134.276501181275
 30
0.0
 10
1146.925686019692
 20
1134.15023843174
 30
0.0
 10
1146.970472261
 20
1134.091499553717
 30
0.0
 10
1146.989075776621
 20
1134.016568726913
 30
0.0
 10
1146.99872204398
 20
1133.971093466507
 30
0.0
 10
1147.006990273144
 20
1133.931130358878
 30
0.0
 10
1147.008368311338
 20
1133.913560371904
 30
0.0
 10
1147.010090859081
 20
1133.896334894477
 30
0.0
 10
1147.033517508381
 20
1133.612803536041
 30
0.0
 10
1147.033517508381
 20
1133.398346342085
 30
0.0
 10
1147.021459674182
 20
1122.019368209078
 30
0.0
  0
ENDBLK
  5
4AE
330
4AB
100
AcDbEntity
  8
0
100
AcDbBlockEnd
  0
BLOCK
  5
4B2
330
4B0
100
AcDbEntity
  8
0
100
AcDbBlockBegin
  2
block 178
 70
     0
 71
     0
 10
0.0
 20
0.0
 30
0.0
  3
block 178
  1

  0
SPLINE
  5
4B4
330
4B0
100
AcDbEntity
  8
Predefinito
 62
     7
370
    70
100
AcDbSpline
210
0.0
220
0.0
230
1.0
 70
     8
 71
     3
 72
    77
 73
    73
 74
     0
 42
0.0000000001
 43
0.0000000001
 40
0.0
 40
0.0
 40
0.0
 40
0.0
 40
1.0
 40
1.0
 40
1.0
 40
2.0
 40
2.0
 40
2.0
 40
3.0
 40
3.0
 40
3.0
 40
4.0
 40
4.0
 40
4.0
 40
5.0
 40
5.0
 40
5.0
 40
6.0
 40
6.0
 40
6.0
 40
7.0
 40
7.0
 40
7.0
 40
8.0
 40
8.0
 40
8.0
 40
9.0
 40
9.0
 40
9.0
 40
10.0
 40
10.0
 40
10.0
 40
11.0
 40
11.0
 40
11.0
 40
12.0
 40
12.0
 40
12.0
 40
13.0
 40
13.0
 40
13.0
 40
14.0
 40
14.0
 40
14.0
 40
15.0
 40
15.0
 40
15.0
 40
16.0
 40
16.0
 40
16.0
 40
17.0
 40
17.0
 40
17.0
 40
18.0
 40
18.0
 40
18.0
 40
19.0
 40
19.0
 40
19.0
 40
20.0
 40
20.0
 40
20.0
 40
21.0
 40
21.0
 40
21.0
 40
22.0
 40
22.0
 40
22.0
 40
23.0
 40
23.0
 40
23.0
 40
24.0
 40
24.0
 40
24.0
 40
24.0
 10
63.04817571123449
 20
956.8766490663364
 30
0.0
 10
62.95998126681209
 20
956.5035452252839
 30
0.0
 10
62.8754041726492
 20
956.1297523651343
 30
0.0
 10
62.79375540964879
 20
955.7549259763391
 30
0.0
 10
62.71210664664837
 20
955.3804440970924
 30
0.0
 10
62.63373072435893
 20
955.0052731987487
 30
0.0
 10
62.55793862368343
 20
954.629413281308
 30
0.0
 10
62.48249103255646
 20
954.2549314020613
 30
0.0
 10
62.40962726304343
 20
953.8801050132661
 30
0.0
 10
62.33883055082155
 20
953.5049341149224
 30
0.0
 10
62.2678615838254
 20
953.1290741974817
 30
0.0
 10
62.19913192889467
 20
952.7528697704923
 30
0.0
 10
62.13160805738377
 20
952.3763208339545
 30
0.0
 10
61.99673256913623
 20
951.6242564895246
 30
0.0
 10
61.8673692336651
 20
950.8715031259975
 30
0.0
 10
61.73680011477413
 20
950.1190942720189
 30
0.0
 10
61.67117104578013
 20
949.741167297287
 30
0.0
 10
61.60519746723759
 20
949.3635848321036
 30
0.0
 10
61.53784585050096
 20
948.9860023669202
 30
0.0
 10
61.46997746944154
 20
948.6042857871545
 30
0.0
 10
61.40055879541375
 20
948.2229137169373
 30
0.0
 10
61.32976208319187
 20
947.8418861562687
 30
0.0
 10
61.04640297953007
 20
946.3167423849486
 30
0.0
 10
60.74030624566562
 20
944.7967662568564
 30
0.0
 10
60.41112737205
 20
943.2809242433465
 30
0.0
 10
60.08194849843438
 20
941.764737720288
 30
0.0
 10
59.73003199461611
 20
940.254752369103
 30
0.0
 10
59.35520560582092
 20
938.7492456420489
 30
0.0
 10
58.97951794315443
 20
937.2402938195094
 30
0.0
 10
58.58109265028529
 20
935.737887678392
 30
0.0
 10
58.16010198198776
 20
934.2409936900509
 30
0.0
 10
57.73893905891596
 20
932.7440997017098
 30
0.0
 10
57.29538301519005
 20
931.2540959043394
 30
0.0
 10
56.82926159603574
 20
929.7706377883907
 30
0.0
 10
56.36296792210717
 20
928.2871796724421
 30
0.0
 10
55.87479789184727
 20
926.8113007665611
 30
0.0
 10
55.36406248615899
 20
925.3426565611991
 30
0.0
 10
54.8533270804707
 20
923.8740123558371
 30
0.0
 10
54.32088757322533
 20
922.4136363796397
 30
0.0
 10
53.76622720010011
 20
920.9608396135098
 30
0.0
 10
52.64657116739392
 20
918.0283743364652
 30
0.0
 10
51.44078774755647
 20
915.1362166765979
 30
0.0
 10
50.14577635465105
 20
912.2767874238406
 30
0.0
 10
49.49861516774688
 20
910.8477618165589
 30
0.0
 10
48.83026664360841
 20
909.4294160052816
 30
0.0
 10
48.14021401791287
 20
908.0203719518144
 30
0.0
 10
47.45033364699159
 20
906.6116724078958
 30
0.0
 10
46.73961044838455
 20
905.2139971695299
 30
0.0
 10
46.00769991254322
 20
903.8263127080712
 30
0.0
 10
45.27217202644238
 20
902.4317380556421
 30
0.0
 10
44.51597356743004
 20
901.0488767278629
 30
0.0
 10
43.73876002595767
 20
899.6770397056364
 30
0.0
 10
42.96154648448531
 20
898.3052026834099
 30
0.0
 10
42.16417913442424
 20
896.9457680049303
 30
0.0
 10
41.34631346622592
 20
895.597702141552
 30
0.0
 10
40.52844779802761
 20
894.2496362781737
 30
0.0
 10
39.69094508556338
 20
892.9146617776395
 30
0.0
 10
38.83328856451043
 20
891.5917451113035
 30
0.0
 10
37.97563204345748
 20
890.268483935419
 30
0.0
 10
37.0988552424614
 20
888.9590031414756
 30
0.0
 10
36.20244139719939
 20
887.661924691279
 30
0.0
 10
32.60128308646774
 20
882.4512177698386
 30
0.0
 10
28.6914442202577
 20
877.4565183353234
 30
0.0
 10
24.50530869613062
 20
872.7033200943242
 30
0.0
 10
20.31745062426092
 20
867.9483993055824
 30
0.0
 10
15.85536295176533
 20
863.4380802962933
 30
0.0
 10
11.1528076143993
 20
859.1920001107229
 30
0.0
 10
6.459554034843445
 20
854.9545326638656
 30
0.0
 10
1.52772759293404
 20
850.9809595311784
 30
0.0
 10
-3.60494791576543
 20
847.2888506996362
 30
0.0
 10
-8.721775985232751
 20
843.6077661736467
 30
0.0
 10
-14.03755831897325
 20
840.2064234010595
 30
0.0
 10
-19.51836072645722
 20
837.0941241396848
 30
0.0
  0
ENDBLK
  5
4B3
330
4B0
100
AcDbEntity
  8
0
100
AcDbBlockEnd
  0
BLOCK
  5
4B7
330
4B5
100
AcDbEntity
  8
0
100
AcDbBlockBegin
  2
block 179
 70
     0
 71
     0
 10
0.0
 20
0.0
 30
0.0
  3
block 179
  1

  0
SPLINE
  5
4B9
330
4B5
100
AcDbEntity
  8
Predefinito
 62
     7
370
    70
100
AcDbSpline
210
0.0
220
0.0
230
1.0
 70
    24
 71
     3
 72
     8
 73
     4
 74
     0
 42
0.0000000001
 43
0.0000000001
 40
0.0
 40
0.0
 40
0.0
 40
0.0
 40
1.0
 40
1.0
 40
1.0
 40
1.0
 10
108.0698892958992
 20
985.1791420063095
 30
0.0
 10
108.2683267958496
 20
985.1791420063095
 30
0.0
 10
108.4669365505742
 20
985.1791420063095
 30
0.0
 10
108.6653740505246
 20
985.1791420063095
 30
0.0
  0
ENDBLK
  5
4B8
330
4B5
100
AcDbEntity
  8
0
100
AcDbBlockEnd
  0
BLOCK
  5
4BC
330
4BA
100
AcDbEntity
  8
0
100
AcDbBlockBegin
  2
block 180
 70
     0
 71
     0
 10
0.0
 20
0.0
 30
0.0
  3
block 180
  1

  0
SPLINE
  5
4BE
330
4BA
100
AcDbEntity
  8
Predefinito
 62
     7
370
    70
100
AcDbSpline
210
0.0
220
0.0
230
1.0
 70
     8
 71
     3
 72
    65
 73
    61
 74
     0
 42
0.0000000001
 43
0.0000000001
 40
0.0
 40
0.0
 40
0.0
 40
0.0
 40
1.0
 40
1.0
 40
1.0
 40
2.0
 40
2.0
 40
2.0
 40
3.0
 40
3.0
 40
3.0
 40
4.0
 40
4.0
 40
4.0
 40
5.0
 40
5.0
 40
5.0
 40
6.0
 40
6.0
 40
6.0
 40
7.0
 40
7.0
 40
7.0
 40
8.0
 40
8.0
 40
8.0
 40
9.0
 40
9.0
 40
9.0
 40
10.0
 40
10.0
 40
10.0
 40
11.0
 40
11.0
 40
11.0
 40
12.0
 40
12.0
 40
12.0
 40
13.0
 40
13.0
 40
13.0
 40
14.0
 40
14.0
 40
14.0
 40
15.0
 40
15.0
 40
15.0
 40
16.0
 40
16.0
 40
16.0
 40
17.0
 40
17.0
 40
17.0
 40
18.0
 40
18.0
 40
18.0
 40
19.0
 40
19.0
 40
19.0
 40
20.0
 40
20.0
 40
20.0
 40
20.0
 10
-289.3837143916298
 20
956.8549449647794
 30
0.0
 10
-288.9751260670791
 20
953.6361922529104
 30
0.0
 10
-288.4652519352622
 20
950.4384546235016
 30
0.0
 10
-287.8521971936619
 20
947.2524303187425
 30
0.0
 10
-287.2389701972875
 20
944.0650279757893
 30
0.0
 10
-286.5258354318408
 20
940.9051863967181
 30
0.0
 10
-285.7103813304822
 20
937.7636038237189
 30
0.0
 10
-284.9030232035138
 20
934.6530271100868
 30
0.0
 10
-283.9995469125071
 20
931.5762123322102
 30
0.0
 10
-282.9973686358479
 20
928.5228242036333
 30
0.0
 10
-282.4964517522926
 20
926.9973359227646
 30
0.0
 10
-281.971763709889
 20
925.4801158710605
 30
0.0
 10
-281.4229599990887
 20
923.9708195389726
 30
0.0
 10
-280.8743285430627
 20
922.4618677164332
 30
0.0
 10
-280.3020981829627
 20
920.9622176517039
 30
0.0
 10
-279.7062689187887
 20
919.4711803256878
 30
0.0
 10
-278.5264959698649
 20
916.5190780043772
 30
0.0
 10
-277.2581840669702
 20
913.6103838861808
 30
0.0
 10
-275.8978881146193
 20
910.7368297419339
 30
0.0
 10
-274.5377644170426
 20
907.8636201072355
 30
0.0
 10
-273.0922023514318
 20
905.0389863188792
 30
0.0
 10
-271.5579290770758
 20
902.2550046572488
 30
0.0
 10
-270.03295756053
 20
899.4882484730447
 30
0.0
 10
-268.4273708096293
 20
896.7742022497648
 30
0.0
 10
-266.7375514741142
 20
894.1049422677933
 30
0.0
 10
-265.892814061131
 20
892.770656786356
 30
0.0
 10
-265.0286118586561
 20
891.4498071773112
 30
0.0
 10
-264.1440835928182
 20
890.1417044215618
 30
0.0
 10
-263.2597275817545
 20
888.8332571562639
 30
0.0
 10
-262.3560790359735
 20
887.5392792920042
 30
0.0
 10
-261.4327934459266
 20
886.2580482810397
 30
0.0
 10
-260.5126084418163
 20
884.9809513846576
 30
0.0
 10
-259.5738199220857
 20
883.717979379765
 30
0.0
 10
-258.6160833771863
 20
882.4687877568134
 30
0.0
 10
-257.6585190870611
 20
881.2195961338618
 30
0.0
 10
-256.6830403004126
 20
879.9852184214968
 30
0.0
 10
-255.6887857433695
 20
878.7649656006213
 30
0.0
 10
-254.6947034411006
 20
877.5443682701973
 30
0.0
 10
-253.6832234066313
 20
876.3392738694569
 30
0.0
 10
-252.6536566208644
 20
875.1486488697545
 30
0.0
 10
-251.6240898350975
 20
873.9576793605037
 30
0.0
 10
-250.5778143362271
 20
872.782557290485
 30
0.0
 10
-249.5139688503819
 20
871.6222491310529
 30
0.0
 10
-247.3926513053393
 20
869.307833984062
 30
0.0
 10
-245.2088052772395
 20
867.0595646703879
 30
0.0
 10
-242.9581243967258
 20
864.8708955086087
 30
0.0
 10
-241.8333007207917
 20
863.7770776920419
 30
0.0
 10
-240.6934908794968
 20
862.7001408433528
 30
0.0
 10
-239.538005853744
 20
861.6387069243473
 30
0.0
 10
-238.3826930827655
 20
860.5772730053418
 30
0.0
 10
-237.2129109107489
 20
859.5327200542141
 30
0.0
 10
-236.0281425733714
 20
858.5047035614156
 30
0.0
 10
-233.653610510163
 20
856.4435029325906
 30
0.0
 10
-231.2260239764817
 20
854.4536157803102
 30
0.0
 10
-228.7402153290997
 20
852.5284964231527
 30
0.0
 10
-226.2549234460404
 20
850.6037215755435
 30
0.0
 10
-223.7208834618649
 20
848.7509492235762
 30
0.0
 10
-221.1334444976681
 20
846.9657007431197
 30
0.0
 10
-215.9456474612046
 20
843.3855575148481
 30
0.0
 10
-210.5697482112465
 20
840.095146816886
 30
0.0
 10
-205.0271063398023
 20
837.0941241396848
 30
0.0
  0
ENDBLK
  5
4BD
330
4BA
100
AcDbEntity
  8
0
100
AcDbBlockEnd
  0
BLOCK
  5
4C1
330
4BF
100
AcDbEntity
  8
0
100
AcDbBlockBegin
  2
block 181
 70
     0
 71
     0
 10
0.0
 20
0.0
 30
0.0
  3
block 181
  1

  0
POLYLINE
  5
4C3
330
4BF
100
AcDbEntity
  8
Predefinito
 62
     7
370
    70
100
AcDb2dPolyline
 66
     1
 10
0.0
 20
0.0
 30
0.0
  0
VERTEX
  5
4C4
330
4C3
100
AcDbEntity
  8
Predefinito
 62
     7
370
    70
100
AcDbVertex
100
AcDb2dVertex
 10
-336.3677543646928
 20
823.0942896162751
 30
0.0
  0
VERTEX
  5
4C5
330
4C3
100
AcDbEntity
  8
Predefinito
 62
     7
370
    70
100
AcDbVertex
100
AcDb2dVertex
 10
-336.3677543646928
 20
763.0941621356154
 30
0.0
  0
SEQEND
  5
4C6
330
4C3
100
AcDbEntity
  8
Predefinito
370
    70
  0
ENDBLK
  5
4C2
330
4BF
100
AcDbEntity
  8
0
100
AcDbBlockEnd
  0
BLOCK
  5
4C9
330
4C7
100
AcDbEntity
  8
0
100
AcDbBlockBegin
  2
block 182
 70
     0
 71
     0
 10
0.0
 20
0.0
 30
0.0
  3
block 182
  1

  0
POLYLINE
  5
4CB
330
4C7
100
AcDbEntity
  8
Predefinito
 62
     7
370
    70
100
AcDb2dPolyline
 66
     1
 10
0.0
 20
0.0
 30
0.0
  0
VERTEX
  5
4CC
330
4CB
100
AcDbEntity
  8
Predefinito
 62
     7
370
    70
100
AcDbVertex
100
AcDb2dVertex
 10
-289.6388237123126
 20
945.9670651931958
 30
0.0
  0
VERTEX
  5
4CD
330
4CB
100
AcDbEntity
  8
Predefinito
 62
     7
370
    70
100
AcDbVertex
100
AcDb2dVertex
 10
-291.5832356041876
 20
945.4912975066828
 30
0.0
  0
SEQEND
  5
4CE
330
4CB
100
AcDbEntity
  8
Predefinito
370
    70
  0
ENDBLK
  5
4CA
330
4C7
100
AcDbEntity
  8
0
100
AcDbBlockEnd
  0
BLOCK
  5
4D1
330
4CF
100
AcDbEntity
  8
0
100
AcDbBlockBegin
  2
block 183
 70
     0
 71
     0
 10
0.0
 20
0.0
 30
0.0
  3
block 183
  1

  0
SPLINE
  5
4D3
330
4CF
100
AcDbEntity
  8
Predefinito
 62
     7
370
    70
100
AcDbSpline
210
0.0
220
0.0
230
1.0
 70
     8
 71
     3
 72
     8
 73
     4
 74
     0
 42
0.0000000001
 43
0.0000000001
 40
0.0
 40
0.0
 40
0.0
 40
0.0
 40
1.0
 40
1.0
 40
1.0
 40
1.0
 10
-299.3677733626581
 20
961.0751869342104
 30
0.0
 10
-300.701197570224
 20
959.8824948772169
 30
0.0
 10
-301.3678235466199
 20
958.3918020607493
 30
0.0
 10
-301.3678235466199
 20
956.6031084848076
 30
0.0
  0
ENDBLK
  5
4D2
330
4CF
100
AcDbEntity
  8
0
100
AcDbBlockEnd
  0
BLOCK
  5
4D6
330
4D4
100
AcDbEntity
  8
0
100
AcDbBlockBegin
  2
block 184
 70
     0
 71
     0
 10
0.0
 20
0.0
 30
0.0
  3
block 184
  1

  0
POLYLINE
  5
4D8
330
4D4
100
AcDbEntity
  8
Predefinito
 62
     7
370
    70
100
AcDb2dPolyline
 66
     1
 10
0.0
 20
0.0
 30
0.0
  0
VERTEX
  5
4D9
330
4D8
100
AcDbEntity
  8
Predefinito
 62
     7
370
    70
100
AcDbVertex
100
AcDb2dVertex
 10
395.6657713854586
 20
972.5366751040881
 30
0.0
  0
VERTEX
  5
4DA
330
4D8
100
AcDbEntity
  8
Predefinito
 62
     7
370
    70
100
AcDbVertex
100
AcDb2dVertex
 10
395.6657713854586
 20
984.5366316983103
 30
0.0
  0
SEQEND
  5
4DB
330
4D8
100
AcDbEntity
  8
Predefinito
370
    70
  0
ENDBLK
  5
4D7
330
4D4
100
AcDbEntity
  8
0
100
AcDbBlockEnd
  0
BLOCK
  5
4DE
330
4DC
100
AcDbEntity
  8
0
100
AcDbBlockBegin
  2
block 185
 70
     0
 71
     0
 10
0.0
 20
0.0
 30
0.0
  3
block 185
  1

  0
SPLINE
  5
4E0
330
4DC
100
AcDbEntity
  8
Predefinito
 62
     7
370
    70
100
AcDbSpline
210
0.0
220
0.0
230
1.0
 70
    24
 71
     3
 72
     8
 73
     4
 74
     0
 42
0.0000000001
 43
0.0000000001
 40
0.0
 40
0.0
 40
0.0
 40
0.0
 40
1.0
 40
1.0
 40
1.0
 40
1.0
 10
-335.702506426491
 20
985.1791420063095
 30
0.0
 10
-195.1116047689304
 20
985.1791420063095
 30
0.0
 10
-54.52087536614409
 20
985.1791420063095
 30
0.0
 10
86.07002629141653
 20
985.1791420063095
 30
0.0
  0
ENDBLK
  5
4DF
330
4DC
100
AcDbEntity
  8
0
100
AcDbBlockEnd
  0
BLOCK
  5
4E3
330
4E1
100
AcDbEntity
  8
0
100
AcDbBlockBegin
  2
block 186
 70
     0
 71
     0
 10
0.0
 20
0.0
 30
0.0
  3
block 186
  1

  0
SPLINE
  5
4E5
330
4E1
100
AcDbEntity
  8
Predefinito
 62
     7
370
    70
100
AcDbSpline
210
0.0
220
0.0
230
1.0
 70
     8
 71
     3
 72
    17
 73
    13
 74
     0
 42
0.0000000001
 43
0.0000000001
 40
0.0
 40
0.0
 40
0.0
 40
0.0
 40
1.0
 40
1.0
 40
1.0
 40
2.0
 40
2.0
 40
2.0
 40
3.0
 40
3.0
 40
3.0
 40
4.0
 40
4.0
 40
4.0
 40
4.0
 10
395.6657713854586
 20
972.5366751040881
 30
0.0
 10
387.894324989832
 20
972.5366751040881
 30
0.0
 10
380.1227063394311
 20
972.5366751040881
 30
0.0
 10
372.3512599438046
 20
972.5366751040881
 30
0.0
 10
370.684695002815
 20
974.8700382762478
 30
0.0
 10
369.0179578070511
 20
977.2034014484075
 30
0.0
 10
367.3512206112872
 20
979.5364201110187
 30
0.0
 10
367.3512206112872
 20
981.2031573067826
 30
0.0
 10
367.3512206112872
 20
982.8698945025465
 30
0.0
 10
367.3512206112872
 20
984.5366316983103
 30
0.0
 10
376.7894042026776
 20
984.5366316983103
 30
0.0
 10
386.2275877940681
 20
984.5366316983103
 30
0.0
 10
395.6657713854586
 20
984.5366316983103
 30
0.0
  0
ENDBLK
  5
4E4
330
4E1
100
AcDbEntity
  8
0
100
AcDbBlockEnd
  0
BLOCK
  5
4E8
330
4E6
100
AcDbEntity
  8
0
100
AcDbBlockBegin
  2
block 187
 70
     0
 71
     0
 10
0.0
 20
0.0
 30
0.0
  3
block 187
  1

  0
SPLINE
  5
4EA
330
4E6
100
AcDbEntity
  8
Predefinito
 62
     7
370
    70
100
AcDbSpline
210
0.0
220
0.0
230
1.0
 70
     8
 71
     3
 72
    11
 73
     7
 74
     0
 42
0.0000000001
 43
0.0000000001
 40
0.0
 40
0.0
 40
0.0
 40
0.0
 40
1.0
 40
1.0
 40
1.0
 40
2.0
 40
2.0
 40
2.0
 40
2.0
 10
-299.3677733626581
 20
973.1791854120872
 30
0.0
 10
-296.7010972023004
 20
973.1791854120872
 30
0.0
 10
-294.0344210419428
 20
973.1791854120872
 30
0.0
 10
-291.3677448815852
 20
973.1791854120872
 30
0.0
 10
-291.3677448815852
 20
967.653596763295
 30
0.0
 10
-291.3677448815852
 20
962.1283526240513
 30
0.0
 10
-291.3677448815852
 20
956.6031084848076
 30
0.0
  0
ENDBLK
  5
4E9
330
4E6
100
AcDbEntity
  8
0
100
AcDbBlockEnd
  0
BLOCK
  5
4ED
330
4EB
100
AcDbEntity
  8
0
100
AcDbBlockBegin
  2
block 188
 70
     0
 71
     0
 10
0.0
 20
0.0
 30
0.0
  3
block 188
  1

  0
SPLINE
  5
4EF
330
4EB
100
AcDbEntity
  8
Predefinito
 62
     7
370
    70
100
AcDbSpline
210
0.0
220
0.0
230
1.0
 70
     8
 71
     3
 72
    14
 73
    10
 74
     0
 42
0.0000000001
 43
0.0000000001
 40
0.0
 40
0.0
 40
0.0
 40
0.0
 40
1.0
 40
1.0
 40
1.0
 40
2.0
 40
2.0
 40
2.0
 40
3.0
 40
3.0
 40
3.0
 40
3.0
 10
72.69840492974207
 20
956.6031084848076
 30
0.0
 10
72.69840492974207
 20
954.9460175564025
 30
0.0
 10
72.11256644247534
 20
953.5321503692559
 30
0.0
 10
70.94106172271613
 20
952.3604733947225
 30
0.0
 10
69.76938474818266
 20
951.188796420189
 30
0.0
 10
68.3551730514876
 20
950.6031301876965
 30
0.0
 10
66.69842663263096
 20
950.6031301876965
 30
0.0
 10
66.23368325167075
 20
950.6031301876965
 30
0.0
 10
65.775141042584
 20
950.6561846581693
 30
0.0
 10
65.32262775059642
 20
950.762982618212
 30
0.0
  0
ENDBLK
  5
4EE
330
4EB
100
AcDbEntity
  8
0
100
AcDbBlockEnd
  0
BLOCK
  5
4F2
330
4F0
100
AcDbEntity
  8
0
100
AcDbBlockBegin
  2
block 189
 70
     0
 71
     0
 10
0.0
 20
0.0
 30
0.0
  3
block 189
  1

  0
SPLINE
  5
4F4
330
4F0
100
AcDbEntity
  8
Predefinito
 62
     7
370
    70
100
AcDbSpline
210
0.0
220
0.0
230
1.0
 70
     8
 71
     3
 72
    14
 73
    10
 74
     0
 42
0.0000000001
 43
0.0000000001
 40
0.0
 40
0.0
 40
0.0
 40
0.0
 40
1.0
 40
1.0
 40
1.0
 40
2.0
 40
2.0
 40
2.0
 40
3.0
 40
3.0
 40
3.0
 40
3.0
 10
-178.0315103721588
 20
823.0942896162751
 30
0.0
 10
-172.9713541234238
 20
821.3572724726121
 30
0.0
 10
-167.8336832262708
 20
819.8345402681317
 30
0.0
 10
-162.6455416802588
 20
818.5291935887706
 30
0.0
 10
-157.4263942748795
 20
817.2162676993418
 30
0.0
 10
-152.1478189723797
 20
816.1210718445809
 30
0.0
 10
-146.8378933009641
 20
815.2453285722304
 30
0.0
 10
-136.0981526352463
 20
813.4738604737149
 30
0.0
 10
-125.2181965832788
 20
812.5967391631702
 30
0.0
 10
-114.3346231810518
 20
812.5994952395585
 30
0.0
  0
ENDBLK
  5
4F3
330
4F0
100
AcDbEntity
  8
0
100
AcDbBlockEnd
  0
BLOCK
  5
4F7
330
4F5
100
AcDbEntity
  8
0
100
AcDbBlockBegin
  2
block 190
 70
     0
 71
     0
 10
0.0
 20
0.0
 30
0.0
  3
block 190
  1

  0
POLYLINE
  5
4F9
330
4F5
100
AcDbEntity
  8
Predefinito
 62
     7
370
    70
100
AcDb2dPolyline
 66
     1
 10
0.0
 20
0.0
 30
0.0
  0
VERTEX
  5
4FA
330
4F9
100
AcDbEntity
  8
Predefinito
 62
     7
370
    70
100
AcDbVertex
100
AcDb2dVertex
 10
840.1034150460506
 20
762.4516518276163
 30
0.0
  0
VERTEX
  5
4FB
330
4F9
100
AcDbEntity
  8
Predefinito
 62
     7
370
    70
100
AcDbVertex
100
AcDb2dVertex
 10
818.1033797867937
 20
762.4516518276163
 30
0.0
  0
SEQEND
  5
4FC
330
4F9
100
AcDbEntity
  8
Predefinito
370
    70
  0
ENDBLK
  5
4F8
330
4F5
100
AcDbEntity
  8
0
100
AcDbBlockEnd
  0
BLOCK
  5
4FF
330
4FD
100
AcDbEntity
  8
0
100
AcDbBlockBegin
  2
block 191
 70
     0
 71
     0
 10
0.0
 20
0.0
 30
0.0
  3
block 191
  1

  0
SPLINE
  5
501
330
4FD
100
AcDbEntity
  8
Predefinito
 62
     7
370
    70
100
AcDbSpline
210
0.0
220
0.0
230
1.0
 70
     8
 71
     3
 72
    35
 73
    31
 74
     0
 42
0.0000000001
 43
0.0000000001
 40
0.0
 40
0.0
 40
0.0
 40
0.0
 40
1.0
 40
1.0
 40
1.0
 40
2.0
 40
2.0
 40
2.0
 40
3.0
 40
3.0
 40
3.0
 40
4.0
 40
4.0
 40
4.0
 40
5.0
 40
5.0
 40
5.0
 40
6.0
 40
6.0
 40
6.0
 40
7.0
 40
7.0
 40
7.0
 40
8.0
 40
8.0
 40
8.0
 40
9.0
 40
9.0
 40
9.0
 40
10.0
 40
10.0
 40
10.0
 40
10.0
 10
-50.63808049949326
 20
823.0942896162751
 30
0.0
 10
-53.22862004962688
 20
822.2051104715321
 30
0.0
 10
-55.83552380331543
 20
821.3731199118442
 30
0.0
 10
-58.46223685604416
 20
820.5969398990175
 30
0.0
 10
-61.07895913186568
 20
819.8235159625789
 30
0.0
 10
-63.70928953485393
 20
819.1072806111954
 30
0.0
 10
-66.35650090571991
 20
818.446166787576
 30
0.0
 10
-68.99423826400144
 20
817.7874645307962
 30
0.0
 10
-71.64282767306152
 20
817.1852618399746
 30
0.0
 10
-74.30588648315964
 20
816.6381806769169
 30
0.0
 10
-76.95654294951086
 20
816.0935110806989
 30
0.0
 10
-79.61581215457522
 20
815.6049965408905
 30
0.0
 10
-82.28696693906367
 20
815.170914509749
 30
0.0
 10
-87.60137123461008
 20
814.3068845620484
 30
0.0
 10
-92.95246579707438
 20
813.661618177661
 30
0.0
 10
-98.31958005354511
 20
813.2333928088444
 30
0.0
 10
-100.9874619973226
 20
813.0208304174046
 30
0.0
 10
-103.6568942340684
 20
812.861667005986
 30
0.0
 10
-106.3311496044936
 20
812.7562470841374
 30
0.0
 10
-107.6644015572853
 20
812.7035371232131
 30
0.0
 10
-108.9978257648512
 20
812.6642630346812
 30
0.0
 10
-110.3319389915142
 20
812.6380803089933
 30
0.0
 10
-110.9989094774586
 20
812.6249889461493
 30
0.0
 10
-111.6660522181772
 20
812.6153426787906
 30
0.0
 10
-112.3331949588959
 20
812.6087969973687
 30
0.0
 10
-112.6666802018681
 20
812.605696411432
 30
0.0
 10
-113.0001654448402
 20
812.6032848445923
 30
0.0
 10
-113.3338229425867
 20
812.6015622968497
 30
0.0
 10
-113.6674804403331
 20
812.6001842586555
 30
0.0
 10
-114.0009656833053
 20
812.5994952395585
 30
0.0
 10
-114.3346231810518
 20
812.5994952395585
 30
0.0
  0
ENDBLK
  5
500
330
4FD
100
AcDbEntity
  8
0
100
AcDbBlockEnd
  0
BLOCK
  5
504
330
502
100
AcDbEntity
  8
0
100
AcDbBlockBegin
  2
block 192
 70
     0
 71
     0
 10
0.0
 20
0.0
 30
0.0
  3
block 192
  1

  0
POLYLINE
  5
506
330
502
100
AcDbEntity
  8
Predefinito
 62
     7
370
    70
100
AcDb2dPolyline
 66
     1
 10
0.0
 20
0.0
 30
0.0
  0
VERTEX
  5
507
330
506
100
AcDbEntity
  8
Predefinito
 62
     7
370
    70
100
AcDbVertex
100
AcDb2dVertex
 10
108.0698892958992
 20
973.1791854120872
 30
0.0
  0
VERTEX
  5
508
330
506
100
AcDbEntity
  8
Predefinito
 62
     7
370
    70
100
AcDbVertex
100
AcDb2dVertex
 10
108.0698892958992
 20
985.1791420063095
 30
0.0
  0
SEQEND
  5
509
330
506
100
AcDbEntity
  8
Predefinito
370
    70
  0
ENDBLK
  5
505
330
502
100
AcDbEntity
  8
0
100
AcDbBlockEnd
  0
BLOCK
  5
50C
330
50A
100
AcDbEntity
  8
0
100
AcDbBlockBegin
  2
block 193
 70
     0
 71
     0
 10
0.0
 20
0.0
 30
0.0
  3
block 193
  1

  0
POLYLINE
  5
50E
330
50A
100
AcDbEntity
  8
Predefinito
 62
     7
370
    70
100
AcDb2dPolyline
 66
     1
 10
0.0
 20
0.0
 30
0.0
  0
VERTEX
  5
50F
330
50E
100
AcDbEntity
  8
Predefinito
 62
     7
370
    70
100
AcDbVertex
100
AcDb2dVertex
 10
1147.021115164634
 20
1122.451727692477
 30
0.0
  0
VERTEX
  5
510
330
50E
100
AcDbEntity
  8
Predefinito
 62
     7
370
    70
100
AcDbVertex
100
AcDb2dVertex
 10
348.7504610673263
 20
1122.451727692477
 30
0.0
  0
SEQEND
  5
511
330
50E
100
AcDbEntity
  8
Predefinito
370
    70
  0
ENDBLK
  5
50D
330
50A
100
AcDbEntity
  8
0
100
AcDbBlockEnd
  0
BLOCK
  5
514
330
512
100
AcDbEntity
  8
0
100
AcDbBlockBegin
  2
block 194
 70
     0
 71
     0
 10
0.0
 20
0.0
 30
0.0
  3
block 194
  1

  0
SPLINE
  5
516
330
512
100
AcDbEntity
  8
Predefinito
 62
     7
370
    70
100
AcDbSpline
210
0.0
220
0.0
230
1.0
 70
     8
 71
     3
 72
    14
 73
    10
 74
     0
 42
0.0000000001
 43
0.0000000001
 40
0.0
 40
0.0
 40
0.0
 40
0.0
 40
1.0
 40
1.0
 40
1.0
 40
2.0
 40
2.0
 40
2.0
 40
3.0
 40
3.0
 40
3.0
 40
3.0
 10
65.32262775059642
 20
950.762982618212
 30
0.0
 10
65.775141042584
 20
950.6561846581693
 30
0.0
 10
66.23368325167075
 20
950.6031301876965
 30
0.0
 10
66.69842663263096
 20
950.6031301876965
 30
0.0
 10
68.3551730514876
 20
950.6031301876965
 30
0.0
 10
69.76938474818266
 20
951.188796420189
 30
0.0
 10
70.94106172271613
 20
952.3604733947225
 30
0.0
 10
72.11256644247534
 20
953.5321503692559
 30
0.0
 10
72.69840492974207
 20
954.9460175564025
 30
0.0
 10
72.69840492974207
 20
956.6031084848076
 30
0.0
  0
ENDBLK
  5
515
330
512
100
AcDbEntity
  8
0
100
AcDbBlockEnd
  0
BLOCK
  5
519
330
517
100
AcDbEntity
  8
0
100
AcDbBlockBegin
  2
block 195
 70
     0
 71
     0
 10
0.0
 20
0.0
 30
0.0
  3
block 195
  1

  0
SPLINE
  5
51B
330
517
100
AcDbEntity
  8
Predefinito
 62
     7
370
    70
100
AcDbSpline
210
0.0
220
0.0
230
1.0
 70
    24
 71
     3
 72
     8
 73
     4
 74
     0
 42
0.0000000001
 43
0.0000000001
 40
0.0
 40
0.0
 40
0.0
 40
0.0
 40
1.0
 40
1.0
 40
1.0
 40
1.0
 10
862.7525062947286
 20
972.5366751040881
 30
0.0
 10
855.1794973990524
 20
972.5366751040881
 30
0.0
 10
847.6064885033762
 20
972.5366751040881
 30
0.0
 10
840.0334796077
 20
972.5366751040881
 30
0.0
  0
ENDBLK
  5
51A
330
517
100
AcDbEntity
  8
0
100
AcDbBlockEnd
  0
BLOCK
  5
51E
330
51C
100
AcDbEntity
  8
0
100
AcDbBlockBegin
  2
block 196
 70
     0
 71
     0
 10
0.0
 20
0.0
 30
0.0
  3
block 196
  1

  0
POLYLINE
  5
520
330
51C
100
AcDbEntity
  8
Predefinito
 62
     7
370
    70
100
AcDb2dPolyline
 66
     1
 10
0.0
 20
0.0
 30
0.0
  0
VERTEX
  5
521
330
520
100
AcDbEntity
  8
Predefinito
 62
     7
370
    70
100
AcDbVertex
100
AcDb2dVertex
 10
867.7525456272459
 20
984.5366316983103
 30
0.0
  0
VERTEX
  5
522
330
520
100
AcDbEntity
  8
Predefinito
 62
     7
370
    70
100
AcDbVertex
100
AcDb2dVertex
 10
867.7525456272459
 20
979.5364201110187
 30
0.0
  0
VERTEX
  5
523
330
520
100
AcDbEntity
  8
Predefinito
 62
     7
370
    70
100
AcDbVertex
100
AcDb2dVertex
 10
862.7525062947286
 20
972.5366751040881
 30
0.0
  0
SEQEND
  5
524
330
520
100
AcDbEntity
  8
Predefinito
370
    70
  0
ENDBLK
  5
51F
330
51C
100
AcDbEntity
  8
0
100
AcDbBlockEnd
  0
BLOCK
  5
527
330
525
100
AcDbEntity
  8
0
100
AcDbBlockBegin
  2
block 197
 70
     0
 71
     0
 10
0.0
 20
0.0
 30
0.0
  3
block 197
  1

  0
POLYLINE
  5
529
330
525
100
AcDbEntity
  8
Predefinito
 62
     7
370
    70
100
AcDb2dPolyline
 66
     1
 10
0.0
 20
0.0
 30
0.0
  0
VERTEX
  5
52A
330
529
100
AcDbEntity
  8
Predefinito
 62
     7
370
    70
100
AcDbVertex
100
AcDb2dVertex
 10
867.7525456272459
 20
979.5364201110187
 30
0.0
  0
VERTEX
  5
52B
330
529
100
AcDbEntity
  8
Predefinito
 62
     7
370
    70
100
AcDbVertex
100
AcDb2dVertex
 10
867.7525456272459
 20
984.5366316983103
 30
0.0
  0
SEQEND
  5
52C
330
529
100
AcDbEntity
  8
Predefinito
370
    70
  0
ENDBLK
  5
528
330
525
100
AcDbEntity
  8
0
100
AcDbBlockEnd
  0
BLOCK
  5
52F
330
52D
100
AcDbEntity
  8
0
100
AcDbBlockBegin
  2
block 198
 70
     0
 71
     0
 10
0.0
 20
0.0
 30
0.0
  3
block 198
  1

  0
POLYLINE
  5
531
330
52D
100
AcDbEntity
  8
Predefinito
 62
     7
370
    70
100
AcDb2dPolyline
 66
     1
 10
0.0
 20
0.0
 30
0.0
  0
VERTEX
  5
532
330
531
100
AcDbEntity
  8
Predefinito
 62
     7
370
    70
100
AcDbVertex
100
AcDb2dVertex
 10
867.7525456272459
 20
984.5366316983103
 30
0.0
  0
VERTEX
  5
533
330
531
100
AcDbEntity
  8
Predefinito
 62
     7
370
    70
100
AcDbVertex
100
AcDb2dVertex
 10
867.7525456272459
 20
979.5364201110187
 30
0.0
  0
SEQEND
  5
534
330
531
100
AcDbEntity
  8
Predefinito
370
    70
  0
ENDBLK
  5
530
330
52D
100
AcDbEntity
  8
0
100
AcDbBlockEnd
  0
BLOCK
  5
537
330
535
100
AcDbEntity
  8
0
100
AcDbBlockBegin
  2
block 199
 70
     0
 71
     0
 10
0.0
 20
0.0
 30
0.0
  3
block 199
  1

  0
SPLINE
  5
539
330
535
100
AcDbEntity
  8
Predefinito
 62
     7
370
    70
100
AcDbSpline
210
0.0
220
0.0
230
1.0
 70
    24
 71
     3
 72
     8
 73
     4
 74
     0
 42
0.0000000001
 43
0.0000000001
 40
0.0
 40
0.0
 40
0.0
 40
0.0
 40
1.0
 40
1.0
 40
1.0
 40
1.0
 10
840.0334796077
 20
984.5366316983103
 30
0.0
 10
849.2732256991401
 20
984.5366316983103
 30
0.0
 10
858.5129717905801
 20
984.5366316983103
 30
0.0
 10
867.7525456272459
 20
984.5366316983103
 30
0.0
  0
ENDBLK
  5
538
330
535
100
AcDbEntity
  8
0
100
AcDbBlockEnd
  0
BLOCK
  5
53C
330
53A
100
AcDbEntity
  8
0
100
AcDbBlockBegin
  2
block 200
 70
     0
 71
     0
 10
0.0
 20
0.0
 30
0.0
  3
block 200
  1

  0
POLYLINE
  5
53E
330
53A
100
AcDbEntity
  8
Predefinito
 62
     7
370
    70
100
AcDb2dPolyline
 66
     1
 10
0.0
 20
0.0
 30
0.0
  0
VERTEX
  5
53F
330
53E
100
AcDbEntity
  8
Predefinito
 62
     7
370
    70
100
AcDbVertex
100
AcDb2dVertex
 10
1077.623111709761
 20
836.4519583412342
 30
0.0
  0
VERTEX
  5
540
330
53E
100
AcDbEntity
  8
Predefinito
 62
     7
370
    70
100
AcDbVertex
100
AcDb2dVertex
 10
417.6658066447155
 20
836.4519583412342
 30
0.0
  0
SEQEND
  5
541
330
53E
100
AcDbEntity
  8
Predefinito
370
    70
  0
ENDBLK
  5
53D
330
53A
100
AcDbEntity
  8
0
100
AcDbBlockEnd
  0
BLOCK
  5
544
330
542
100
AcDbEntity
  8
0
100
AcDbBlockBegin
  2
block 201
 70
     0
 71
     0
 10
0.0
 20
0.0
 30
0.0
  3
block 201
  1

  0
SPLINE
  5
546
330
542
100
AcDbEntity
  8
Predefinito
 62
     7
370
    70
100
AcDbSpline
210
0.0
220
0.0
230
1.0
 70
     8
 71
     3
 72
    17
 73
    13
 74
     0
 42
0.0000000001
 43
0.0000000001
 40
0.0
 40
0.0
 40
0.0
 40
0.0
 40
1.0
 40
1.0
 40
1.0
 40
2.0
 40
2.0
 40
2.0
 40
3.0
 40
3.0
 40
3.0
 40
4.0
 40
4.0
 40
4.0
 40
4.0
 10
348.7316852969317
 20
1122.451727692477
 30
0.0
 10
348.7504610673263
 20
1130.870163020234
 30
0.0
 10
348.7504610673263
 20
1132.130206693964
 30
0.0
 10
348.8128172956093
 20
1132.814574912109
 30
0.0
 10
348.8753457786666
 20
1133.499115385028
 30
0.0
 10
349.0004027447812
 20
1133.60832491191
 30
0.0
 10
349.1254597108957
 20
1133.68911240104
 30
0.0
 10
349.2506889317846
 20
1133.769899890169
 30
0.0
 10
349.3759181526734
 20
1133.822609851093
 30
0.0
 10
349.6294771803878
 20
1133.897368423123
 30
0.0
 10
349.8830362081022
 20
1133.972126995153
 30
0.0
 10
350.2649250426421
 20
1134.068934178288
 30
0.0
 10
350.6623168068657
 20
1134.4516842867
 30
0.0
  0
ENDBLK
  5
545
330
542
100
AcDbEntity
  8
0
100
AcDbBlockEnd
  0
BLOCK
  5
549
330
547
100
AcDbEntity
  8
0
100
AcDbBlockBegin
  2
block 202
 70
     0
 71
     0
 10
0.0
 20
0.0
 30
0.0
  3
block 202
  1

  0
SPLINE
  5
54B
330
547
100
AcDbEntity
  8
Predefinito
 62
     7
370
    70
100
AcDbSpline
210
0.0
220
0.0
230
1.0
 70
    24
 71
     3
 72
     8
 73
     4
 74
     0
 42
0.0000000001
 43
0.0000000001
 40
0.0
 40
0.0
 40
0.0
 40
0.0
 40
1.0
 40
1.0
 40
1.0
 40
1.0
 10
817.4381318485919
 20
984.5366316983103
 30
0.0
 10
824.9697995984451
 20
984.5366316983103
 30
0.0
 10
832.5018118578469
 20
984.5366316983103
 30
0.0
 10
840.0334796077
 20
984.5366316983103
 30
0.0
  0
ENDBLK
  5
54A
330
547
100
AcDbEntity
  8
0
100
AcDbBlockEnd
  0
BLOCK
  5
54E
330
54C
100
AcDbEntity
  8
0
100
AcDbBlockBegin
  2
block 203
 70
     0
 71
     0
 10
0.0
 20
0.0
 30
0.0
  3
block 203
  1

  0
SPLINE
  5
550
330
54C
100
AcDbEntity
  8
Predefinito
 62
     7
370
    70
100
AcDbSpline
210
0.0
220
0.0
230
1.0
 70
     8
 71
     3
 72
     8
 73
     4
 74
     0
 42
0.0000000001
 43
0.0000000001
 40
0.0
 40
0.0
 40
0.0
 40
0.0
 40
1.0
 40
1.0
 40
1.0
 40
1.0
 10
63.04817571123449
 20
961.36491946452
 30
0.0
 10
61.48169079409139
 20
960.1639591783618
 30
0.0
 10
60.69844833551983
 20
958.5768036883072
 30
0.0
 10
60.69844833551983
 20
956.6031084848076
 30
0.0
  0
ENDBLK
  5
54F
330
54C
100
AcDbEntity
  8
0
100
AcDbBlockEnd
  0
BLOCK
  5
553
330
551
100
AcDbEntity
  8
0
100
AcDbBlockBegin
  2
block 204
 70
     0
 71
     0
 10
0.0
 20
0.0
 30
0.0
  3
block 204
  1

  0
POLYLINE
  5
555
330
551
100
AcDbEntity
  8
Predefinito
 62
     7
370
    70
100
AcDb2dPolyline
 66
     1
 10
0.0
 20
0.0
 30
0.0
  0
VERTEX
  5
556
330
555
100
AcDbEntity
  8
Predefinito
 62
     7
370
    70
100
AcDbVertex
100
AcDb2dVertex
 10
-595.3739948055836
 20
763.0941621356154
 30
0.0
  0
VERTEX
  5
557
330
555
100
AcDbEntity
  8
Predefinito
 62
     7
370
    70
100
AcDbVertex
100
AcDb2dVertex
 10
-573.8872787736289
 20
763.0941621356154
 30
0.0
  0
SEQEND
  5
558
330
555
100
AcDbEntity
  8
Predefinito
370
    70
  0
ENDBLK
  5
554
330
551
100
AcDbEntity
  8
0
100
AcDbBlockEnd
  0
BLOCK
  5
55B
330
559
100
AcDbEntity
  8
0
100
AcDbBlockBegin
  2
block 205
 70
     0
 71
     0
 10
0.0
 20
0.0
 30
0.0
  3
block 205
  1

  0
SPLINE
  5
55D
330
559
100
AcDbEntity
  8
Predefinito
 62
     7
370
    70
100
AcDbSpline
210
0.0
220
0.0
230
1.0
 70
     8
 71
     3
 72
    14
 73
    10
 74
     0
 42
0.0000000001
 43
0.0000000001
 40
0.0
 40
0.0
 40
0.0
 40
0.0
 40
1.0
 40
1.0
 40
1.0
 40
2.0
 40
2.0
 40
2.0
 40
3.0
 40
3.0
 40
3.0
 40
3.0
 10
-301.3678235466199
 20
956.6031084848076
 30
0.0
 10
-301.3678235466199
 20
954.9460175564025
 30
0.0
 10
-300.7819850593531
 20
953.5321503692559
 30
0.0
 10
-299.6104803395939
 20
952.3604733947225
 30
0.0
 10
-298.4388033650604
 20
951.188796420189
 30
0.0
 10
-297.0245916683654
 20
950.6031301876965
 30
0.0
 10
-295.3678452495087
 20
950.6031301876965
 30
0.0
 10
-294.9029296137743
 20
950.6031301876965
 30
0.0
 10
-294.4443874046875
 20
950.6561846581693
 30
0.0
 10
-293.9920463674742
 20
950.762982618212
 30
0.0
  0
ENDBLK
  5
55C
330
559
100
AcDbEntity
  8
0
100
AcDbBlockEnd
  0
BLOCK
  5
560
330
55E
100
AcDbEntity
  8
0
100
AcDbBlockBegin
  2
block 206
 70
     0
 71
     0
 10
0.0
 20
0.0
 30
0.0
  3
block 206
  1

  0
POLYLINE
  5
562
330
55E
100
AcDbEntity
  8
Predefinito
 62
     7
370
    70
100
AcDb2dPolyline
 66
     1
 10
0.0
 20
0.0
 30
0.0
  0
VERTEX
  5
563
330
562
100
AcDbEntity
  8
Predefinito
 62
     7
370
    70
100
AcDbVertex
100
AcDb2dVertex
 10
417.6658066447155
 20
762.4516518276163
 30
0.0
  0
VERTEX
  5
564
330
562
100
AcDbEntity
  8
Predefinito
 62
     7
370
    70
100
AcDbVertex
100
AcDb2dVertex
 10
395.6657713854586
 20
762.4516518276163
 30
0.0
  0
SEQEND
  5
565
330
562
100
AcDbEntity
  8
Predefinito
370
    70
  0
ENDBLK
  5
561
330
55E
100
AcDbEntity
  8
0
100
AcDbBlockEnd
  0
BLOCK
  5
568
330
566
100
AcDbEntity
  8
0
100
AcDbBlockBegin
  2
block 207
 70
     0
 71
     0
 10
0.0
 20
0.0
 30
0.0
  3
block 207
  1

  0
POLYLINE
  5
56A
330
566
100
AcDbEntity
  8
Predefinito
 62
     7
370
    70
100
AcDb2dPolyline
 66
     1
 10
0.0
 20
0.0
 30
0.0
  0
VERTEX
  5
56B
330
56A
100
AcDbEntity
  8
Predefinito
 62
     7
370
    70
100
AcDbVertex
100
AcDb2dVertex
 10
-643.2852822285016
 20
1130.192512738285
 30
0.0
  0
VERTEX
  5
56C
330
56A
100
AcDbEntity
  8
Predefinito
 62
     7
370
    70
100
AcDbVertex
100
AcDb2dVertex
 10
-643.2852822285016
 20
1123.094238000476
 30
0.0
  0
SEQEND
  5
56D
330
56A
100
AcDbEntity
  8
Predefinito
370
    70
  0
ENDBLK
  5
569
330
566
100
AcDbEntity
  8
0
100
AcDbBlockEnd
  0
ENDSEC
  0
SECTION
  2
ENTITIES
  0
INSERT
  5
3D
330
1F
100
AcDbEntity
  8
quote
100
AcDbBlockReference
  2
block 2
 10
0.0
 20
0.0
 30
0.0
  0
INSERT
  5
5E
330
1F
100
AcDbEntity
  8
quote
100
AcDbBlockReference
  2
block 7
 10
0.0
 20
0.0
 30
0.0
  0
INSERT
  5
8D
330
1F
100
AcDbEntity
  8
quote
100
AcDbBlockReference
  2
block 14
 10
0.0
 20
0.0
 30
0.0
  0
INSERT
  5
AE
330
1F
100
AcDbEntity
  8
quote
100
AcDbBlockReference
  2
block 19
 10
0.0
 20
0.0
 30
0.0
  0
INSERT
  5
D0
330
1F
100
AcDbEntity
  8
Predefinito
100
AcDbBlockReference
  2
block 24
 10
0.0
 20
0.0
 30
0.0
  0
INSERT
  5
D8
330
1F
100
AcDbEntity
  8
Predefinito
100
AcDbBlockReference
  2
block 25
 10
0.0
 20
0.0
 30
0.0
  0
INSERT
  5
E0
330
1F
100
AcDbEntity
  8
Predefinito
100
AcDbBlockReference
  2
block 26
 10
0.0
 20
0.0
 30
0.0
  0
INSERT
  5
E8
330
1F
100
AcDbEntity
  8
Predefinito
100
AcDbBlockReference
  2
block 27
 10
0.0
 20
0.0
 30
0.0
  0
INSERT
  5
ED
330
1F
100
AcDbEntity
  8
Predefinito
100
AcDbBlockReference
  2
block 28
 10
0.0
 20
0.0
 30
0.0
  0
INSERT
  5
F2
330
1F
100
AcDbEntity
  8
Predefinito
100
AcDbBlockReference
  2
block 29
 10
0.0
 20
0.0
 30
0.0
  0
INSERT
  5
FA
330
1F
100
AcDbEntity
  8
Predefinito
100
AcDbBlockReference
  2
block 30
 10
0.0
 20
0.0
 30
0.0
  0
INSERT
  5
102
330
1F
100
AcDbEntity
  8
Predefinito
100
AcDbBlockReference
  2
block 31
 10
0.0
 20
0.0
 30
0.0
  0
INSERT
  5
107
330
1F
100
AcDbEntity
  8
Predefinito
100
AcDbBlockReference
  2
block 32
 10
0.0
 20
0.0
 30
0.0
  0
INSERT
  5
10C
330
1F
100
AcDbEntity
  8
Predefinito
100
AcDbBlockReference
  2
block 33
 10
0.0
 20
0.0
 30
0.0
  0
INSERT
  5
111
330
1F
100
AcDbEntity
  8
Predefinito
100
AcDbBlockReference
  2
block 34
 10
0.0
 20
0.0
 30
0.0
  0
INSERT
  5
116
330
1F
100
AcDbEntity
  8
Predefinito
100
AcDbBlockReference
  2
block 35
 10
0.0
 20
0.0
 30
0.0
  0
INSERT
  5
11B
330
1F
100
AcDbEntity
  8
Predefinito
100
AcDbBlockReference
  2
block 36
 10
0.0
 20
0.0
 30
0.0
  0
INSERT
  5
120
330
1F
100
AcDbEntity
  8
Predefinito
100
AcDbBlockReference
  2
block 37
 10
0.0
 20
0.0
 30
0.0
  0
INSERT
  5
125
330
1F
100
AcDbEntity
  8
Predefinito
100
AcDbBlockReference
  2
block 38
 10
0.0
 20
0.0
 30
0.0
  0
INSERT
  5
12A
330
1F
100
AcDbEntity
  8
Predefinito
100
AcDbBlockReference
  2
block 39
 10
0.0
 20
0.0
 30
0.0
  0
INSERT
  5
12F
330
1F
100
AcDbEntity
  8
Predefinito
100
AcDbBlockReference
  2
block 40
 10
0.0
 20
0.0
 30
0.0
  0
INSERT
  5
137
330
1F
100
AcDbEntity
  8
Predefinito
100
AcDbBlockReference
  2
block 41
 10
0.0
 20
0.0
 30
0.0
  0
INSERT
  5
13C
330
1F
100
AcDbEntity
  8
Predefinito
100
AcDbBlockReference
  2
block 42
 10
0.0
 20
0.0
 30
0.0
  0
INSERT
  5
144
330
1F
100
AcDbEntity
  8
Predefinito
100
AcDbBlockReference
  2
block 43
 10
0.0
 20
0.0
 30
0.0
  0
INSERT
  5
14C
330
1F
100
AcDbEntity
  8
Predefinito
100
AcDbBlockReference
  2
block 44
 10
0.0
 20
0.0
 30
0.0
  0
INSERT
  5
151
330
1F
100
AcDbEntity
  8
Predefinito
100
AcDbBlockReference
  2
block 45
 10
0.0
 20
0.0
 30
0.0
  0
INSERT
  5
159
330
1F
100
AcDbEntity
  8
Predefinito
100
AcDbBlockReference
  2
block 46
 10
0.0
 20
0.0
 30
0.0
  0
INSERT
  5
15E
330
1F
100
AcDbEntity
  8
Predefinito
100
AcDbBlockReference
  2
block 47
 10
0.0
 20
0.0
 30
0.0
  0
INSERT
  5
163
330
1F
100
AcDbEntity
  8
Predefinito
100
AcDbBlockReference
  2
block 48
 10
0.0
 20
0.0
 30
0.0
  0
INSERT
  5
16B
330
1F
100
AcDbEntity
  8
Predefinito
100
AcDbBlockReference
  2
block 49
 10
0.0
 20
0.0
 30
0.0
  0
INSERT
  5
173
330
1F
100
AcDbEntity
  8
Predefinito
100
AcDbBlockReference
  2
block 50
 10
0.0
 20
0.0
 30
0.0
  0
INSERT
  5
17B
330
1F
100
AcDbEntity
  8
Predefinito
100
AcDbBlockReference
  2
block 51
 10
0.0
 20
0.0
 30
0.0
  0
INSERT
  5
183
330
1F
100
AcDbEntity
  8
Predefinito
100
AcDbBlockReference
  2
block 52
 10
0.0
 20
0.0
 30
0.0
  0
INSERT
  5
188
330
1F
100
AcDbEntity
  8
Predefinito
100
AcDbBlockReference
  2
block 53
 10
0.0
 20
0.0
 30
0.0
  0
INSERT
  5
18D
330
1F
100
AcDbEntity
  8
Predefinito
100
AcDbBlockReference
  2
block 54
 10
0.0
 20
0.0
 30
0.0
  0
INSERT
  5
192
330
1F
100
AcDbEntity
  8
Predefinito
100
AcDbBlockReference
  2
block 55
 10
0.0
 20
0.0
 30
0.0
  0
INSERT
  5
197
330
1F
100
AcDbEntity
  8
Predefinito
100
AcDbBlockReference
  2
block 56
 10
0.0
 20
0.0
 30
0.0
  0
INSERT
  5
19C
330
1F
100
AcDbEntity
  8
Predefinito
100
AcDbBlockReference
  2
block 57
 10
0.0
 20
0.0
 30
0.0
  0
INSERT
  5
1A1
330
1F
100
AcDbEntity
  8
Predefinito
100
AcDbBlockReference
  2
block 58
 10
0.0
 20
0.0
 30
0.0
  0
INSERT
  5
1A9
330
1F
100
AcDbEntity
  8
Predefinito
100
AcDbBlockReference
  2
block 59
 10
0.0
 20
0.0
 30
0.0
  0
INSERT
  5
1B1
330
1F
100
AcDbEntity
  8
Predefinito
100
AcDbBlockReference
  2
block 60
 10
0.0
 20
0.0
 30
0.0
  0
INSERT
  5
1B9
330
1F
100
AcDbEntity
  8
Predefinito
100
AcDbBlockReference
  2
block 61
 10
0.0
 20
0.0
 30
0.0
  0
INSERT
  5
1C1
330
1F
100
AcDbEntity
  8
Predefinito
100
AcDbBlockReference
  2
block 62
 10
0.0
 20
0.0
 30
0.0
  0
INSERT
  5
1C9
330
1F
100
AcDbEntity
  8
Predefinito
100
AcDbBlockReference
  2
block 63
 10
0.0
 20
0.0
 30
0.0
  0
INSERT
  5
1D1
330
1F
100
AcDbEntity
  8
Predefinito
100
AcDbBlockReference
  2
block 64
 10
0.0
 20
0.0
 30
0.0
  0
INSERT
  5
1D6
330
1F
100
AcDbEntity
  8
Predefinito
100
AcDbBlockReference
  2
block 65
 10
0.0
 20
0.0
 30
0.0
  0
INSERT
  5
1DE
330
1F
100
AcDbEntity
  8
Predefinito
100
AcDbBlockReference
  2
block 66
 10
0.0
 20
0.0
 30
0.0
  0
INSERT
  5
1E3
330
1F
100
AcDbEntity
  8
Predefinito
100
AcDbBlockReference
  2
block 67
 10
0.0
 20
0.0
 30
0.0
  0
INSERT
  5
1EB
330
1F
100
AcDbEntity
  8
Predefinito
100
AcDbBlockReference
  2
block 68
 10
0.0
 20
0.0
 30
0.0
  0
INSERT
  5
1F0
330
1F
100
AcDbEntity
  8
Predefinito
100
AcDbBlockReference
  2
block 69
 10
0.0
 20
0.0
 30
0.0
  0
INSERT
  5
1F5
330
1F
100
AcDbEntity
  8
Predefinito
100
AcDbBlockReference
  2
block 70
 10
0.0
 20
0.0
 30
0.0
  0
INSERT
  5
1FA
330
1F
100
AcDbEntity
  8
Predefinito
100
AcDbBlockReference
  2
block 71
 10
0.0
 20
0.0
 30
0.0
  0
INSERT
  5
1FF
330
1F
100
AcDbEntity
  8
Predefinito
100
AcDbBlockReference
  2
block 72
 10
0.0
 20
0.0
 30
0.0
  0
INSERT
  5
204
330
1F
100
AcDbEntity
  8
Predefinito
100
AcDbBlockReference
  2
block 73
 10
0.0
 20
0.0
 30
0.0
  0
INSERT
  5
209
330
1F
100
AcDbEntity
  8
Predefinito
100
AcDbBlockReference
  2
block 74
 10
0.0
 20
0.0
 30
0.0
  0
INSERT
  5
211
330
1F
100
AcDbEntity
  8
Predefinito
100
AcDbBlockReference
  2
block 75
 10
0.0
 20
0.0
 30
0.0
  0
INSERT
  5
216
330
1F
100
AcDbEntity
  8
Predefinito
100
AcDbBlockReference
  2
block 76
 10
0.0
 20
0.0
 30
0.0
  0
INSERT
  5
21B
330
1F
100
AcDbEntity
  8
Predefinito
100
AcDbBlockReference
  2
block 77
 10
0.0
 20
0.0
 30
0.0
  0
INSERT
  5
220
330
1F
100
AcDbEntity
  8
Predefinito
100
AcDbBlockReference
  2
block 78
 10
0.0
 20
0.0
 30
0.0
  0
INSERT
  5
225
330
1F
100
AcDbEntity
  8
Predefinito
100
AcDbBlockReference
  2
block 79
 10
0.0
 20
0.0
 30
0.0
  0
INSERT
  5
22A
330
1F
100
AcDbEntity
  8
Predefinito
100
AcDbBlockReference
  2
block 80
 10
0.0
 20
0.0
 30
0.0
  0
INSERT
  5
232
330
1F
100
AcDbEntity
  8
Predefinito
100
AcDbBlockReference
  2
block 81
 10
0.0
 20
0.0
 30
0.0
  0
INSERT
  5
237
330
1F
100
AcDbEntity
  8
Predefinito
100
AcDbBlockReference
  2
block 82
 10
0.0
 20
0.0
 30
0.0
  0
INSERT
  5
23F
330
1F
100
AcDbEntity
  8
Predefinito
100
AcDbBlockReference
  2
block 83
 10
0.0
 20
0.0
 30
0.0
  0
INSERT
  5
247
330
1F
100
AcDbEntity
  8
Predefinito
100
AcDbBlockReference
  2
block 84
 10
0.0
 20
0.0
 30
0.0
  0
INSERT
  5
24F
330
1F
100
AcDbEntity
  8
Predefinito
100
AcDbBlockReference
  2
block 85
 10
0.0
 20
0.0
 30
0.0
  0
INSERT
  5
254
330
1F
100
AcDbEntity
  8
Predefinito
100
AcDbBlockReference
  2
block 86
 10
0.0
 20
0.0
 30
0.0
  0
INSERT
  5
25C
330
1F
100
AcDbEntity
  8
Predefinito
100
AcDbBlockReference
  2
block 87
 10
0.0
 20
0.0
 30
0.0
  0
INSERT
  5
261
330
1F
100
AcDbEntity
  8
Predefinito
100
AcDbBlockReference
  2
block 88
 10
0.0
 20
0.0
 30
0.0
  0
INSERT
  5
266
330
1F
100
AcDbEntity
  8
Predefinito
100
AcDbBlockReference
  2
block 89
 10
0.0
 20
0.0
 30
0.0
  0
INSERT
  5
26B
330
1F
100
AcDbEntity
  8
Predefinito
100
AcDbBlockReference
  2
block 90
 10
0.0
 20
0.0
 30
0.0
  0
INSERT
  5
270
330
1F
100
AcDbEntity
  8
Predefinito
100
AcDbBlockReference
  2
block 91
 10
0.0
 20
0.0
 30
0.0
  0
INSERT
  5
275
330
1F
100
AcDbEntity
  8
Predefinito
100
AcDbBlockReference
  2
block 92
 10
0.0
 20
0.0
 30
0.0
  0
INSERT
  5
27D
330
1F
100
AcDbEntity
  8
Predefinito
100
AcDbBlockReference
  2
block 93
 10
0.0
 20
0.0
 30
0.0
  0
INSERT
  5
282
330
1F
100
AcDbEntity
  8
Predefinito
100
AcDbBlockReference
  2
block 94
 10
0.0
 20
0.0
 30
0.0
  0
INSERT
  5
28A
330
1F
100
AcDbEntity
  8
Predefinito
100
AcDbBlockReference
  2
block 95
 10
0.0
 20
0.0
 30
0.0
  0
INSERT
  5
28F
330
1F
100
AcDbEntity
  8
Predefinito
100
AcDbBlockReference
  2
block 96
 10
0.0
 20
0.0
 30
0.0
  0
INSERT
  5
294
330
1F
100
AcDbEntity
  8
Predefinito
100
AcDbBlockReference
  2
block 97
 10
0.0
 20
0.0
 30
0.0
  0
INSERT
  5
299
330
1F
100
AcDbEntity
  8
Predefinito
100
AcDbBlockReference
  2
block 98
 10
0.0
 20
0.0
 30
0.0
  0
INSERT
  5
29E
330
1F
100
AcDbEntity
  8
Predefinito
100
AcDbBlockReference
  2
block 99
 10
0.0
 20
0.0
 30
0.0
  0
INSERT
  5
2A3
330
1F
100
AcDbEntity
  8
Predefinito
100
AcDbBlockReference
  2
block 100
 10
0.0
 20
0.0
 30
0.0
  0
INSERT
  5
2A8
330
1F
100
AcDbEntity
  8
Predefinito
100
AcDbBlockReference
  2
block 101
 10
0.0
 20
0.0
 30
0.0
  0
INSERT
  5
2B0
330
1F
100
AcDbEntity
  8
Predefinito
100
AcDbBlockReference
  2
block 102
 10
0.0
 20
0.0
 30
0.0
  0
INSERT
  5
2B5
330
1F
100
AcDbEntity
  8
Predefinito
100
AcDbBlockReference
  2
block 103
 10
0.0
 20
0.0
 30
0.0
  0
INSERT
  5
2BD
330
1F
100
AcDbEntity
  8
Predefinito
100
AcDbBlockReference
  2
block 104
 10
0.0
 20
0.0
 30
0.0
  0
INSERT
  5
2C5
330
1F
100
AcDbEntity
  8
Predefinito
100
AcDbBlockReference
  2
block 105
 10
0.0
 20
0.0
 30
0.0
  0
INSERT
  5
2CD
330
1F
100
AcDbEntity
  8
Predefinito
100
AcDbBlockReference
  2
block 106
 10
0.0
 20
0.0
 30
0.0
  0
INSERT
  5
2D2
330
1F
100
AcDbEntity
  8
Predefinito
100
AcDbBlockReference
  2
block 107
 10
0.0
 20
0.0
 30
0.0
  0
INSERT
  5
2DA
330
1F
100
AcDbEntity
  8
Predefinito
100
AcDbBlockReference
  2
block 108
 10
0.0
 20
0.0
 30
0.0
  0
INSERT
  5
2DF
330
1F
100
AcDbEntity
  8
Predefinito
100
AcDbBlockReference
  2
block 109
 10
0.0
 20
0.0
 30
0.0
  0
INSERT
  5
2E7
330
1F
100
AcDbEntity
  8
Predefinito
100
AcDbBlockReference
  2
block 110
 10
0.0
 20
0.0
 30
0.0
  0
INSERT
  5
2EF
330
1F
100
AcDbEntity
  8
Predefinito
100
AcDbBlockReference
  2
block 111
 10
0.0
 20
0.0
 30
0.0
  0
INSERT
  5
2F4
330
1F
100
AcDbEntity
  8
Predefinito
100
AcDbBlockReference
  2
block 112
 10
0.0
 20
0.0
 30
0.0
  0
INSERT
  5
2FC
330
1F
100
AcDbEntity
  8
Predefinito
100
AcDbBlockReference
  2
block 113
 10
0.0
 20
0.0
 30
0.0
  0
INSERT
  5
301
330
1F
100
AcDbEntity
  8
Predefinito
100
AcDbBlockReference
  2
block 114
 10
0.0
 20
0.0
 30
0.0
  0
INSERT
  5
306
330
1F
100
AcDbEntity
  8
Predefinito
100
AcDbBlockReference
  2
block 115
 10
0.0
 20
0.0
 30
0.0
  0
INSERT
  5
30E
330
1F
100
AcDbEntity
  8
Predefinito
100
AcDbBlockReference
  2
block 116
 10
0.0
 20
0.0
 30
0.0
  0
INSERT
  5
313
330
1F
100
AcDbEntity
  8
Predefinito
100
AcDbBlockReference
  2
block 117
 10
0.0
 20
0.0
 30
0.0
  0
INSERT
  5
31B
330
1F
100
AcDbEntity
  8
Predefinito
100
AcDbBlockReference
  2
block 118
 10
0.0
 20
0.0
 30
0.0
  0
INSERT
  5
323
330
1F
100
AcDbEntity
  8
Predefinito
100
AcDbBlockReference
  2
block 119
 10
0.0
 20
0.0
 30
0.0
  0
INSERT
  5
328
330
1F
100
AcDbEntity
  8
Predefinito
100
AcDbBlockReference
  2
block 120
 10
0.0
 20
0.0
 30
0.0
  0
INSERT
  5
330
330
1F
100
AcDbEntity
  8
Predefinito
100
AcDbBlockReference
  2
block 121
 10
0.0
 20
0.0
 30
0.0
  0
INSERT
  5
338
330
1F
100
AcDbEntity
  8
Predefinito
100
AcDbBlockReference
  2
block 122
 10
0.0
 20
0.0
 30
0.0
  0
INSERT
  5
340
330
1F
100
AcDbEntity
  8
Predefinito
100
AcDbBlockReference
  2
block 123
 10
0.0
 20
0.0
 30
0.0
  0
INSERT
  5
348
330
1F
100
AcDbEntity
  8
Predefinito
100
AcDbBlockReference
  2
block 124
 10
0.0
 20
0.0
 30
0.0
  0
INSERT
  5
34D
330
1F
100
AcDbEntity
  8
Predefinito
100
AcDbBlockReference
  2
block 125
 10
0.0
 20
0.0
 30
0.0
  0
INSERT
  5
352
330
1F
100
AcDbEntity
  8
Predefinito
100
AcDbBlockReference
  2
block 126
 10
0.0
 20
0.0
 30
0.0
  0
INSERT
  5
35A
330
1F
100
AcDbEntity
  8
Predefinito
100
AcDbBlockReference
  2
block 127
 10
0.0
 20
0.0
 30
0.0
  0
INSERT
  5
362
330
1F
100
AcDbEntity
  8
Predefinito
100
AcDbBlockReference
  2
block 128
 10
0.0
 20
0.0
 30
0.0
  0
INSERT
  5
367
330
1F
100
AcDbEntity
  8
Predefinito
100
AcDbBlockReference
  2
block 129
 10
0.0
 20
0.0
 30
0.0
  0
INSERT
  5
36F
330
1F
100
AcDbEntity
  8
Predefinito
100
AcDbBlockReference
  2
block 130
 10
0.0
 20
0.0
 30
0.0
  0
INSERT
  5
374
330
1F
100
AcDbEntity
  8
Predefinito
100
AcDbBlockReference
  2
block 131
 10
0.0
 20
0.0
 30
0.0
  0
INSERT
  5
37D
330
1F
100
AcDbEntity
  8
Predefinito
100
AcDbBlockReference
  2
block 132
 10
0.0
 20
0.0
 30
0.0
  0
INSERT
  5
385
330
1F
100
AcDbEntity
  8
Predefinito
100
AcDbBlockReference
  2
block 133
 10
0.0
 20
0.0
 30
0.0
  0
INSERT
  5
38D
330
1F
100
AcDbEntity
  8
Predefinito
100
AcDbBlockReference
  2
block 134
 10
0.0
 20
0.0
 30
0.0
  0
INSERT
  5
392
330
1F
100
AcDbEntity
  8
Predefinito
100
AcDbBlockReference
  2
block 135
 10
0.0
 20
0.0
 30
0.0
  0
INSERT
  5
397
330
1F
100
AcDbEntity
  8
Predefinito
100
AcDbBlockReference
  2
block 136
 10
0.0
 20
0.0
 30
0.0
  0
INSERT
  5
39F
330
1F
100
AcDbEntity
  8
Predefinito
100
AcDbBlockReference
  2
block 137
 10
0.0
 20
0.0
 30
0.0
  0
INSERT
  5
3A7
330
1F
100
AcDbEntity
  8
Predefinito
100
AcDbBlockReference
  2
block 138
 10
0.0
 20
0.0
 30
0.0
  0
INSERT
  5
3AF
330
1F
100
AcDbEntity
  8
Predefinito
100
AcDbBlockReference
  2
block 139
 10
0.0
 20
0.0
 30
0.0
  0
INSERT
  5
3B4
330
1F
100
AcDbEntity
  8
Predefinito
100
AcDbBlockReference
  2
block 140
 10
0.0
 20
0.0
 30
0.0
  0
INSERT
  5
3BC
330
1F
100
AcDbEntity
  8
Predefinito
100
AcDbBlockReference
  2
block 141
 10
0.0
 20
0.0
 30
0.0
  0
INSERT
  5
3C1
330
1F
100
AcDbEntity
  8
Predefinito
100
AcDbBlockReference
  2
block 142
 10
0.0
 20
0.0
 30
0.0
  0
INSERT
  5
3C9
330
1F
100
AcDbEntity
  8
Predefinito
100
AcDbBlockReference
  2
block 143
 10
0.0
 20
0.0
 30
0.0
  0
INSERT
  5
3CE
330
1F
100
AcDbEntity
  8
Predefinito
100
AcDbBlockReference
  2
block 144
 10
0.0
 20
0.0
 30
0.0
  0
INSERT
  5
3D6
330
1F
100
AcDbEntity
  8
Predefinito
100
AcDbBlockReference
  2
block 145
 10
0.0
 20
0.0
 30
0.0
  0
INSERT
  5
3DE
330
1F
100
AcDbEntity
  8
Predefinito
100
AcDbBlockReference
  2
block 146
 10
0.0
 20
0.0
 30
0.0
  0
INSERT
  5
3E6
330
1F
100
AcDbEntity
  8
Predefinito
100
AcDbBlockReference
  2
block 147
 10
0.0
 20
0.0
 30
0.0
  0
INSERT
  5
3EE
330
1F
100
AcDbEntity
  8
Predefinito
100
AcDbBlockReference
  2
block 148
 10
0.0
 20
0.0
 30
0.0
  0
INSERT
  5
3F3
330
1F
100
AcDbEntity
  8
Predefinito
100
AcDbBlockReference
  2
block 149
 10
0.0
 20
0.0
 30
0.0
  0
INSERT
  5
3F8
330
1F
100
AcDbEntity
  8
Predefinito
100
AcDbBlockReference
  2
block 150
 10
0.0
 20
0.0
 30
0.0
  0
INSERT
  5
400
330
1F
100
AcDbEntity
  8
Predefinito
100
AcDbBlockReference
  2
block 151
 10
0.0
 20
0.0
 30
0.0
  0
INSERT
  5
405
330
1F
100
AcDbEntity
  8
Predefinito
100
AcDbBlockReference
  2
block 152
 10
0.0
 20
0.0
 30
0.0
  0
INSERT
  5
40D
330
1F
100
AcDbEntity
  8
Predefinito
100
AcDbBlockReference
  2
block 153
 10
0.0
 20
0.0
 30
0.0
  0
INSERT
  5
415
330
1F
100
AcDbEntity
  8
Predefinito
100
AcDbBlockReference
  2
block 154
 10
0.0
 20
0.0
 30
0.0
  0
INSERT
  5
41A
330
1F
100
AcDbEntity
  8
Predefinito
100
AcDbBlockReference
  2
block 155
 10
0.0
 20
0.0
 30
0.0
  0
INSERT
  5
41F
330
1F
100
AcDbEntity
  8
Predefinito
100
AcDbBlockReference
  2
block 156
 10
0.0
 20
0.0
 30
0.0
  0
INSERT
  5
427
330
1F
100
AcDbEntity
  8
Predefinito
100
AcDbBlockReference
  2
block 157
 10
0.0
 20
0.0
 30
0.0
  0
INSERT
  5
42F
330
1F
100
AcDbEntity
  8
Predefinito
100
AcDbBlockReference
  2
block 158
 10
0.0
 20
0.0
 30
0.0
  0
INSERT
  5
437
330
1F
100
AcDbEntity
  8
Predefinito
100
AcDbBlockReference
  2
block 159
 10
0.0
 20
0.0
 30
0.0
  0
INSERT
  5
43C
330
1F
100
AcDbEntity
  8
Predefinito
100
AcDbBlockReference
  2
block 160
 10
0.0
 20
0.0
 30
0.0
  0
INSERT
  5
444
330
1F
100
AcDbEntity
  8
Predefinito
100
AcDbBlockReference
  2
block 161
 10
0.0
 20
0.0
 30
0.0
  0
INSERT
  5
449
330
1F
100
AcDbEntity
  8
Predefinito
100
AcDbBlockReference
  2
block 162
 10
0.0
 20
0.0
 30
0.0
  0
INSERT
  5
44E
330
1F
100
AcDbEntity
  8
Predefinito
100
AcDbBlockReference
  2
block 163
 10
0.0
 20
0.0
 30
0.0
  0
INSERT
  5
456
330
1F
100
AcDbEntity
  8
Predefinito
100
AcDbBlockReference
  2
block 164
 10
0.0
 20
0.0
 30
0.0
  0
INSERT
  5
45B
330
1F
100
AcDbEntity
  8
Predefinito
100
AcDbBlockReference
  2
block 165
 10
0.0
 20
0.0
 30
0.0
  0
INSERT
  5
460
330
1F
100
AcDbEntity
  8
Predefinito
100
AcDbBlockReference
  2
block 166
 10
0.0
 20
0.0
 30
0.0
  0
INSERT
  5
465
330
1F
100
AcDbEntity
  8
Predefinito
100
AcDbBlockReference
  2
block 167
 10
0.0
 20
0.0
 30
0.0
  0
INSERT
  5
46D
330
1F
100
AcDbEntity
  8
Predefinito
100
AcDbBlockReference
  2
block 168
 10
0.0
 20
0.0
 30
0.0
  0
INSERT
  5
472
330
1F
100
AcDbEntity
  8
Predefinito
100
AcDbBlockReference
  2
block 169
 10
0.0
 20
0.0
 30
0.0
  0
INSERT
  5
477
330
1F
100
AcDbEntity
  8
Predefinito
100
AcDbBlockReference
  2
block 170
 10
0.0
 20
0.0
 30
0.0
  0
INSERT
  5
47F
330
1F
100
AcDbEntity
  8
Predefinito
100
AcDbBlockReference
  2
block 171
 10
0.0
 20
0.0
 30
0.0
  0
INSERT
  5
487
330
1F
100
AcDbEntity
  8
Predefinito
100
AcDbBlockReference
  2
block 172
 10
0.0
 20
0.0
 30
0.0
  0
INSERT
  5
48C
330
1F
100
AcDbEntity
  8
Predefinito
100
AcDbBlockReference
  2
block 173
 10
0.0
 20
0.0
 30
0.0
  0
INSERT
  5
494
330
1F
100
AcDbEntity
  8
Predefinito
100
AcDbBlockReference
  2
block 174
 10
0.0
 20
0.0
 30
0.0
  0
INSERT
  5
49C
330
1F
100
AcDbEntity
  8
Predefinito
100
AcDbBlockReference
  2
block 175
 10
0.0
 20
0.0
 30
0.0
  0
INSERT
  5
4A4
330
1F
100
AcDbEntity
  8
Predefinito
100
AcDbBlockReference
  2
block 176
 10
0.0
 20
0.0
 30
0.0
  0
INSERT
  5
4AC
330
1F
100
AcDbEntity
  8
Predefinito
100
AcDbBlockReference
  2
block 177
 10
0.0
 20
0.0
 30
0.0
  0
INSERT
  5
4B1
330
1F
100
AcDbEntity
  8
Predefinito
100
AcDbBlockReference
  2
block 178
 10
0.0
 20
0.0
 30
0.0
  0
INSERT
  5
4B6
330
1F
100
AcDbEntity
  8
Predefinito
100
AcDbBlockReference
  2
block 179
 10
0.0
 20
0.0
 30
0.0
  0
INSERT
  5
4BB
330
1F
100
AcDbEntity
  8
Predefinito
100
AcDbBlockReference
  2
block 180
 10
0.0
 20
0.0
 30
0.0
  0
INSERT
  5
4C0
330
1F
100
AcDbEntity
  8
Predefinito
100
AcDbBlockReference
  2
block 181
 10
0.0
 20
0.0
 30
0.0
  0
INSERT
  5
4C8
330
1F
100
AcDbEntity
  8
Predefinito
100
AcDbBlockReference
  2
block 182
 10
0.0
 20
0.0
 30
0.0
  0
INSERT
  5
4D0
330
1F
100
AcDbEntity
  8
Predefinito
100
AcDbBlockReference
  2
block 183
 10
0.0
 20
0.0
 30
0.0
  0
INSERT
  5
4D5
330
1F
100
AcDbEntity
  8
Predefinito
100
AcDbBlockReference
  2
block 184
 10
0.0
 20
0.0
 30
0.0
  0
INSERT
  5
4DD
330
1F
100
AcDbEntity
  8
Predefinito
100
AcDbBlockReference
  2
block 185
 10
0.0
 20
0.0
 30
0.0
  0
INSERT
  5
4E2
330
1F
100
AcDbEntity
  8
Predefinito
100
AcDbBlockReference
  2
block 186
 10
0.0
 20
0.0
 30
0.0
  0
INSERT
  5
4E7
330
1F
100
AcDbEntity
  8
Predefinito
100
AcDbBlockReference
  2
block 187
 10
0.0
 20
0.0
 30
0.0
  0
INSERT
  5
4EC
330
1F
100
AcDbEntity
  8
Predefinito
100
AcDbBlockReference
  2
block 188
 10
0.0
 20
0.0
 30
0.0
  0
INSERT
  5
4F1
330
1F
100
AcDbEntity
  8
Predefinito
100
AcDbBlockReference
  2
block 189
 10
0.0
 20
0.0
 30
0.0
  0
INSERT
  5
4F6
330
1F
100
AcDbEntity
  8
Predefinito
100
AcDbBlockReference
  2
block 190
 10
0.0
 20
0.0
 30
0.0
  0
INSERT
  5
4FE
330
1F
100
AcDbEntity
  8
Predefinito
100
AcDbBlockReference
  2
block 191
 10
0.0
 20
0.0
 30
0.0
  0
INSERT
  5
503
330
1F
100
AcDbEntity
  8
Predefinito
100
AcDbBlockReference
  2
block 192
 10
0.0
 20
0.0
 30
0.0
  0
INSERT
  5
50B
330
1F
100
AcDbEntity
  8
Predefinito
100
AcDbBlockReference
  2
block 193
 10
0.0
 20
0.0
 30
0.0
  0
INSERT
  5
513
330
1F
100
AcDbEntity
  8
Predefinito
100
AcDbBlockReference
  2
block 194
 10
0.0
 20
0.0
 30
0.0
  0
INSERT
  5
518
330
1F
100
AcDbEntity
  8
Predefinito
100
AcDbBlockReference
  2
block 195
 10
0.0
 20
0.0
 30
0.0
  0
INSERT
  5
51D
330
1F
100
AcDbEntity
  8
Predefinito
100
AcDbBlockReference
  2
block 196
 10
0.0
 20
0.0
 30
0.0
  0
INSERT
  5
526
330
1F
100
AcDbEntity
  8
Predefinito
100
AcDbBlockReference
  2
block 197
 10
0.0
 20
0.0
 30
0.0
  0
INSERT
  5
52E
330
1F
100
AcDbEntity
  8
Predefinito
100
AcDbBlockReference
  2
block 198
 10
0.0
 20
0.0
 30
0.0
  0
INSERT
  5
536
330
1F
100
AcDbEntity
  8
Predefinito
100
AcDbBlockReference
  2
block 199
 10
0.0
 20
0.0
 30
0.0
  0
INSERT
  5
53B
330
1F
100
AcDbEntity
  8
Predefinito
100
AcDbBlockReference
  2
block 200
 10
0.0
 20
0.0
 30
0.0
  0
INSERT
  5
543
330
1F
100
AcDbEntity
  8
Predefinito
100
AcDbBlockReference
  2
block 201
 10
0.0
 20
0.0
 30
0.0
  0
INSERT
  5
548
330
1F
100
AcDbEntity
  8
Predefinito
100
AcDbBlockReference
  2
block 202
 10
0.0
 20
0.0
 30
0.0
  0
INSERT
  5
54D
330
1F
100
AcDbEntity
  8
Predefinito
100
AcDbBlockReference
  2
block 203
 10
0.0
 20
0.0
 30
0.0
  0
INSERT
  5
552
330
1F
100
AcDbEntity
  8
Predefinito
100
AcDbBlockReference
  2
block 204
 10
0.0
 20
0.0
 30
0.0
  0
INSERT
  5
55A
330
1F
100
AcDbEntity
  8
Predefinito
100
AcDbBlockReference
  2
block 205
 10
0.0
 20
0.0
 30
0.0
  0
INSERT
  5
55F
330
1F
100
AcDbEntity
  8
Predefinito
100
AcDbBlockReference
  2
block 206
 10
0.0
 20
0.0
 30
0.0
  0
INSERT
  5
567
330
1F
100
AcDbEntity
  8
Predefinito
100
AcDbBlockReference
  2
block 207
 10
0.0
 20
0.0
 30
0.0
  0
ENDSEC
  0
SECTION
  2
OBJECTS
  0
DICTIONARY
  5
C
330
0
100
AcDbDictionary
281
     1
  3
ACAD_GROUP
350
D
  3
ACAD_LAYOUT
350
1A
  3
ACAD_MLINESTYLE
350
17
  3
ACAD_PLOTSETTINGS
350
19
  3
ACAD_PLOTSTYLENAME
350
E
  3
ACAD_TABLESTYLE
350
570
  3
ACAD_VISUALSTYLE
350
2A
  0
DICTIONARY
  5
D
102
{ACAD_REACTORS
330
C
102
}
330
C
100
AcDbDictionary
281
     1
  0
DICTIONARY
  5
1A
102
{ACAD_REACTORS
330
C
102
}
330
C
100
AcDbDictionary
281
     1
  3
Layout1
350
1E
  3
Layout2
350
26
  3
Model
350
22
  0
DICTIONARY
  5
17
102
{ACAD_REACTORS
330
C
102
}
330
C
100
AcDbDictionary
281
     1
  3
Standard
350
18
  0
DICTIONARY
  5
19
102
{ACAD_REACTORS
330
C
102
}
330
C
100
AcDbDictionary
281
     1
  0
ACDBDICTIONARYWDFLT
  5
E
102
{ACAD_REACTORS
330
C
102
}
330
C
100
AcDbDictionary
281
     1
  3
Normal
350
F
100
AcDbDictionaryWithDefault
340
F
  0
DICTIONARY
  5
570
102
{ACAD_REACTORS
330
C
102
}
330
C
100
AcDbDictionary
281
     1
  0
DICTIONARY
  5
2A
102
{ACAD_REACTORS
330
C
102
}
330
C
100
AcDbDictionary
281
     1
  3
2dWireframe
350
2F
  3
3D Hidden
350
31
  3
3dWireframe
350
30
  3
Basic
350
32
  3
Brighten
350
36
  3
ColorChange
350
3A
  3
Conceptual
350
34
  3
Dim
350
35
  3
Facepattern
350
39
  3
Flat
350
2B
  3
FlatWithEdges
350
2C
  3
Gouraud
350
2D
  3
GouraudWithEdges
350
2E
  3
Linepattern
350
38
  3
Realistic
350
33
  3
Thicken
350
37
  0
LAYOUT
  5
1E
102
{ACAD_REACTORS
330
1A
102
}
330
1A
100
AcDbPlotSettings
  1

  2
none_device
  4

  6

 40
0.0
 41
0.0
 42
0.0
 43
0.0
 44
0.0
 45
0.0
 46
0.0
 47
0.0
 48
0.0
 49
0.0
140
0.0
141
0.0
142
1.0
143
1.0
 70
   688
 72
     0
 73
     0
 74
     5
  7

 75
    16
 76
     0
 77
     2
 78
   300
147
1.0
148
0.0
149
0.0
100
AcDbLayout
  1
Layout1
 70
     1
 71
     1
 10
0.0
 20
0.0
 11
12.0
 21
9.0
 12
0.0
 22
0.0
 32
0.0
 14
1.000000000000000E+20
 24
1.000000000000000E+20
 34
1.000000000000000E+20
 15
-1.000000000000000E+20
 25
-1.000000000000000E+20
 35
-1.000000000000000E+20
146
0.0
 13
0.0
 23
0.0
 33
0.0
 16
1.0
 26
0.0
 36
0.0
 17
0.0
 27
1.0
 37
0.0
 76
     0
330
1B
  0
LAYOUT
  5
26
102
{ACAD_REACTORS
330
1A
102
}
330
1A
100
AcDbPlotSettings
  1

  2
none_device
  4

  6

 40
0.0
 41
0.0
 42
0.0
 43
0.0
 44
0.0
 45
0.0
 46
0.0
 47
0.0
 48
0.0
 49
0.0
140
0.0
141
0.0
142
1.0
143
1.0
 70
   688
 72
     0
 73
     0
 74
     5
  7

 75
    16
 76
     0
 77
     2
 78
   300
147
1.0
148
0.0
149
0.0
100
AcDbLayout
  1
Layout2
 70
     1
 71
     2
 10
0.0
 20
0.0
 11
0.0
 21
0.0
 12
0.0
 22
0.0
 32
0.0
 14
0.0
 24
0.0
 34
0.0
 15
0.0
 25
0.0
 35
0.0
146
0.0
 13
0.0
 23
0.0
 33
0.0
 16
1.0
 26
0.0
 36
0.0
 17
0.0
 27
1.0
 37
0.0
 76
     0
330
23
  0
LAYOUT
  5
22
102
{ACAD_REACTORS
330
1A
102
}
330
1A
100
AcDbPlotSettings
  1

  2
none_device
  4

  6

 40
0.0
 41
0.0
 42
0.0
 43
0.0
 44
0.0
 45
0.0
 46
0.0
 47
0.0
 48
0.0
 49
0.0
140
0.0
141
0.0
142
1.0
143
1.0
 70
  1712
 72
     0
 73
     0
 74
     0
  7

 75
     0
 76
     0
 77
     2
 78
   300
147
1.0
148
0.0
149
0.0
100
AcDbLayout
  1
Model
 70
     1
 71
     0
 10
0.0
 20
0.0
 11
12.0
 21
9.0
 12
0.0
 22
0.0
 32
0.0
 14
1.000000000000000E+20
 24
1.000000000000000E+20
 34
1.000000000000000E+20
 15
-1.000000000000000E+20
 25
-1.000000000000000E+20
 35
-1.000000000000000E+20
146
0.0
 13
0.0
 23
0.0
 33
0.0
 16
1.0
 26
0.0
 36
0.0
 17
0.0
 27
1.0
 37
0.0
 76
     0
330
1F
331
29
  0
MLINESTYLE
  5
18
102
{ACAD_REACTORS
330
17
102
}
330
17
100
AcDbMlineStyle
  2
Standard
 70
     0
  3

 62
   256
 51
90.0
 52
90.0
 71
     2
 49
0.5
 62
   256
  6
BYLAYER
 49
-0.5
 62
   256
  6
BYLAYER
  0
ACDBPLACEHOLDER
  5
F
102
{ACAD_REACTORS
330
E
102
}
330
E
  0
VISUALSTYLE
  5
2F
102
{ACAD_REACTORS
330
2A
102
}
330
2A
100
AcDbVisualStyle
  2
2dWireframe
 70
     4
 71
     0
 72
     2
 73
     0
 90
        0
 40
-0.6
 41
-30.0
 62
     5
 63
     7
421
 16777215
 74
     1
 91
        4
 64
     7
 65
   257
 75
     1
175
     1
 42
1.0
 92
        0
 66
   257
 43
1.0
 76
     1
 77
     6
 78
     2
 67
     7
 79
     5
170
     0
171
     0
290
     0
174
     0
 93
        1
 44
0.0
173
     0
291
     0
 45
0.0
1001
ACAD
1000
AcDbSavedByObjectVersion
1070
     0
  0
VISUALSTYLE
  5
31
102
{ACAD_REACTORS
330
2A
102
}
330
2A
100
AcDbVisualStyle
  2
3D Hidden
 70
     6
 71
     1
 72
     2
 73
     2
 90
        0
 40
-0.6
 41
-30.0
 62
     5
 63
     7
421
 16777215
 74
     2
 91
        2
 64
     7
 65
   257
 75
     2
175
     1
 42
40.0
 92
        0
 66
   257
 43
1.0
 76
     1
 77
     6
 78
     2
 67
     7
 79
     3
170
     0
171
     0
290
     0
174
     0
 93
        1
 44
0.0
173
     0
291
     0
 45
0.0
1001
ACAD
1000
AcDbSavedByObjectVersion
1070
     0
  0
VISUALSTYLE
  5
30
102
{ACAD_REACTORS
330
2A
102
}
330
2A
100
AcDbVisualStyle
  2
3dWireframe
 70
     5
 71
     0
 72
     2
 73
     0
 90
        0
 40
-0.6
 41
-30.0
 62
     5
 63
     7
421
 16777215
 74
     1
 91
        4
 64
     7
 65
   257
 75
     1
175
     1
 42
1.0
 92
        0
 66
   257
 43
1.0
 76
     1
 77
     6
 78
     2
 67
     7
 79
     5
170
     0
171
     0
290
     0
174
     0
 93
        1
 44
0.0
173
     0
291
     0
 45
0.0
1001
ACAD
1000
AcDbSavedByObjectVersion
1070
     0
  0
VISUALSTYLE
  5
32
102
{ACAD_REACTORS
330
2A
102
}
330
2A
100
AcDbVisualStyle
  2
Basic
 70
     7
 71
     1
 72
     0
 73
     1
 90
        0
 40
-0.6
 41
-30.0
 62
     5
 63
     7
421
 16777215
 74
     0
 91
        4
 64
     7
 65
   257
 75
     1
175
     1
 42
1.0
 92
        8
 66
     7
 43
1.0
 76
     1
 77
     6
 78
     2
 67
     7
 79
     5
170
     0
171
     0
290
     0
174
     0
 93
        1
 44
0.0
173
     0
291
     1
 45
0.0
1001
ACAD
1000
AcDbSavedByObjectVersion
1070
     0
  0
VISUALSTYLE
  5
36
102
{ACAD_REACTORS
330
2A
102
}
330
2A
100
AcDbVisualStyle
  2
Brighten
 70
    12
 71
     2
 72
     2
 73
     0
 90
        0
 40
-0.6
 41
-30.0
 62
     5
 63
     7
421
 16777215
 74
     1
 91
        4
 64
     7
 65
   257
 75
     1
175
     1
 42
1.0
 92
        8
 66
     7
 43
1.0
 76
     1
 77
     6
 78
     2
 67
     7
 79
     5
170
     0
171
     0
290
     0
174
     0
 93
        1
 44
50.0
173
     0
291
     1
 45
0.0
1001
ACAD
1000
AcDbSavedByObjectVersion
1070
     0
  0
VISUALSTYLE
  5
3A
102
{ACAD_REACTORS
330
2A
102
}
330
2A
100
AcDbVisualStyle
  2
ColorChange
 70
    16
 71
     2
 72
     2
 73
     3
 90
        0
 40
-0.6
 41
-30.0
 62
     5
 63
     8
421
  8421504
 74
     1
 91
        4
 64
     7
 65
   257
 75
     1
175
     1
 42
1.0
 92
        8
 66
     8
424
  8421504
 43
1.0
 76
     1
 77
     6
 78
     2
 67
     7
 79
     5
170
     0
171
     0
290
     0
174
     0
 93
        1
 44
0.0
173
     0
291
     1
 45
0.0
1001
ACAD
1000
AcDbSavedByObjectVersion
1070
     0
  0
VISUALSTYLE
  5
34
102
{ACAD_REACTORS
330
2A
102
}
330
2A
100
AcDbVisualStyle
  2
Conceptual
 70
     9
 71
     3
 72
     2
 73
     0
 90
        0
 40
-0.6
 41
-30.0
 62
     5
 63
     7
421
 16777215
 74
     2
 91
        2
 64
     7
 65
   257
 75
     1
175
     1
 42
40.0
 92
        8
 66
     7
 43
1.0
 76
     1
 77
     6
 78
     2
 67
     7
 79
     3
170
     0
171
     0
290
     0
174
     0
 93
        1
 44
0.0
173
     0
291
     0
 45
0.0
1001
ACAD
1000
AcDbSavedByObjectVersion
1070
     0
  0
VISUALSTYLE
  5
35
102
{ACAD_REACTORS
330
2A
102
}
330
2A
100
AcDbVisualStyle
  2
Dim
 70
    11
 71
     2
 72
     2
 73
     0
 90
        0
 40
-0.6
 41
-30.0
 62
     5
 63
     7
421
 16777215
 74
     1
 91
        4
 64
     7
 65
   257
 75
     1
175
     1
 42
1.0
 92
        8
 66
     7
 43
1.0
 76
     1
 77
     6
 78
     2
 67
     7
 79
     5
170
     0
171
     0
290
     0
174
     0
 93
        1
 44
-50.0
173
     0
291
     1
 45
0.0
1001
ACAD
1000
AcDbSavedByObjectVersion
1070
     0
  0
VISUALSTYLE
  5
39
102
{ACAD_REACTORS
330
2A
102
}
330
2A
100
AcDbVisualStyle
  2
Facepattern
 70
    15
 71
     2
 72
     2
 73
     0
 90
        0
 40
-0.6
 41
-30.0
 62
     5
 63
     7
421
 16777215
 74
     1
 91
        4
 64
     7
 65
   257
 75
     1
175
     1
 42
1.0
 92
        8
 66
     7
 43
1.0
 76
     1
 77
     6
 78
     2
 67
     7
 79
     5
170
     0
171
     0
290
     0
174
     0
 93
        1
 44
0.0
173
     0
291
     1
 45
0.0
1001
ACAD
1000
AcDbSavedByObjectVersion
1070
     0
  0
VISUALSTYLE
  5
2B
102
{ACAD_REACTORS
330
2A
102
}
330
2A
100
AcDbVisualStyle
  2
Flat
 70
     0
 71
     2
 72
     1
 73
     1
 90
        2
 40
-0.6
 41
30.0
 62
     5
 63
     7
421
 16777215
 74
     0
 91
        4
 64
     7
 65
   257
 75
     1
175
     1
 42
1.0
 92
        8
 66
     7
 43
1.0
 76
     1
 77
     6
 78
     2
 67
     7
 79
     5
170
     0
171
     0
290
     0
174
     0
 93
       13
 44
0.0
173
     0
291
     1
 45
0.0
1001
ACAD
1000
AcDbSavedByObjectVersion
1070
     0
  0
VISUALSTYLE
  5
2C
102
{ACAD_REACTORS
330
2A
102
}
330
2A
100
AcDbVisualStyle
  2
FlatWithEdges
 70
     1
 71
     2
 72
     1
 73
     1
 90
        2
 40
-0.6
 41
30.0
 62
     5
 63
     7
421
 16777215
 74
     1
 91
        4
 64
     7
 65
   257
 75
     1
175
     1
 42
1.0
 92
        0
 66
   257
 43
1.0
 76
     1
 77
     6
 78
     2
 67
     7
 79
     5
170
     0
171
     0
290
     0
174
     0
 93
       13
 44
0.0
173
     0
291
     1
 45
0.0
1001
ACAD
1000
AcDbSavedByObjectVersion
1070
     0
  0
VISUALSTYLE
  5
2D
102
{ACAD_REACTORS
330
2A
102
}
330
2A
100
AcDbVisualStyle
  2
Gouraud
 70
     2
 71
     2
 72
     2
 73
     1
 90
        2
 40
-0.6
 41
30.0
 62
     5
 63
     7
421
 16777215
 74
     0
 91
        4
 64
     7
 65
   257
 75
     1
175
     1
 42
1.0
 92
        0
 66
     7
 43
1.0
 76
     1
 77
     6
 78
     2
 67
     7
 79
     5
170
     0
171
     0
290
     0
174
     0
 93
       13
 44
0.0
173
     0
291
     1
 45
0.0
1001
ACAD
1000
AcDbSavedByObjectVersion
1070
     0
  0
VISUALSTYLE
  5
2E
102
{ACAD_REACTORS
330
2A
102
}
330
2A
100
AcDbVisualStyle
  2
GouraudWithEdges
 70
     3
 71
     2
 72
     2
 73
     1
 90
        2
 40
-0.6
 41
30.0
 62
     5
 63
     7
421
 16777215
 74
     1
 91
        4
 64
     7
 65
   257
 75
     1
175
     1
 42
1.0
 92
        0
 66
   257
 43
1.0
 76
     1
 77
     6
 78
     2
 67
     7
 79
     5
170
     0
171
     0
290
     0
174
     0
 93
       13
 44
0.0
173
     0
291
     1
 45
0.0
1001
ACAD
1000
AcDbSavedByObjectVersion
1070
     0
  0
VISUALSTYLE
  5
38
102
{ACAD_REACTORS
330
2A
102
}
330
2A
100
AcDbVisualStyle
  2
Linepattern
 70
    14
 71
     2
 72
     2
 73
     0
 90
        0
 40
-0.6
 41
-30.0
 62
     5
 63
     7
421
 16777215
 74
     1
 91
        4
 64
     7
 65
   257
 75
     7
175
     7
 42
1.0
 92
        8
 66
     7
 43
1.0
 76
     1
 77
     6
 78
     2
 67
     7
 79
     5
170
     0
171
     0
290
     0
174
     0
 93
        1
 44
0.0
173
     0
291
     1
 45
0.0
1001
ACAD
1000
AcDbSavedByObjectVersion
1070
     0
  0
VISUALSTYLE
  5
33
102
{ACAD_REACTORS
330
2A
102
}
330
2A
100
AcDbVisualStyle
  2
Realistic
 70
     8
 71
     2
 72
     2
 73
     0
 90
        0
 40
-0.6
 41
-30.0
 62
     5
 63
     7
421
 16777215
 74
     1
 91
        0
 64
     7
 65
   257
 75
     1
175
     1
 42
1.0
 92
        8
 66
     8
424
  7895160
 43
1.0
 76
     1
 77
     6
 78
     2
 67
     7
 79
     5
170
     0
171
     0
290
     0
174
     0
 93
       13
 44
0.0
173
     0
291
     0
 45
0.0
1001
ACAD
1000
AcDbSavedByObjectVersion
1070
     0
  0
VISUALSTYLE
  5
37
102
{ACAD_REACTORS
330
2A
102
}
330
2A
100
AcDbVisualStyle
  2
Thicken
 70
    13
 71
     2
 72
     2
 73
     0
 90
        0
 40
-0.6
 41
-30.0
 62
     5
 63
     7
421
 16777215
 74
     1
 91
        4
 64
     7
 65
   257
 75
     1
175
     1
 42
1.0
 92
       12
 66
     7
 43
1.0
 76
     1
 77
     6
 78
     2
 67
     7
 79
     5
170
     0
171
     0
290
     0
174
     0
 93
        1
 44
0.0
173
     0
291
     1
 45
0.0
1001
ACAD
1000
AcDbSavedByObjectVersion
1070
     0
  0
ENDSEC
  0
EOF
