  0
SECTION
  2
HEADER
  9
$ACADVER
  1
AC1009
  9
$DWGCODEPAGE
  3
ansi_1252
  9
$INSBASE
 10
0.0
 20
0.0
 30
0.0
  9
$EXTMIN
 10
-3073.15039171805
 20
-1718.86194152685
 30
0.0
  9
$EXTMAX
 10
-624.8043791828861
 20
1354.089128371224
 30
0.0
  9
$LIMMIN
 10
0.0
 20
0.0
  9
$LIMMAX
 10
12.0
 20
9.0
  9
$ORTHOMODE
 70
     0
  9
$REGENMODE
 70
     1
  9
$FILLMODE
 70
     1
  9
$QTEXTMODE
 70
     0
  9
$MIRRTEXT
 70
     1
  9
$DRAGMODE
 70
     2
  9
$LTSCALE
 40
1.0
  9
$OSMODE
 70
    37
  9
$ATTMODE
 70
     1
  9
$TEXTSIZE
 40
0.2
  9
$TRACEWID
 40
0.05
  9
$TEXTSTYLE
  7
STANDARD
  9
$CLAYER
  8
0
  9
$CELTYPE
  6
BYLAYER
  9
$CECOLOR
 62
   256
  9
$DIMSCALE
 40
1.0
  9
$DIMASZ
 40
0.18
  9
$DIMEXO
 40
0.0625
  9
$DIMDLI
 40
0.38
  9
$DIMRND
 40
0.0
  9
$DIMDLE
 40
0.0
  9
$DIMEXE
 40
0.18
  9
$DIMTP
 40
0.0
  9
$DIMTM
 40
0.0
  9
$DIMTXT
 40
0.18
  9
$DIMCEN
 40
0.09
  9
$DIMTSZ
 40
0.0
  9
$DIMTOL
 70
     0
  9
$DIMLIM
 70
     0
  9
$DIMTIH
 70
     1
  9
$DIMTOH
 70
     1
  9
$DIMSE1
 70
     0
  9
$DIMSE2
 70
     0
  9
$DIMTAD
 70
     0
  9
$DIMZIN
 70
     0
  9
$DIMBLK
  1

  9
$DIMASO
 70
     1
  9
$DIMSHO
 70
     1
  9
$DIMPOST
  1

  9
$DIMAPOST
  1

  9
$DIMALT
 70
     0
  9
$DIMALTD
 70
     2
  9
$DIMALTF
 40
25.4
  9
$DIMLFAC
 40
1.0
  9
$DIMTOFL
 70
     0
  9
$DIMTVP
 40
0.0
  9
$DIMTIX
 70
     0
  9
$DIMSOXD
 70
     0
  9
$DIMSAH
 70
     0
  9
$DIMBLK1
  1

  9
$DIMBLK2
  1

  9
$DIMSTYLE
  2
STANDARD
  9
$DIMCLRD
 70
     0
  9
$DIMCLRE
 70
     0
  9
$DIMCLRT
 70
     0
  9
$DIMTFAC
 40
1.0
  9
$DIMGAP
 40
0.09
  9
$LUNITS
 70
     2
  9
$LUPREC
 70
     4
  9
$SKETCHINC
 40
0.1
  9
$FILLETRAD
 40
0.5
  9
$AUNITS
 70
     0
  9
$AUPREC
 70
     0
  9
$MENU
  1
.
  9
$ELEVATION
 40
0.0
  9
$PELEVATION
 40
0.0
  9
$THICKNESS
 40
0.0
  9
$LIMCHECK
 70
     0
  9
$CHAMFERA
 40
0.5
  9
$CHAMFERB
 40
0.5
  9
$SKPOLY
 70
     0
  9
$TDCREATE
 40
2454846.570193137
  9
$TDUPDATE
 40
2454846.570193148
  9
$TDINDWG
 40
0.0000000116
  9
$TDUSRTIMER
 40
0.0000000116
  9
$USRTIMER
 70
     1
  9
$ANGBASE
 50
0.0
  9
$ANGDIR
 70
     0
  9
$PDMODE
 70
     0
  9
$PDSIZE
 40
0.0
  9
$PLINEWID
 40
0.0
  9
$COORDS
 70
     1
  9
$SPLFRAME
 70
     0
  9
$SPLINETYPE
 70
     6
  9
$SPLINESEGS
 70
     8
  9
$ATTDIA
 70
     0
  9
$ATTREQ
 70
     1
  9
$HANDLING
 70
     1
  9
$HANDSEED
  5
C0A
  9
$SURFTAB1
 70
     6
  9
$SURFTAB2
 70
     6
  9
$SURFTYPE
 70
     6
  9
$SURFU
 70
     6
  9
$SURFV
 70
     6
  9
$UCSNAME
  2

  9
$UCSORG
 10
0.0
 20
0.0
 30
0.0
  9
$UCSXDIR
 10
1.0
 20
0.0
 30
0.0
  9
$UCSYDIR
 10
0.0
 20
1.0
 30
0.0
  9
$PUCSNAME
  2

  9
$PUCSORG
 10
0.0
 20
0.0
 30
0.0
  9
$PUCSXDIR
 10
1.0
 20
0.0
 30
0.0
  9
$PUCSYDIR
 10
0.0
 20
1.0
 30
0.0
  9
$USERI1
 70
     0
  9
$USERI2
 70
     0
  9
$USERI3
 70
     0
  9
$USERI4
 70
     0
  9
$USERI5
 70
     0
  9
$USERR1
 40
13.01
  9
$USERR2
 40
0.0
  9
$USERR3
 40
0.0
  9
$USERR4
 40
0.0
  9
$USERR5
 40
0.0
  9
$WORLDVIEW
 70
     1
  9
$SHADEDGE
 70
     3
  9
$SHADEDIF
 70
    70
  9
$TILEMODE
 70
     1
  9
$MAXACTVP
 70
    64
  9
$PLIMCHECK
 70
     0
  9
$PEXTMIN
 10
1.00000000000000E+20
 20
1.00000000000000E+20
 30
1.00000000000000E+20
  9
$PEXTMAX
 10
-1.00000000000000E+20
 20
-1.00000000000000E+20
 30
-1.00000000000000E+20
  9
$PLIMMIN
 10
0.0
 20
0.0
  9
$PLIMMAX
 10
12.0
 20
9.0
  9
$UNITMODE
 70
     0
  9
$VISRETAIN
 70
     1
  9
$PLINEGEN
 70
     0
  9
$PSLTSCALE
 70
     1
  0
ENDSEC
  0
SECTION
  2
TABLES
  0
TABLE
  2
VPORT
 70
     2
  0
VPORT
  2
*ACTIVE
 70
     0
 10
0.0
 20
0.0
 11
1.0
 21
1.0
 12
-1848.977385450468
 22
-182.386406577813
 13
0.0
 23
0.0
 14
0.5
 24
0.5
 15
0.5
 25
0.5
 16
0.0
 26
0.0
 36
1.0
 17
0.0
 27
0.0
 37
0.0
 40
3380.246176887882
 41
1.60267857142857
 42
50.0
 43
0.0
 44
0.0
 50
0.0
 51
0.0
 71
     0
 72
   100
 73
     1
 74
     3
 75
     0
 76
     0
 77
     0
 78
     0
  0
ENDTAB
  0
TABLE
  2
LTYPE
 70
     8
  0
LTYPE
  2
CONTINUOUS
 70
     0
  3
Solid line
 72
    65
 73
     0
 40
0.0
  0
LTYPE
  2
DASHED
 70
     0
  3
Dashed
 72
    65
 73
     2
 40
15.0
 49
7.0
 49
-8.0
  0
LTYPE
  2
DOTTED
 70
     0
  3
Dotted
 72
    65
 73
     2
 40
1.0
 49
0.0
 49
-1.0
  0
LTYPE
  2
DOT_CENTER
 70
     0
  3
Dot_Center
 72
    65
 73
     4
 40
14.0
 49
12.0
 49
-1.0
 49
0.0
 49
-1.0
  0
LTYPE
  2
LONG_DASHED
 70
     0
  3
Long_Dashed
 72
    65
 73
     2
 40
15.0
 49
10.0
 49
-5.0
  0
LTYPE
  2
DASH_CENTER
 70
     0
  3
Dash_Center
 72
    65
 73
     4
 40
14.0
 49
11.0
 49
-1.0
 49
1.0
 49
-1.0
  0
LTYPE
  2
PHANTOM
 70
     0
  3
Phantom
 72
    65
 73
     6
 40
13.0
 49
10.0
 49
-1.0
 49
0.0
 49
-1.0
 49
0.0
 49
-1.0
  0
LTYPE
  2
CENTER_DASH_DASH
 70
     0
  3
Center_Dash_Dash
 72
    65
 73
     6
 40
14.0
 49
9.0
 49
-1.0
 49
1.0
 49
-1.0
 49
1.0
 49
-1.0
  0
ENDTAB
  0
TABLE
  2
LAYER
 70
     2
  0
LAYER
  2
0
 70
     0
 62
     7
  6
CONTINUOUS
  0
LAYER
  2
1
 70
     0
 62
     7
  6
CONTINUOUS
  0
ENDTAB
  0
TABLE
  2
STYLE
 70
     1
  0
STYLE
  2
STANDARD
 70
     0
 40
0.0
 41
1.0
 50
0.0
 71
     0
 42
0.2
  3
txt
  4

  0
ENDTAB
  0
TABLE
  2
VIEW
 70
     0
  0
ENDTAB
  0
TABLE
  2
UCS
 70
     0
  0
ENDTAB
  0
TABLE
  2
APPID
 70
     1
  0
APPID
  2
ACAD
 70
     0
  0
ENDTAB
  0
TABLE
  2
DIMSTYLE
 70
     1
  0
DIMSTYLE
  2
STANDARD
 70
     0
  3

  4

  5

  6

  7

 40
1.0
 41
0.18
 42
0.0625
 43
0.38
 44
0.18
 45
0.0
 46
0.0
 47
0.0
 48
0.0
140
0.18
141
0.09
142
0.0
143
25.4
144
1.0
145
0.0
146
1.0
147
0.09
 71
     0
 72
     0
 73
     1
 74
     1
 75
     0
 76
     0
 77
     0
 78
     0
170
     0
171
     2
172
     0
173
     0
174
     0
175
     0
176
     0
177
     0
178
     0
  0
ENDTAB
  0
ENDSEC
  0
SECTION
  2
BLOCKS
  0
BLOCK
  8
0
  2
$MODEL_SPACE
 70
     0
 10
0.0
 20
0.0
 30
0.0
  3
$MODEL_SPACE
  1

  0
ENDBLK
  5
21
  8
0
  0
BLOCK
 67
     1
  8
0
  2
$PAPER_SPACE
 70
     0
 10
0.0
 20
0.0
 30
0.0
  3
$PAPER_SPACE
  1

  0
ENDBLK
  5
1D
 67
     1
  8
0
  0
ENDSEC
  0
SECTION
  2
ENTITIES
  0
LINE
  5
36
  8
1
  6
CONTINUOUS
 62
     3
 10
-2700.619895643639
 20
-519.9328157686668
 30
0.0
 11
-2700.619895643639
 21
-260.0
 31
0.0
  0
LINE
  5
37
  8
1
  6
CONTINUOUS
 62
     1
 10
-2700.619895643639
 20
-561.8338836890482
 30
0.0
 11
-2700.619895643639
 21
-519.9328157686668
 31
0.0
  0
LINE
  5
38
  8
1
  6
CONTINUOUS
 62
     1
 10
-2700.619847622663
 20
-751.3167179937482
 30
0.0
 11
-2700.619847622663
 21
-578.0451285870759
 31
0.0
  0
LINE
  5
39
  8
0
  6
CONTINUOUS
 62
     7
 10
-2464.068651654418
 20
-559.2977351824328
 30
0.0
 11
-2553.444127532299
 21
-537.177554319817
 31
0.0
  0
LINE
  5
3A
  8
0
  6
CONTINUOUS
 62
     7
 10
-2450.637315711266
 20
-595.1154028003049
 30
0.0
 11
-2570.079625579169
 21
-563.525942991692
 31
0.0
  0
LINE
  5
3B
  8
0
  6
CONTINUOUS
 62
     7
 10
-2426.981358977609
 20
-1243.47565002294
 30
0.0
 11
-2426.981358977609
 21
-1223.39483947607
 31
0.0
  0
LINE
  5
3C
  8
0
  6
CONTINUOUS
 62
     7
 10
-2426.981358977609
 20
-1150.29362792822
 30
0.0
 11
-2426.981358977609
 21
-1223.39483947607
 31
0.0
  0
LINE
  5
3D
  8
0
  6
CONTINUOUS
 62
     7
 10
-2396.889195891669
 20
-1243.18243713232
 30
0.0
 11
-2396.979466887769
 21
-1243.46945495458
 31
0.0
  0
LINE
  5
3E
  8
0
  6
CONTINUOUS
 62
     7
 10
-2396.589269133859
 20
-1242.25516052099
 30
0.0
 11
-2396.889195891669
 21
-1243.18243713232
 31
0.0
  0
LINE
  5
3F
  8
0
  6
CONTINUOUS
 62
     7
 10
-2395.731420012769
 20
-1239.68908996435
 30
0.0
 11
-2396.589269133859
 21
-1242.25516052099
 31
0.0
  0
LINE
  5
40
  8
0
  6
CONTINUOUS
 62
     7
 10
-2393.811925383859
 20
-1234.12915344091
 30
0.0
 11
-2395.731420012769
 21
-1239.68908996435
 31
0.0
  0
LINE
  5
41
  8
0
  6
CONTINUOUS
 62
     7
 10
-2391.652257415109
 20
-1227.98565978857
 30
0.0
 11
-2393.811925383859
 21
-1234.12915344091
 31
0.0
  0
LINE
  5
42
  8
0
  6
CONTINUOUS
 62
     7
 10
-2383.640050383859
 20
-1205.1364166245
 30
0.0
 11
-2391.652257415109
 21
-1227.98565978857
 31
0.0
  0
LINE
  5
43
  8
0
  6
CONTINUOUS
 62
     7
 10
-2378.822118254959
 20
-1190.97699279638
 30
0.0
 11
-2383.640050383859
 21
-1205.1364166245
 31
0.0
  0
LINE
  5
44
  8
0
  6
CONTINUOUS
 62
     7
 10
-2374.937230559639
 20
-1179.21005554052
 30
0.0
 11
-2378.822118254959
 21
-1190.97699279638
 31
0.0
  0
LINE
  5
45
  8
0
  6
CONTINUOUS
 62
     7
 10
-2371.575597258859
 20
-1168.73372192236
 30
0.0
 11
-2374.937230559639
 21
-1179.21005554052
 31
0.0
  0
LINE
  5
46
  8
0
  6
CONTINUOUS
 62
     7
 10
-2368.150792571359
 20
-1157.74779052587
 30
0.0
 11
-2371.575597258859
 21
-1168.73372192236
 31
0.0
  0
LINE
  5
47
  8
0
  6
CONTINUOUS
 62
     7
 10
-2364.017919036209
 20
-1144.02504272314
 30
0.0
 11
-2368.150792571359
 21
-1157.74779052587
 31
0.0
  0
LINE
  5
48
  8
0
  6
CONTINUOUS
 62
     7
 10
-2360.612279387769
 20
-1132.25479431005
 30
0.0
 11
-2364.017919036209
 21
-1144.02504272314
 31
0.0
  0
LINE
  5
49
  8
0
  6
CONTINUOUS
 62
     7
 10
-2357.975987883859
 20
-1122.69353027197
 30
0.0
 11
-2360.612279387769
 21
-1132.25479431005
 31
0.0
  0
LINE
  5
4A
  8
0
  6
CONTINUOUS
 62
     7
 10
-2355.441319915109
 20
-1113.05586547704
 30
0.0
 11
-2357.975987883859
 21
-1122.69353027197
 31
0.0
  0
LINE
  5
4B
  8
0
  6
CONTINUOUS
 62
     7
 10
-2353.371373626049
 20
-1104.80964965673
 30
0.0
 11
-2355.441319915109
 21
-1113.05586547704
 31
0.0
  0
LINE
  5
4C
  8
0
  6
CONTINUOUS
 62
     7
 10
-2426.981358977609
 20
-626.1978013150352
 30
0.0
 11
-2426.981358977609
 21
-1150.29362792822
 31
0.0
  0
LINE
  5
4D
  8
0
  6
CONTINUOUS
 62
     7
 10
-2410.570348235419
 20
-573.286349485832
 30
0.0
 11
-2409.866002532299
 21
-573.009677122551
 31
0.0
  0
LINE
  5
4E
  8
0
  6
CONTINUOUS
 62
     7
 10
-2411.254430266669
 20
-573.565402220207
 30
0.0
 11
-2410.570348235419
 21
-573.286349485832
 31
0.0
  0
LINE
  5
4F
  8
0
  6
CONTINUOUS
 62
     7
 10
-2412.242223235419
 20
-573.988162229973
 30
0.0
 11
-2411.254430266669
 21
-573.565402220207
 31
0.0
  0
LINE
  5
50
  8
0
  6
CONTINUOUS
 62
     7
 10
-2415.359840858714
 20
-575.4038275087131
 30
0.0
 11
-2412.242223235419
 21
-573.988162229973
 31
0.0
  0
LINE
  5
51
  8
0
  6
CONTINUOUS
 62
     7
 10
-2430.456461311943
 20
-582.7486192696332
 30
0.0
 11
-2413.183385344799
 21
-574.415530394035
 31
0.0
  0
LINE
  5
52
  8
0
  6
CONTINUOUS
 62
     7
 10
-2414.932530852609
 20
-575.286196897942
 30
0.0
 11
-2414.079747649489
 21
-574.847964476067
 31
0.0
  0
LINE
  5
53
  8
0
  6
CONTINUOUS
 62
     7
 10
-2415.476476165109
 20
-575.5813323959881
 30
0.0
 11
-2414.932530852609
 21
-575.286196897942
 31
0.0
  0
LINE
  5
54
  8
0
  6
CONTINUOUS
 62
     7
 10
-2416.000279876049
 20
-575.878726194817
 30
0.0
 11
-2415.476476165109
 21
-575.5813323959881
 31
0.0
  0
LINE
  5
55
  8
0
  6
CONTINUOUS
 62
     7
 10
-2387.040520375609
 20
-571.23608703466
 30
0.0
 11
-2397.655065032299
 21
-571.23608703466
 31
0.0
  0
LINE
  5
56
  8
0
  6
CONTINUOUS
 62
     7
 10
-2399.103917571359
 20
-571.26684875341
 30
0.0
 11
-2397.655065032299
 21
-571.23608703466
 31
0.0
  0
LINE
  5
57
  8
0
  6
CONTINUOUS
 62
     7
 10
-2400.534581633859
 20
-571.333712767082
 30
0.0
 11
-2399.103917571359
 21
-571.26684875341
 31
0.0
  0
LINE
  5
58
  8
0
  6
CONTINUOUS
 62
     7
 10
-2402.617650481519
 20
-571.5000335678631
 30
0.0
 11
-2400.534581633859
 21
-571.333712767082
 31
0.0
  0
LINE
  5
59
  8
0
  6
CONTINUOUS
 62
     7
 10
-2404.586400481519
 20
-571.741671751457
 30
0.0
 11
-2402.617650481519
 21
-571.5000335678631
 31
0.0
  0
LINE
  5
5A
  8
0
  6
CONTINUOUS
 62
     7
 10
-2406.408238860419
 20
-572.054019163567
 30
0.0
 11
-2404.586400481519
 21
-571.741671751457
 31
0.0
  0
LINE
  5
5B
  8
0
  6
CONTINUOUS
 62
     7
 10
-2408.043492766669
 20
-572.429751585442
 30
0.0
 11
-2406.408238860419
 21
-572.054019163567
 31
0.0
  0
LINE
  5
5C
  8
0
  6
CONTINUOUS
 62
     7
 10
-2409.007115813549
 20
-572.709170530754
 30
0.0
 11
-2408.043492766669
 21
-572.429751585442
 31
0.0
  0
LINE
  5
5D
  8
0
  6
CONTINUOUS
 62
     7
 10
-2409.866002532299
 20
-573.009677122551
 30
0.0
 11
-2409.007115813549
 21
-572.709170530754
 31
0.0
  0
LINE
  5
5E
  8
0
  6
CONTINUOUS
 62
     1
 10
-2397.156957122139
 20
-572.641818235832
 30
0.0
 11
-2397.655065032299
 21
-571.23608703466
 31
0.0
  0
LINE
  5
5F
  8
0
  6
CONTINUOUS
 62
     1
 10
-2396.465001555739
 20
-574.594638060051
 30
0.0
 11
-2397.156957122139
 21
-572.641818235832
 31
0.0
  0
LINE
  5
60
  8
0
  6
CONTINUOUS
 62
     7
 10
-2382.135594817459
 20
-585.34155578466
 30
0.0
 11
-2387.040520375609
 21
-571.23608703466
 31
0.0
  0
LINE
  5
61
  8
0
  6
CONTINUOUS
 62
     7
 10
-2377.653417083079
 20
-598.725741575676
 30
0.0
 11
-2382.135594817459
 21
-585.34155578466
 31
0.0
  0
LINE
  5
62
  8
0
  6
CONTINUOUS
 62
     7
 10
-2373.260228606519
 20
-612.3684417709881
 30
0.0
 11
-2377.653417083079
 21
-598.725741575676
 31
0.0
  0
LINE
  5
63
  8
0
  6
CONTINUOUS
 62
     7
 10
-2369.027623626049
 20
-626.05981750341
 30
0.0
 11
-2373.260228606519
 21
-612.3684417709881
 31
0.0
  0
LINE
  5
64
  8
0
  6
CONTINUOUS
 62
     7
 10
-2364.956151458079
 20
-639.7978851303631
 30
0.0
 11
-2369.027623626049
 21
-626.05981750341
 31
0.0
  0
LINE
  5
65
  8
0
  6
CONTINUOUS
 62
     7
 10
-2361.046544524489
 20
-653.580386351067
 30
0.0
 11
-2364.956151458079
 21
-639.7978851303631
 31
0.0
  0
LINE
  5
66
  8
0
  6
CONTINUOUS
 62
     7
 10
-2357.832311126049
 20
-665.424929808098
 30
0.0
 11
-2361.046544524489
 21
-653.580386351067
 31
0.0
  0
LINE
  5
67
  8
0
  6
CONTINUOUS
 62
     7
 10
-2354.776341887769
 20
-677.310122679192
 30
0.0
 11
-2357.832311126049
 21
-665.424929808098
 31
0.0
  0
LINE
  5
68
  8
0
  6
CONTINUOUS
 62
     7
 10
-2351.883519622139
 20
-689.234713743645
 30
0.0
 11
-2354.776341887769
 21
-677.310122679192
 31
0.0
  0
LINE
  5
69
  8
0
  6
CONTINUOUS
 62
     7
 10
-2349.154515715889
 20
-701.196490477043
 30
0.0
 11
-2351.883519622139
 21
-689.234713743645
 31
0.0
  0
LINE
  5
6A
  8
0
  6
CONTINUOUS
 62
     7
 10
-2346.589818450269
 20
-713.193041990715
 30
0.0
 11
-2349.154515715889
 21
-701.196490477043
 31
0.0
  0
LINE
  5
6B
  8
0
  6
CONTINUOUS
 62
     7
 10
-2344.189916106519
 20
-725.222109983879
 30
0.0
 11
-2346.589818450269
 21
-713.193041990715
 31
0.0
  0
LINE
  5
6C
  8
0
  6
CONTINUOUS
 62
     7
 10
-2341.955296965889
 20
-737.28134460302
 30
0.0
 11
-2344.189916106519
 21
-725.222109983879
 31
0.0
  0
LINE
  5
6D
  8
0
  6
CONTINUOUS
 62
     7
 10
-2339.886388274489
 20
-749.368212889152
 30
0.0
 11
-2341.955296965889
 21
-737.28134460302
 31
0.0
  0
LINE
  5
6E
  8
0
  6
CONTINUOUS
 62
     7
 10
-2337.983556243239
 20
-761.48039550634
 30
0.0
 11
-2339.886388274489
 21
-749.368212889152
 31
0.0
  0
LINE
  5
6F
  8
0
  6
CONTINUOUS
 62
     7
 10
-2336.247167083079
 20
-773.615679930168
 30
0.0
 11
-2337.983556243239
 21
-761.48039550634
 31
0.0
  0
LINE
  5
70
  8
0
  6
CONTINUOUS
 62
     7
 10
-2334.677525969799
 20
-785.771655271965
 30
0.0
 11
-2336.247167083079
 21
-773.615679930168
 31
0.0
  0
LINE
  5
71
  8
0
  6
CONTINUOUS
 62
     7
 10
-2333.274877044019
 20
-797.945971678215
 30
0.0
 11
-2334.677525969799
 21
-785.771655271965
 31
0.0
  0
LINE
  5
72
  8
0
  6
CONTINUOUS
 62
     7
 10
-2332.039525481519
 20
-810.136355589348
 30
0.0
 11
-2333.274877044019
 21
-797.945971678215
 31
0.0
  0
LINE
  5
73
  8
0
  6
CONTINUOUS
 62
     7
 10
-2330.971715422919
 20
-822.34042663427
 30
0.0
 11
-2332.039525481519
 21
-810.136355589348
 31
0.0
  0
LINE
  5
74
  8
0
  6
CONTINUOUS
 62
     7
 10
-2330.071507903389
 20
-834.555834959465
 30
0.0
 11
-2330.971715422919
 21
-822.34042663427
 31
0.0
  0
LINE
  5
75
  8
0
  6
CONTINUOUS
 62
     7
 10
-2329.339452239329
 20
-846.775164793449
 30
0.0
 11
-2330.071507903389
 21
-834.555834959465
 31
0.0
  0
LINE
  5
76
  8
0
  6
CONTINUOUS
 62
     7
 10
-2328.775243254959
 20
-858.998721312004
 30
0.0
 11
-2329.339452239329
 21
-846.775164793449
 31
0.0
  0
LINE
  5
77
  8
0
  6
CONTINUOUS
 62
     7
 10
-2328.378819915109
 20
-871.226733396965
 30
0.0
 11
-2328.775243254959
 21
-858.998721312004
 31
0.0
  0
LINE
  5
78
  8
0
  6
CONTINUOUS
 62
     7
 10
-2328.150243254959
 20
-883.45679015966
 30
0.0
 11
-2328.378819915109
 21
-871.226733396965
 31
0.0
  0
LINE
  5
79
  8
0
  6
CONTINUOUS
 62
     7
 10
-2328.089452239329
 20
-895.686732481438
 30
0.0
 11
-2328.150243254959
 21
-883.45679015966
 31
0.0
  0
LINE
  5
7A
  8
0
  6
CONTINUOUS
 62
     7
 10
-2328.196568938549
 20
-907.914282988029
 30
0.0
 11
-2328.089452239329
 21
-895.686732481438
 31
0.0
  0
LINE
  5
7B
  8
0
  6
CONTINUOUS
 62
     7
 10
-2328.471654387769
 20
-920.142739485222
 30
0.0
 11
-2328.196568938549
 21
-907.914282988029
 31
0.0
  0
LINE
  5
7C
  8
0
  6
CONTINUOUS
 62
     7
 10
-2328.914586516669
 20
-932.365155409294
 30
0.0
 11
-2328.471654387769
 21
-920.142739485222
 31
0.0
  0
LINE
  5
7D
  8
0
  6
CONTINUOUS
 62
     7
 10
-2329.525365325269
 20
-944.578306625801
 30
0.0
 11
-2328.914586516669
 21
-932.365155409294
 31
0.0
  0
LINE
  5
7E
  8
0
  6
CONTINUOUS
 62
     7
 10
-2330.303746672919
 20
-956.780147741753
 30
0.0
 11
-2329.525365325269
 21
-944.578306625801
 31
0.0
  0
LINE
  5
7F
  8
0
  6
CONTINUOUS
 62
     7
 10
-2331.249669524489
 20
-968.968148420769
 30
0.0
 11
-2330.303746672919
 21
-956.780147741753
 31
0.0
  0
LINE
  5
80
  8
0
  6
CONTINUOUS
 62
     7
 10
-2332.362828704169
 20
-981.140074919182
 30
0.0
 11
-2331.249669524489
 21
-968.968148420769
 31
0.0
  0
LINE
  5
81
  8
0
  6
CONTINUOUS
 62
     7
 10
-2333.643041106519
 20
-993.293574522453
 30
0.0
 11
-2332.362828704169
 21
-981.140074919182
 31
0.0
  0
LINE
  5
82
  8
0
  6
CONTINUOUS
 62
     7
 10
-2335.090001555739
 20
-1005.42638320776
 30
0.0
 11
-2333.643041106519
 21
-993.293574522453
 31
0.0
  0
LINE
  5
83
  8
0
  6
CONTINUOUS
 62
     7
 10
-2336.703465911209
 20
-1017.53615112157
 30
0.0
 11
-2335.090001555739
 21
-1005.42638320776
 31
0.0
  0
LINE
  5
84
  8
0
  6
CONTINUOUS
 62
     7
 10
-2338.483067961989
 20
-1029.62062377782
 30
0.0
 11
-2336.703465911209
 21
-1017.53615112157
 31
0.0
  0
LINE
  5
85
  8
0
  6
CONTINUOUS
 62
     7
 10
-2340.428380461989
 20
-1041.67745513769
 30
0.0
 11
-2338.483067961989
 21
-1029.62062377782
 31
0.0
  0
LINE
  5
86
  8
0
  6
CONTINUOUS
 62
     7
 10
-2342.539098235419
 20
-1053.70445556494
 30
0.0
 11
-2340.428380461989
 21
-1041.67745513769
 31
0.0
  0
LINE
  5
87
  8
0
  6
CONTINUOUS
 62
     7
 10
-2344.814794036209
 20
-1065.69938201757
 30
0.0
 11
-2342.539098235419
 21
-1053.70445556494
 31
0.0
  0
LINE
  5
88
  8
0
  6
CONTINUOUS
 62
     7
 10
-2347.254918547919
 20
-1077.66015930028
 30
0.0
 11
-2344.814794036209
 21
-1065.69938201757
 31
0.0
  0
LINE
  5
89
  8
0
  6
CONTINUOUS
 62
     7
 10
-2349.848424407299
 20
-1089.53721923681
 30
0.0
 11
-2347.254918547919
 21
-1077.66015930028
 31
0.0
  0
LINE
  5
8A
  8
0
  6
CONTINUOUS
 62
     7
 10
-2352.605077239329
 20
-1101.37959594579
 30
0.0
 11
-2349.848424407299
 21
-1089.53721923681
 31
0.0
  0
LINE
  5
8B
  8
0
  6
CONTINUOUS
 62
     7
 10
-2352.541295501049
 20
-1101.39514465185
 30
0.0
 11
-2353.371373626049
 21
-1104.80964965673
 31
0.0
  0
LINE
  5
8C
  8
0
  6
CONTINUOUS
 62
     1
 10
-2351.686253997139
 20
-1048.33358306738
 30
0.0
 11
-2362.316625090889
 21
-1099.01311035009
 31
0.0
  0
LINE
  5
8D
  8
0
  6
CONTINUOUS
 62
     1
 10
-2344.060399504959
 20
-997.1155006393971
 30
0.0
 11
-2351.686253997139
 21
-1048.33358306738
 31
0.0
  0
LINE
  5
8E
  8
0
  6
CONTINUOUS
 62
     1
 10
-2339.319310637769
 20
-943.015457938629
 30
0.0
 11
-2344.060399504959
 21
-997.1155006393971
 31
0.0
  0
LINE
  5
8F
  8
0
  6
CONTINUOUS
 62
     1
 10
-2337.930333586989
 20
-888.716372679192
 30
0.0
 11
-2339.319310637769
 21
-943.015457938629
 31
0.0
  0
LINE
  5
90
  8
0
  6
CONTINUOUS
 62
     1
 10
-2339.899571868239
 20
-834.437731932121
 30
0.0
 11
-2337.930333586989
 21
-888.716372679192
 31
0.0
  0
LINE
  5
91
  8
0
  6
CONTINUOUS
 62
     1
 10
-2345.219457122139
 20
-780.384463499504
 30
0.0
 11
-2339.899571868239
 21
-834.437731932121
 31
0.0
  0
LINE
  5
92
  8
0
  6
CONTINUOUS
 62
     1
 10
-2353.869237395579
 20
-726.764971922356
 30
0.0
 11
-2345.219457122139
 21
-780.384463499504
 31
0.0
  0
LINE
  5
93
  8
0
  6
CONTINUOUS
 62
     1
 10
-2365.813695403389
 20
-673.791171263176
 30
0.0
 11
-2353.869237395579
 21
-726.764971922356
 31
0.0
  0
LINE
  5
94
  8
0
  6
CONTINUOUS
 62
     1
 10
-2380.045445891669
 20
-623.875338743645
 30
0.0
 11
-2365.813695403389
 21
-673.791171263176
 31
0.0
  0
LINE
  5
95
  8
0
  6
CONTINUOUS
 62
     1
 10
-2396.465001555739
 20
-574.594638060051
 30
0.0
 11
-2380.045445891669
 21
-623.875338743645
 31
0.0
  0
LINE
  5
96
  8
0
  6
CONTINUOUS
 62
     7
 10
-2426.981358977609
 20
-1243.47565002294
 30
0.0
 11
-2396.979466887769
 21
-1243.46945495458
 31
0.0
  0
LINE
  5
97
  8
0
  6
CONTINUOUS
 62
     3
 10
-2700.619652274619
 20
-1581.0
 30
0.0
 11
-2444.990453215889
 21
-1581.0
 31
0.0
  0
LINE
  5
98
  8
0
  6
CONTINUOUS
 62
     3
 10
-2444.990453215889
 20
-1581.0
 30
0.0
 11
-2444.990453215889
 21
-1250.00246942201
 31
0.0
  0
LINE
  5
99
  8
0
  6
CONTINUOUS
 62
     7
 10
-2444.990453215889
 20
-1718.86194152685
 30
0.0
 11
-2444.990453215889
 21
-1718.53210754247
 31
0.0
  0
LINE
  5
9A
  8
1
  6
CONTINUOUS
 62
     1
 10
-2526.620085911912
 20
-585.361705272675
 30
0.0
 11
-2445.620085911912
 21
-607.361705272675
 31
0.0
  0
LINE
  5
9B
  8
1
  6
CONTINUOUS
 62
     3
 10
-2700.620011569693
 20
-55.0
 30
0.0
 11
-2485.620085912019
 21
-55.0
 31
0.0
  0
LINE
  5
9C
  8
1
  6
CONTINUOUS
 62
     3
 10
-2485.620085912019
 20
-260.0
 30
0.0
 11
-2700.619963302661
 21
-260.0
 31
0.0
  0
LINE
  5
9D
  8
1
  6
CONTINUOUS
 62
     3
 10
-2445.620085912019
 20
-95.0
 30
0.0
 11
-2445.620085912019
 21
-220.0
 31
0.0
  0
LINE
  5
9E
  8
1
  6
CONTINUOUS
 62
     3
 10
-2435.88134387619
 20
-576.6424809668713
 30
0.0
 11
-2402.037750598549
 21
-260.0519672812598
 31
0.0
  0
LINE
  5
9F
  8
1
  6
CONTINUOUS
 62
     7
 10
-2427.218392425089
 20
-626.6875242374454
 30
0.0
 11
-2444.990453215889
 21
-735.3884494356917
 31
0.0
  0
LINE
  5
A0
  8
1
  6
CONTINUOUS
 62
     1
 10
-2444.990453215889
 20
-735.3884494356917
 30
0.0
 11
-2431.477755560566
 21
-624.6364046049342
 31
0.0
  0
LINE
  5
A1
  8
1
  6
CONTINUOUS
 62
     7
 10
-2444.68797084293
 20
-603.3303424290895
 30
0.0
 11
-2437.365453891429
 21
-605.277238175035
 31
0.0
  0
LINE
  5
A2
  8
0
  6
CONTINUOUS
 62
     7
 10
-2444.990453215889
 20
-735.3884494356917
 30
0.0
 11
-2444.990453215889
 21
-1250.00246942201
 31
0.0
  0
LINE
  5
A3
  8
1
  6
CONTINUOUS
 62
     7
 10
-2700.619730207634
 20
-1250.00246942201
 30
0.0
 11
-2444.990453215889
 21
-1250.00246942201
 31
0.0
  0
LINE
  5
A4
  8
1
  6
CONTINUOUS
 62
     7
 10
-2956.24939074149
 20
-1250.00246942201
 30
0.0
 11
-2700.620113749745
 21
-1250.00246942201
 31
0.0
  0
LINE
  5
A5
  8
0
  6
CONTINUOUS
 62
     7
 10
-2956.24939074149
 20
-1250.00246942201
 30
0.0
 11
-2956.24939074149
 21
-735.3884494356917
 31
0.0
  0
LINE
  5
A6
  8
1
  6
CONTINUOUS
 62
     7
 10
-2963.87439006595
 20
-605.277238175035
 30
0.0
 11
-2956.551873114449
 21
-603.3303424290895
 31
0.0
  0
LINE
  5
A7
  8
1
  6
CONTINUOUS
 62
     1
 10
-2969.762088396813
 20
-624.6364046049342
 30
0.0
 11
-2956.24939074149
 21
-735.3884494356917
 31
0.0
  0
LINE
  5
A8
  8
1
  6
CONTINUOUS
 62
     7
 10
-2956.24939074149
 20
-735.3884494356917
 30
0.0
 11
-2974.02145153229
 21
-626.6875242374454
 31
0.0
  0
LINE
  5
A9
  8
1
  6
CONTINUOUS
 62
     3
 10
-2999.20209335883
 20
-260.0519672812598
 30
0.0
 11
-2965.358500081189
 21
-576.6424809668713
 31
0.0
  0
LINE
  5
AA
  8
1
  6
CONTINUOUS
 62
     3
 10
-2955.61975804536
 20
-220.0
 30
0.0
 11
-2955.61975804536
 21
-95.0
 31
0.0
  0
LINE
  5
AB
  8
1
  6
CONTINUOUS
 62
     3
 10
-2700.619880654718
 20
-260.0
 30
0.0
 11
-2915.61975804536
 21
-260.0
 31
0.0
  0
LINE
  5
AC
  8
1
  6
CONTINUOUS
 62
     3
 10
-2915.61975804536
 20
-55.0
 30
0.0
 11
-2700.619832387687
 21
-55.0
 31
0.0
  0
LINE
  5
AD
  8
1
  6
CONTINUOUS
 62
     1
 10
-2955.619758045467
 20
-607.361705272675
 30
0.0
 11
-2874.619758045467
 21
-585.361705272675
 31
0.0
  0
LINE
  5
AE
  8
0
  6
CONTINUOUS
 62
     7
 10
-2576.007435773
 20
-833.3043620801263
 30
0.0
 11
-2576.007435773
 21
-833.3087567687262
 31
0.0
  0
LINE
  5
AF
  8
1
  6
CONTINUOUS
 62
     3
 10
-1650.510123050885
 20
1196.605615083669
 30
0.0
 11
-1608.99850788804
 21
1339.69626498583
 31
0.0
  0
LINE
  5
B0
  8
1
  6
CONTINUOUS
 62
     3
 10
-1853.235337147605
 20
1132.392707061624
 30
0.0
 11
-1850.172781341616
 21
1281.35165789972
 31
0.0
  0
LINE
  5
B1
  8
1
  6
CONTINUOUS
 62
     3
 10
-2032.433333546085
 20
1017.898654491289
 30
0.0
 11
-2068.028545214019
 21
1162.574599932009
 31
0.0
  0
LINE
  5
B2
  8
1
  6
CONTINUOUS
 62
     3
 10
-2077.136643017237
 20
1100.375705484627
 30
0.0
 11
-2072.152118432366
 21
1080.507277006775
 31
0.0
  0
LINE
  5
B3
  8
1
  6
CONTINUOUS
 62
     3
 10
-1875.068786705414
 20
1223.629488562496
 30
0.0
 11
-1875.396433363441
 21
1203.147970474614
 31
0.0
  0
LINE
  5
128
  8
0
  6
CONTINUOUS
 62
     7
 10
-2735.61975807457
 20
230.747100873501
 30
0.0
 11
-2735.61975807457
 21
260.747101709094
 31
0.0
  0
LINE
  5
129
  8
0
  6
CONTINUOUS
 62
     7
 10
-2995.75587496207
 20
180.747100873501
 30
0.0
 11
-2999.58521746661
 21
180.747100873501
 31
0.0
  0
LINE
  5
12A
  8
0
  6
CONTINUOUS
 62
     7
 10
-2977.34121235838
 20
180.747100873501
 30
0.0
 11
-2995.75587496207
 21
180.747100873501
 31
0.0
  0
LINE
  5
12B
  8
0
  6
CONTINUOUS
 62
     7
 10
-2700.61977688128
 20
180.747100873501
 30
0.0
 11
-2977.34121235838
 21
180.747100873501
 31
0.0
  0
LINE
  5
12C
  8
0
  6
CONTINUOUS
 62
     7
 10
-2735.63899759189
 20
230.747100873501
 30
0.0
 11
-2998.62247192621
 21
203.1064239161
 31
0.0
  0
LINE
  5
12D
  8
0
  6
CONTINUOUS
 62
     7
 10
-2999.5165729977
 20
202.1642379769
 30
0.0
 11
-3000.58384700137
 21
181.7994368297
 31
0.0
  0
LINE
  5
12E
  8
0
  6
CONTINUOUS
 62
     7
 10
-1663.8935030681
 20
202.1642379769
 30
0.0
 11
-1664.96077707177
 21
181.7994368297
 31
0.0
  0
LINE
  5
12F
  8
0
  6
CONTINUOUS
 62
     7
 10
-1400.01592766229
 20
230.747100873501
 30
0.0
 11
-1662.99940199661
 21
203.1064239161
 31
0.0
  0
LINE
  5
130
  8
0
  6
CONTINUOUS
 62
     7
 10
-1088.31371289579
 20
180.747100873501
 30
0.0
 11
-1641.71814242879
 21
180.747100873501
 31
0.0
  0
LINE
  5
131
  8
0
  6
CONTINUOUS
 62
     7
 10
-1641.71814242879
 20
180.747100873501
 30
0.0
 11
-1660.13280503248
 21
180.747100873501
 31
0.0
  0
LINE
  5
132
  8
0
  6
CONTINUOUS
 62
     7
 10
-1660.13280503248
 20
180.747100873501
 30
0.0
 11
-1663.96214753701
 21
180.747100873501
 31
0.0
  0
LINE
  5
133
  8
0
  6
CONTINUOUS
 62
     7
 10
-1329.99668808656
 20
230.747100873501
 30
0.0
 11
-1399.99668814498
 21
230.747100873501
 31
0.0
  0
LINE
  5
134
  8
0
  6
CONTINUOUS
 62
     7
 10
-1066.13835225648
 20
202.1642379769
 30
0.0
 11
-1065.07107825282
 21
181.7994368297
 31
0.0
  0
LINE
  5
135
  8
0
  6
CONTINUOUS
 62
     7
 10
-1066.06970778758
 20
180.747100873501
 30
0.0
 11
-1069.89905029211
 21
180.747100873501
 31
0.0
  0
LINE
  5
136
  8
0
  6
CONTINUOUS
 62
     7
 10
-1069.89905029211
 20
180.747100873501
 30
0.0
 11
-1088.31371289579
 21
180.747100873501
 31
0.0
  0
LINE
  5
137
  8
0
  6
CONTINUOUS
 62
     7
 10
-1330.01592766229
 20
230.747100873501
 30
0.0
 11
-1067.03245332797
 21
203.1064239161
 31
0.0
  0
LINE
  5
138
  8
0
  6
CONTINUOUS
 62
     7
 10
-1329.99668808656
 20
230.747100873501
 30
0.0
 11
-1329.99668808656
 21
309.126872056923
 31
0.0
  0
LINE
  5
139
  8
0
  6
CONTINUOUS
 62
     7
 10
-1399.99668814498
 20
230.747100873501
 30
0.0
 11
-1399.99668814498
 21
306.796847111867
 31
0.0
  0
LINE
  5
13A
  8
0
  6
CONTINUOUS
 62
     7
 10
-2971.12647748734
 20
758.987766091363
 30
0.0
 11
-2969.21448591614
 21
724.558648064722
 31
0.0
  0
LINE
  5
13B
  8
0
  6
CONTINUOUS
 62
     7
 10
-3011.3351558064
 20
427.914306542561
 30
0.0
 11
-3010.31934770093
 21
421.606841942952
 31
0.0
  0
LINE
  5
13C
  8
0
  6
CONTINUOUS
 62
     7
 10
-3012.64100297437
 20
435.882568261311
 30
0.0
 11
-3011.47431596265
 21
428.786498925374
 31
0.0
  0
LINE
  5
13D
  8
0
  6
CONTINUOUS
 62
     7
 10
-3009.19092973218
 20
414.427032372639
 30
0.0
 11
-3008.80067094312
 21
411.865875146077
 31
0.0
  0
LINE
  5
13E
  8
0
  6
CONTINUOUS
 62
     7
 10
-3009.47932084546
 20
416.278289696858
 30
0.0
 11
-3009.19092973218
 21
414.427032372639
 31
0.0
  0
LINE
  5
13F
  8
0
  6
CONTINUOUS
 62
     7
 10
-3011.47431596265
 20
428.786498925374
 30
0.0
 11
-3011.3351558064
 21
427.914306542561
 31
0.0
  0
LINE
  5
140
  8
0
  6
CONTINUOUS
 62
     7
 10
-3010.31934770093
 20
421.606841942952
 30
0.0
 11
-3009.47932084546
 21
416.278289696858
 31
0.0
  0
LINE
  5
141
  8
0
  6
CONTINUOUS
 62
     7
 10
-3013.84681352125
 20
443.14544667928
 30
0.0
 11
-3012.65461381421
 21
435.966033837483
 31
0.0
  0
LINE
  5
142
  8
0
  6
CONTINUOUS
 62
     7
 10
-3016.29108842359
 20
457.503906151936
 30
0.0
 11
-3013.84681352125
 21
443.14544667928
 31
0.0
  0
LINE
  5
143
  8
0
  6
CONTINUOUS
 62
     7
 10
-3018.80933793531
 20
471.861846825764
 30
0.0
 11
-3016.29108842359
 21
457.503906151936
 31
0.0
  0
LINE
  5
144
  8
0
  6
CONTINUOUS
 62
     7
 10
-3021.89399369703
 20
489.001861474202
 30
0.0
 11
-3018.80933793531
 21
471.861846825764
 31
0.0
  0
LINE
  5
145
  8
0
  6
CONTINUOUS
 62
     7
 10
-3025.3517573689
 20
507.754119774983
 30
0.0
 11
-3021.89399369703
 21
489.001861474202
 31
0.0
  0
LINE
  5
146
  8
0
  6
CONTINUOUS
 62
     7
 10
-3028.14942582593
 20
522.720764062092
 30
0.0
 11
-3025.3517573689
 21
507.754119774983
 31
0.0
  0
LINE
  5
147
  8
0
  6
CONTINUOUS
 62
     7
 10
-3033.40943559156
 20
550.81991567342
 30
0.0
 11
-3028.14942582593
 21
522.720764062092
 31
0.0
  0
LINE
  5
148
  8
0
  6
CONTINUOUS
 62
     7
 10
-3037.40632279859
 20
572.350738427327
 30
0.0
 11
-3033.40943559156
 21
550.81991567342
 31
0.0
  0
LINE
  5
149
  8
0
  6
CONTINUOUS
 62
     7
 10
-3040.73896440015
 20
590.576766869709
 30
0.0
 11
-3037.40632279859
 21
572.350738427327
 31
0.0
  0
LINE
  5
14A
  8
0
  6
CONTINUOUS
 62
     7
 10
-3042.63544877515
 20
601.056304833577
 30
0.0
 11
-3040.73896440015
 21
590.576766869709
 31
0.0
  0
LINE
  5
14B
  8
0
  6
CONTINUOUS
 62
     7
 10
-3044.40803178296
 20
611.059982201741
 30
0.0
 11
-3042.63544877515
 21
601.056304833577
 31
0.0
  0
LINE
  5
14C
  8
0
  6
CONTINUOUS
 62
     7
 10
-3046.42750199781
 20
622.583816430256
 30
0.0
 11
-3044.40803178296
 21
611.059982201741
 31
0.0
  0
LINE
  5
14D
  8
0
  6
CONTINUOUS
 62
     7
 10
-3047.961559615
 20
631.5773467036941
 30
0.0
 11
-3046.42750199781
 21
622.583816430256
 31
0.0
  0
LINE
  5
14E
  8
0
  6
CONTINUOUS
 62
     7
 10
-3050.06141313062
 20
644.109863183186
 30
0.0
 11
-3047.961559615
 21
631.5773467036941
 31
0.0
  0
LINE
  5
14F
  8
0
  6
CONTINUOUS
 62
     7
 10
-3051.23029740796
 20
651.284881493733
 30
0.0
 11
-3050.06141313062
 21
644.109863183186
 31
0.0
  0
LINE
  5
150
  8
0
  6
CONTINUOUS
 62
     7
 10
-3053.49494584546
 20
665.634414574788
 30
0.0
 11
-3051.23029740796
 21
651.284881493733
 31
0.0
  0
LINE
  5
151
  8
0
  6
CONTINUOUS
 62
     7
 10
-3053.5426143025
 20
665.958419701741
 30
0.0
 11
-3053.49494584546
 21
665.634414574788
 31
0.0
  0
LINE
  5
152
  8
0
  6
CONTINUOUS
 62
     7
 10
-3055.61909135328
 20
679.983306786702
 30
0.0
 11
-3053.5426143025
 21
665.958419701741
 31
0.0
  0
LINE
  5
153
  8
0
  6
CONTINUOUS
 62
     7
 10
-3057.60865434156
 20
694.331451317952
 30
0.0
 11
-3055.61909135328
 21
679.983306786702
 31
0.0
  0
LINE
  5
154
  8
0
  6
CONTINUOUS
 62
     7
 10
-3059.46284135328
 20
708.679000756428
 30
0.0
 11
-3057.60865434156
 21
694.331451317952
 31
0.0
  0
LINE
  5
155
  8
0
  6
CONTINUOUS
 62
     7
 10
-3061.16938432203
 20
723.025848290608
 30
0.0
 11
-3059.46284135328
 21
708.679000756428
 31
0.0
  0
LINE
  5
156
  8
0
  6
CONTINUOUS
 62
     7
 10
-3062.71638139234
 20
737.372001549885
 30
0.0
 11
-3061.16938432203
 21
723.025848290608
 31
0.0
  0
LINE
  5
157
  8
0
  6
CONTINUOUS
 62
     7
 10
-3064.0919917439
 20
751.717452904866
 30
0.0
 11
-3062.71638139234
 21
737.372001549885
 31
0.0
  0
LINE
  5
158
  8
0
  6
CONTINUOUS
 62
     7
 10
-3065.37349100645
 20
766.062218392848
 30
0.0
 11
-3064.0919917439
 21
751.717452904866
 31
0.0
  0
LINE
  5
159
  8
0
  6
CONTINUOUS
 62
     7
 10
-3012.65461381421
 20
435.966033837483
 30
0.0
 11
-3012.64100297437
 21
435.882568261311
 31
0.0
  0
LINE
  5
15A
  8
0
  6
CONTINUOUS
 62
     7
 10
-3008.80067094312
 20
411.865875146077
 30
0.0
 11
-3008.09040482984
 21
407.247131249592
 31
0.0
  0
LINE
  5
15B
  8
0
  6
CONTINUOUS
 62
     7
 10
-2998.85334428296
 20
335.443481347249
 30
0.0
 11
-2998.46845658765
 21
331.651763817952
 31
0.0
  0
LINE
  5
15C
  8
0
  6
CONTINUOUS
 62
     7
 10
-3000.41486772046
 20
349.804656884358
 30
0.0
 11
-2998.85334428296
 21
335.443481347249
 31
0.0
  0
LINE
  5
15D
  8
0
  6
CONTINUOUS
 62
     7
 10
-3002.13239701734
 20
364.165679833577
 30
0.0
 11
-3000.41486772046
 21
349.804656884358
 31
0.0
  0
LINE
  5
15E
  8
0
  6
CONTINUOUS
 62
     7
 10
-3003.99250443921
 20
378.526489159749
 30
0.0
 11
-3002.13239701734
 21
364.165679833577
 31
0.0
  0
LINE
  5
15F
  8
0
  6
CONTINUOUS
 62
     7
 10
-3005.97822221265
 20
392.886993310139
 30
0.0
 11
-3003.99250443921
 21
378.526489159749
 31
0.0
  0
LINE
  5
160
  8
0
  6
CONTINUOUS
 62
     7
 10
-3007.57600053296
 20
403.783203026936
 30
0.0
 11
-3005.97822221265
 21
392.886993310139
 31
0.0
  0
LINE
  5
161
  8
0
  6
CONTINUOUS
 62
     7
 10
-3008.09040482984
 20
407.247131249592
 30
0.0
 11
-3007.57600053296
 21
403.783203026936
 31
0.0
  0
LINE
  5
162
  8
0
  6
CONTINUOUS
 62
     7
 10
-2996.85880797788
 20
315.733267710748
 30
0.0
 11
-2998.62080033765
 21
333.158355614827
 31
0.0
  0
LINE
  5
163
  8
0
  6
CONTINUOUS
 62
     7
 10
-2966.90693315015
 20
710.033904931233
 30
0.0
 11
-2967.0441401814
 21
711.2804335567211
 31
0.0
  0
LINE
  5
164
  8
0
  6
CONTINUOUS
 62
     7
 10
-2966.87266652238
 20
709.642298061942
 30
0.0
 11
-2966.90693315015
 21
710.033904931233
 31
0.0
  0
LINE
  5
165
  8
0
  6
CONTINUOUS
 62
     7
 10
-2967.17110570845
 20
712.273602271932
 30
0.0
 11
-2967.0441401814
 21
711.2804335567211
 31
0.0
  0
LINE
  5
166
  8
0
  6
CONTINUOUS
 62
     7
 10
-2967.44538529859
 20
714.419113061116
 30
0.0
 11
-2967.35194434166
 21
713.6881852471011
 31
0.0
  0
LINE
  5
167
  8
0
  6
CONTINUOUS
 62
     7
 10
-2967.50911595856
 20
714.8458977430211
 30
0.0
 11
-2967.44538529859
 21
714.419113061116
 31
0.0
  0
LINE
  5
168
  8
0
  6
CONTINUOUS
 62
     7
 10
-2967.5673480861
 20
715.210918655681
 30
0.0
 11
-2967.64338334546
 21
715.748481652424
 31
0.0
  0
LINE
  5
169
  8
0
  6
CONTINUOUS
 62
     7
 10
-2967.45515092359
 20
714.417693993733
 30
0.0
 11
-2967.48245810704
 21
714.610753522853
 31
0.0
  0
LINE
  5
16A
  8
0
  6
CONTINUOUS
 62
     7
 10
-2966.64390641581
 20
707.216540508718
 30
0.0
 11
-2966.72565873609
 21
708.12827291219
 31
0.0
  0
LINE
  5
16B
  8
0
  6
CONTINUOUS
 62
     7
 10
-2966.62922318921
 20
707.052787682698
 30
0.0
 11
-2966.63705671691
 21
707.140150108759
 31
0.0
  0
LINE
  5
16C
  8
0
  6
CONTINUOUS
 62
     7
 10
-2966.3310070865
 20
702.195886035584
 30
0.0
 11
-2966.33967240796
 21
702.452857873127
 31
0.0
  0
LINE
  5
16D
  8
0
  6
CONTINUOUS
 62
     7
 10
-2966.31061967359
 20
701.591293236897
 30
0.0
 11
-2966.3170388378
 21
701.781654832748
 31
0.0
  0
LINE
  5
16E
  8
0
  6
CONTINUOUS
 62
     7
 10
-2968.55659135328
 20
721.044746300862
 30
0.0
 11
-2968.56000932203
 21
721.0621718379711
 31
0.0
  0
LINE
  5
16F
  8
0
  6
CONTINUOUS
 62
     7
 10
-2968.25153764234
 20
719.425346276448
 30
0.0
 11
-2968.55659135328
 21
721.044746300862
 31
0.0
  0
LINE
  5
170
  8
0
  6
CONTINUOUS
 62
     7
 10
-2967.90168412671
 20
717.406860253499
 30
0.0
 11
-2968.25153764234
 21
719.425346276448
 31
0.0
  0
LINE
  5
171
  8
0
  6
CONTINUOUS
 62
     7
 10
-2967.69379838453
 20
716.104423424885
 30
0.0
 11
-2967.90168412671
 21
717.406860253499
 31
0.0
  0
LINE
  5
172
  8
0
  6
CONTINUOUS
 62
     7
 10
-2967.64338334546
 20
715.748481652424
 30
0.0
 11
-2967.69379838453
 21
716.104423424885
 31
0.0
  0
LINE
  5
173
  8
0
  6
CONTINUOUS
 62
     7
 10
-2967.24885209546
 20
712.95892324178
 30
0.0
 11
-2967.45515092359
 21
714.417693993733
 31
0.0
  0
LINE
  5
174
  8
0
  6
CONTINUOUS
 62
     7
 10
-2966.81904252515
 20
709.169410607502
 30
0.0
 11
-2967.24885209546
 21
712.95892324178
 31
0.0
  0
LINE
  5
175
  8
0
  6
CONTINUOUS
 62
     7
 10
-2966.72565873609
 20
708.12827291219
 30
0.0
 11
-2966.81904252515
 21
709.169410607502
 31
0.0
  0
LINE
  5
176
  8
0
  6
CONTINUOUS
 62
     7
 10
-2966.33967240796
 20
702.452857873127
 30
0.0
 11
-2966.62922318921
 21
707.052787682698
 31
0.0
  0
LINE
  5
177
  8
0
  6
CONTINUOUS
 62
     7
 10
-2966.2462886189
 20
699.685287377522
 30
0.0
 11
-2966.31061967359
 21
701.591293236897
 31
0.0
  0
LINE
  5
178
  8
0
  6
CONTINUOUS
 62
     7
 10
-2966.21357377515
 20
696.802963158772
 30
0.0
 11
-2966.2462886189
 21
699.685287377522
 31
0.0
  0
LINE
  5
179
  8
0
  6
CONTINUOUS
 62
     7
 10
-2967.0441401814
 20
711.2804335567211
 30
0.0
 11
-2967.05843546473
 21
711.2804335567211
 31
0.0
  0
LINE
  5
17A
  8
0
  6
CONTINUOUS
 62
     7
 10
-2984.31135209546
 20
760.639686486409
 30
0.0
 11
-2983.32893022046
 21
759.3524550410961
 31
0.0
  0
LINE
  5
17B
  8
0
  6
CONTINUOUS
 62
     7
 10
-2985.39338334546
 20
761.787750146077
 30
0.0
 11
-2984.31135209546
 21
760.639686486409
 31
0.0
  0
LINE
  5
17C
  8
0
  6
CONTINUOUS
 62
     7
 10
-2987.16901811109
 20
763.249969384358
 30
0.0
 11
-2985.39338334546
 21
761.787750146077
 31
0.0
  0
LINE
  5
17D
  8
0
  6
CONTINUOUS
 62
     7
 10
-2989.08582719312
 20
764.402572533772
 30
0.0
 11
-2987.16901811109
 21
763.249969384358
 31
0.0
  0
LINE
  5
17E
  8
0
  6
CONTINUOUS
 62
     7
 10
-2991.10572465406
 20
765.250488183186
 30
0.0
 11
-2989.08582719312
 21
764.402572533772
 31
0.0
  0
LINE
  5
17F
  8
0
  6
CONTINUOUS
 62
     7
 10
-2993.19569047437
 20
765.797477624104
 30
0.0
 11
-2991.10572465406
 21
765.250488183186
 31
0.0
  0
LINE
  5
180
  8
0
  6
CONTINUOUS
 62
     7
 10
-2994.6124995564
 20
765.9960478755691
 30
0.0
 11
-2993.19569047437
 21
765.797477624104
 31
0.0
  0
LINE
  5
181
  8
0
  6
CONTINUOUS
 62
     7
 10
-2996.03797563062
 20
766.062194726155
 30
0.0
 11
-2994.6124995564
 21
765.9960478755691
 31
0.0
  0
LINE
  5
182
  8
0
  6
CONTINUOUS
 62
     7
 10
-2966.21357377515
 20
696.802978417561
 30
0.0
 11
-2966.21357377515
 21
582.6581572505691
 31
0.0
  0
LINE
  5
183
  8
0
  6
CONTINUOUS
 62
     7
 10
-2977.80170854078
 20
749.695457360432
 30
0.0
 11
-2977.19465287671
 21
748.3717802974441
 31
0.0
  0
LINE
  5
184
  8
0
  6
CONTINUOUS
 62
     7
 10
-2978.41743119703
 20
750.968406579182
 30
0.0
 11
-2977.80170854078
 21
749.695457360432
 31
0.0
  0
LINE
  5
185
  8
0
  6
CONTINUOUS
 62
     7
 10
-2979.35041459546
 20
752.782150170491
 30
0.0
 11
-2978.41743119703
 21
750.968406579182
 31
0.0
  0
LINE
  5
186
  8
0
  6
CONTINUOUS
 62
     7
 10
-2980.28596147046
 20
754.480483910725
 30
0.0
 11
-2979.35041459546
 21
752.782150170491
 31
0.0
  0
LINE
  5
187
  8
0
  6
CONTINUOUS
 62
     7
 10
-2981.21833451734
 20
756.070175072834
 30
0.0
 11
-2980.28596147046
 21
754.480483910725
 31
0.0
  0
LINE
  5
188
  8
0
  6
CONTINUOUS
 62
     7
 10
-2982.1388667439
 20
757.551338097737
 30
0.0
 11
-2981.21833451734
 21
756.070175072834
 31
0.0
  0
LINE
  5
189
  8
0
  6
CONTINUOUS
 62
     7
 10
-2982.74055131421
 20
758.477012536213
 30
0.0
 11
-2982.1388667439
 21
757.551338097737
 31
0.0
  0
LINE
  5
18A
  8
0
  6
CONTINUOUS
 62
     7
 10
-2983.32893022046
 20
759.3524550410961
 30
0.0
 11
-2982.74055131421
 21
758.477012536213
 31
0.0
  0
LINE
  5
18B
  8
0
  6
CONTINUOUS
 62
     7
 10
-2975.4484370564
 20
744.264213463948
 30
0.0
 11
-2977.19465287671
 21
748.3717802974441
 31
0.0
  0
LINE
  5
18C
  8
0
  6
CONTINUOUS
 62
     7
 10
-2973.73395951734
 20
739.7828749629711
 30
0.0
 11
-2975.4484370564
 21
744.264213463948
 31
0.0
  0
LINE
  5
18D
  8
0
  6
CONTINUOUS
 62
     7
 10
-2971.58369096265
 20
733.280975243733
 30
0.0
 11
-2973.73395951734
 21
739.7828749629711
 31
0.0
  0
LINE
  5
18E
  8
0
  6
CONTINUOUS
 62
     7
 10
-2969.69685014234
 20
726.293609521077
 30
0.0
 11
-2971.58369096265
 21
733.280975243733
 31
0.0
  0
LINE
  5
18F
  8
0
  6
CONTINUOUS
 62
     7
 10
-2968.86506303296
 20
722.57562246053
 30
0.0
 11
-2969.69685014234
 21
726.293609521077
 31
0.0
  0
LINE
  5
190
  8
0
  6
CONTINUOUS
 62
     7
 10
-2967.52009232984
 20
714.942718407795
 30
0.0
 11
-2968.86506303296
 21
722.57562246053
 31
0.0
  0
LINE
  5
191
  8
0
  6
CONTINUOUS
 62
     7
 10
-2966.63923295484
 20
707.175308129475
 30
0.0
 11
-2967.52009232984
 21
714.942718407795
 31
0.0
  0
LINE
  5
192
  8
0
  6
CONTINUOUS
 62
     7
 10
-2966.32294877515
 20
702.065704247639
 30
0.0
 11
-2966.63923295484
 21
707.175308129475
 31
0.0
  0
LINE
  5
193
  8
0
  6
CONTINUOUS
 62
     7
 10
-2966.21357377515
 20
696.802978417561
 30
0.0
 11
-2966.32294877515
 21
702.065704247639
 31
0.0
  0
LINE
  5
194
  8
0
  6
CONTINUOUS
 62
     7
 10
-2994.20660844748
 20
766.062056810782
 30
0.0
 11
-3065.37349100645
 21
766.062218392848
 31
0.0
  0
LINE
  5
195
  8
0
  6
CONTINUOUS
 62
     7
 10
-2963.11952843538
 20
1149.34050599437
 30
0.0
 11
-2963.11952843538
 21
1254.02673330037
 31
0.0
  0
LINE
  5
196
  8
0
  6
CONTINUOUS
 62
     7
 10
-2893.07213109149
 20
1350.74713124959
 30
0.0
 11
-2700.61950140602
 21
1350.74710114221
 31
0.0
  0
LINE
  5
197
  8
0
  6
CONTINUOUS
 62
     7
 10
-1542.95661346996
 20
335.047103275771
 30
0.0
 11
-1543.52138895556
 21
335.565257149117
 31
0.0
  0
LINE
  5
198
  8
0
  6
CONTINUOUS
 62
     7
 10
-1542.93040266688
 20
335.026625274092
 30
0.0
 11
-1542.95661346996
 21
335.047103275771
 31
0.0
  0
LINE
  5
199
  8
0
  6
CONTINUOUS
 62
     7
 10
-1538.44183123145
 20
331.51978982499
 30
0.0
 11
-1538.52833655583
 21
331.587374788813
 31
0.0
  0
LINE
  5
19A
  8
0
  6
CONTINUOUS
 62
     7
 10
-1538.2541194387
 20
331.411412998973
 30
0.0
 11
-1538.44183123145
 21
331.51978982499
 31
0.0
  0
LINE
  5
19B
  8
0
  6
CONTINUOUS
 62
     7
 10
-1528.46784185392
 20
326.607546530757
 30
0.0
 11
-1526.22253425327
 21
325.92951702816
 31
0.0
  0
LINE
  5
19C
  8
0
  6
CONTINUOUS
 62
     7
 10
-1530.66758919694
 20
327.41146196895
 30
0.0
 11
-1528.46784185392
 21
326.607546530757
 31
0.0
  0
LINE
  5
19D
  8
0
  6
CONTINUOUS
 62
     7
 10
-1531.88042391849
 20
327.916932734658
 30
0.0
 11
-1530.66758919694
 21
327.41146196895
 31
0.0
  0
LINE
  5
19E
  8
0
  6
CONTINUOUS
 62
     7
 10
-1534.2470715026
 20
329.039159679307
 30
0.0
 11
-1531.88042391849
 21
327.916932734658
 31
0.0
  0
LINE
  5
19F
  8
0
  6
CONTINUOUS
 62
     7
 10
-1536.539666283
 20
330.311291935992
 30
0.0
 11
-1534.2470715026
 21
329.039159679307
 31
0.0
  0
LINE
  5
1A0
  8
0
  6
CONTINUOUS
 62
     7
 10
-1538.74871846315
 20
331.728761353456
 30
0.0
 11
-1536.539666283
 21
330.311291935992
 31
0.0
  0
LINE
  5
1A1
  8
0
  6
CONTINUOUS
 62
     7
 10
-1539.81858455102
 20
332.490024190617
 30
0.0
 11
-1538.74871846315
 21
331.728761353456
 31
0.0
  0
LINE
  5
1A2
  8
0
  6
CONTINUOUS
 62
     7
 10
-1540.86380442787
 20
333.285348252527
 30
0.0
 11
-1539.81858455102
 21
332.490024190617
 31
0.0
  0
LINE
  5
1A3
  8
0
  6
CONTINUOUS
 62
     7
 10
-1541.88338527897
 20
334.113873271993
 30
0.0
 11
-1540.86380442787
 21
333.285348252527
 31
0.0
  0
LINE
  5
1A4
  8
0
  6
CONTINUOUS
 62
     7
 10
-1542.87610257103
 20
334.974815865867
 30
0.0
 11
-1541.88338527897
 21
334.113873271993
 31
0.0
  0
LINE
  5
1A5
  8
0
  6
CONTINUOUS
 62
     7
 10
-1544.77292814257
 20
336.786067881039
 30
0.0
 11
-1542.87610257103
 21
334.974815865867
 31
0.0
  0
LINE
  5
1A6
  8
0
  6
CONTINUOUS
 62
     7
 10
-1546.54828767833
 20
338.712475766121
 30
0.0
 11
-1544.77292814257
 21
336.786067881039
 31
0.0
  0
LINE
  5
1A7
  8
0
  6
CONTINUOUS
 62
     7
 10
-1547.39135447063
 20
339.720111782901
 30
0.0
 11
-1546.54828767833
 21
338.712475766121
 31
0.0
  0
LINE
  5
1A8
  8
0
  6
CONTINUOUS
 62
     7
 10
-1548.20155409601
 20
340.753893897202
 30
0.0
 11
-1547.39135447063
 21
339.720111782901
 31
0.0
  0
LINE
  5
1A9
  8
0
  6
CONTINUOUS
 62
     7
 10
-1548.97803869713
 20
341.812817284342
 30
0.0
 11
-1548.20155409601
 21
340.753893897202
 31
0.0
  0
LINE
  5
1AA
  8
0
  6
CONTINUOUS
 62
     7
 10
-1550.42700317438
 20
344.001345524342
 30
0.0
 11
-1548.97803869713
 21
341.812817284342
 31
0.0
  0
LINE
  5
1AB
  8
0
  6
CONTINUOUS
 62
     7
 10
-1551.73185399623
 20
346.275535329445
 30
0.0
 11
-1550.42700317438
 21
344.001345524342
 31
0.0
  0
LINE
  5
1AC
  8
0
  6
CONTINUOUS
 62
     7
 10
-1552.88785612883
 20
348.625961256724
 30
0.0
 11
-1551.73185399623
 21
346.275535329445
 31
0.0
  0
LINE
  5
1AD
  8
0
  6
CONTINUOUS
 62
     7
 10
-1555.9126400625
 20
358.390380516144
 30
0.0
 11
-1555.4319559619
 21
356.072019968793
 31
0.0
  0
LINE
  5
1AE
  8
0
  6
CONTINUOUS
 62
     7
 10
-1556.25866040205
 20
360.730046748315
 30
0.0
 11
-1555.9126400625
 21
358.390380516144
 31
0.0
  0
LINE
  5
1AF
  8
0
  6
CONTINUOUS
 62
     7
 10
-1218.02691049379
 20
331.651754963187
 30
0.0
 11
-1213.26435592925
 21
333.158367492916
 31
0.0
  0
LINE
  5
1B0
  8
0
  6
CONTINUOUS
 62
     7
 10
-1222.80278095333
 20
330.188375831854
 30
0.0
 11
-1218.02691049379
 21
331.651754963187
 31
0.0
  0
LINE
  5
1B1
  8
0
  6
CONTINUOUS
 62
     7
 10
-1232.01374576042
 20
327.498831794562
 30
0.0
 11
-1222.80278095333
 21
330.188375831854
 31
0.0
  0
LINE
  5
1B2
  8
0
  6
CONTINUOUS
 62
     7
 10
-1241.26823129602
 20
324.97047045444
 30
0.0
 11
-1232.01374576042
 21
327.498831794562
 31
0.0
  0
LINE
  5
1B3
  8
0
  6
CONTINUOUS
 62
     7
 10
-1250.56408718893
 20
322.603812381598
 30
0.0
 11
-1241.26823129602
 21
324.97047045444
 31
0.0
  0
LINE
  5
1B4
  8
0
  6
CONTINUOUS
 62
     7
 10
-1259.89934409802
 20
320.399318080486
 30
0.0
 11
-1250.56408718893
 21
322.603812381598
 31
0.0
  0
LINE
  5
1B5
  8
0
  6
CONTINUOUS
 62
     7
 10
-1269.27183967227
 20
318.35744778895
 30
0.0
 11
-1259.89934409802
 21
320.399318080486
 31
0.0
  0
LINE
  5
1B6
  8
0
  6
CONTINUOUS
 62
     7
 10
-1278.67926660324
 20
316.478806302325
 30
0.0
 11
-1269.27183967227
 21
318.35744778895
 31
0.0
  0
LINE
  5
1B7
  8
0
  6
CONTINUOUS
 62
     7
 10
-1288.11884480148
 20
314.763930209291
 30
0.0
 11
-1278.67926660324
 21
316.478806302325
 31
0.0
  0
LINE
  5
1B8
  8
0
  6
CONTINUOUS
 62
     7
 10
-1297.58445427935
 20
313.213949817027
 30
0.0
 11
-1288.11884480148
 21
314.763930209291
 31
0.0
  0
LINE
  5
1B9
  8
0
  6
CONTINUOUS
 62
     7
 10
-1307.07851793794
 20
311.828414898102
 30
0.0
 11
-1297.58445427935
 21
313.213949817027
 31
0.0
  0
LINE
  5
1BA
  8
0
  6
CONTINUOUS
 62
     7
 10
-1316.59982886535
 20
310.607758058568
 30
0.0
 11
-1307.07851793794
 21
311.828414898102
 31
0.0
  0
LINE
  5
1BB
  8
0
  6
CONTINUOUS
 62
     7
 10
-1326.14332902844
 20
309.552821557045
 30
0.0
 11
-1316.59982886535
 21
310.607758058568
 31
0.0
  0
LINE
  5
1BC
  8
0
  6
CONTINUOUS
 62
     7
 10
-1335.70624821486
 20
308.663977937103
 30
0.0
 11
-1326.14332902844
 21
309.552821557045
 31
0.0
  0
LINE
  5
1BD
  8
0
  6
CONTINUOUS
 62
     7
 10
-1345.28502468497
 20
307.94173375618
 30
0.0
 11
-1335.70624821486
 21
308.663977937103
 31
0.0
  0
LINE
  5
1BE
  8
0
  6
CONTINUOUS
 62
     7
 10
-1354.87823956252
 20
307.386270414159
 30
0.0
 11
-1345.28502468497
 21
307.94173375618
 31
0.0
  0
LINE
  5
1BF
  8
0
  6
CONTINUOUS
 62
     7
 10
-1364.48276070825
 20
306.997984080965
 30
0.0
 11
-1354.87823956252
 21
307.386270414159
 31
0.0
  0
LINE
  5
1C0
  8
0
  6
CONTINUOUS
 62
     7
 10
-1369.28819401287
 20
306.866629133283
 30
0.0
 11
-1364.48276070825
 21
306.997984080965
 31
0.0
  0
LINE
  5
1C1
  8
0
  6
CONTINUOUS
 62
     7
 10
-1378.90159881153
 20
306.729601397665
 30
0.0
 11
-1369.28819401287
 21
306.866629133283
 31
0.0
  0
LINE
  5
1C2
  8
0
  6
CONTINUOUS
 62
     7
 10
-1388.51771539819
 20
306.760255101828
 30
0.0
 11
-1378.90159881153
 21
306.729601397665
 31
0.0
  0
LINE
  5
1C3
  8
0
  6
CONTINUOUS
 62
     7
 10
-1398.13354237519
 20
306.958653653532
 30
0.0
 11
-1388.51771539819
 21
306.760255101828
 31
0.0
  0
LINE
  5
1C4
  8
0
  6
CONTINUOUS
 62
     7
 10
-1407.74592404354
 20
307.324783043285
 30
0.0
 11
-1398.13354237519
 21
306.958653653532
 31
0.0
  0
LINE
  5
1C5
  8
0
  6
CONTINUOUS
 62
     7
 10
-1417.35151169434
 20
307.858628994987
 30
0.0
 11
-1407.74592404354
 21
307.324783043285
 31
0.0
  0
LINE
  5
1C6
  8
0
  6
CONTINUOUS
 62
     7
 10
-1426.94730419652
 20
308.560061906473
 30
0.0
 11
-1417.35151169434
 21
307.858628994987
 31
0.0
  0
LINE
  5
1C7
  8
0
  6
CONTINUOUS
 62
     7
 10
-1436.52948032678
 20
309.428806285061
 30
0.0
 11
-1426.94730419652
 21
308.560061906473
 31
0.0
  0
LINE
  5
1C8
  8
0
  6
CONTINUOUS
 62
     7
 10
-1444.21423425163
 20
310.252660492647
 30
0.0
 11
-1436.52948032678
 21
309.428806285061
 31
0.0
  0
LINE
  5
1C9
  8
0
  6
CONTINUOUS
 62
     7
 10
-1450.87373140355
 20
311.045481079438
 30
0.0
 11
-1444.21423425163
 21
310.252660492647
 31
0.0
  0
LINE
  5
1CA
  8
0
  6
CONTINUOUS
 62
     7
 10
-1455.64544700707
 20
311.667804061256
 30
0.0
 11
-1450.87373140355
 21
311.045481079438
 31
0.0
  0
LINE
  5
1CB
  8
0
  6
CONTINUOUS
 62
     7
 10
-1460.41161398472
 20
312.331742048903
 30
0.0
 11
-1455.64544700707
 21
311.667804061256
 31
0.0
  0
LINE
  5
1CC
  8
0
  6
CONTINUOUS
 62
     7
 10
-1465.17170162586
 20
313.03724605673
 30
0.0
 11
-1460.41161398472
 21
312.331742048903
 31
0.0
  0
LINE
  5
1CD
  8
0
  6
CONTINUOUS
 62
     7
 10
-1469.92549769956
 20
313.784257888495
 30
0.0
 11
-1465.17170162586
 21
313.03724605673
 31
0.0
  0
LINE
  5
1CE
  8
0
  6
CONTINUOUS
 62
     7
 10
-1470.64568549334
 20
313.903876814018
 30
0.0
 11
-1469.92549769956
 21
313.784257888495
 31
0.0
  0
LINE
  5
1CF
  8
0
  6
CONTINUOUS
 62
     7
 10
-1479.41246871137
 20
315.402580649644
 30
0.0
 11
-1470.64568549334
 21
313.903876814018
 31
0.0
  0
LINE
  5
1D0
  8
0
  6
CONTINUOUS
 62
     7
 10
-1488.86960357294
 20
317.186233418957
 30
0.0
 11
-1479.41246871137
 21
315.402580649644
 31
0.0
  0
LINE
  5
1D1
  8
0
  6
CONTINUOUS
 62
     7
 10
-1498.29365101344
 20
319.134526518894
 30
0.0
 11
-1488.86960357294
 21
317.186233418957
 31
0.0
  0
LINE
  5
1D2
  8
0
  6
CONTINUOUS
 62
     7
 10
-1507.68170707329
 20
321.246847955774
 30
0.0
 11
-1498.29365101344
 21
319.134526518894
 31
0.0
  0
LINE
  5
1D3
  8
0
  6
CONTINUOUS
 62
     7
 10
-1516.97477929596
 20
323.508399208087
 30
0.0
 11
-1507.68170707329
 21
321.246847955774
 31
0.0
  0
LINE
  5
1D4
  8
0
  6
CONTINUOUS
 62
     7
 10
-1526.22253425327
 20
325.92951702816
 30
0.0
 11
-1516.97477929596
 21
323.508399208087
 31
0.0
  0
LINE
  5
1D5
  8
0
  6
CONTINUOUS
 62
     7
 10
-1205.87915725363
 20
335.615812565506
 30
0.0
 11
-1213.26435592925
 21
333.158367492916
 31
0.0
  0
LINE
  5
1D6
  8
0
  6
CONTINUOUS
 62
     7
 10
-1198.54866155017
 20
338.224170745233
 30
0.0
 11
-1205.87915725363
 21
335.615812565506
 31
0.0
  0
LINE
  5
1D7
  8
0
  6
CONTINUOUS
 62
     7
 10
-1194.82595616178
 20
339.614502643437
 30
0.0
 11
-1198.54866155017
 21
338.224170745233
 31
0.0
  0
LINE
  5
1D8
  8
0
  6
CONTINUOUS
 62
     7
 10
-1191.11741158037
 20
341.044218551728
 30
0.0
 11
-1194.82595616178
 21
339.614502643437
 31
0.0
  0
LINE
  5
1D9
  8
0
  6
CONTINUOUS
 62
     7
 10
-1187.42349124303
 20
342.513164702016
 30
0.0
 11
-1191.11741158037
 21
341.044218551728
 31
0.0
  0
LINE
  5
1DA
  8
0
  6
CONTINUOUS
 62
     7
 10
-1183.74455233809
 20
344.021254733055
 30
0.0
 11
-1187.42349124303
 21
342.513164702016
 31
0.0
  0
LINE
  5
1DB
  8
0
  6
CONTINUOUS
 62
     7
 10
-1180.08103908167
 20
345.568276947117
 30
0.0
 11
-1183.74455233809
 21
344.021254733055
 31
0.0
  0
LINE
  5
1DC
  8
0
  6
CONTINUOUS
 62
     7
 10
-1176.43337620223
 20
347.154154726764
 30
0.0
 11
-1180.08103908167
 21
345.568276947117
 31
0.0
  0
LINE
  5
1DD
  8
0
  6
CONTINUOUS
 62
     7
 10
-1172.80189205661
 20
348.778714816289
 30
0.0
 11
-1176.43337620223
 21
347.154154726764
 31
0.0
  0
LINE
  5
1DE
  8
0
  6
CONTINUOUS
 62
     7
 10
-1169.18765847641
 20
350.441505122024
 30
0.0
 11
-1172.80189205661
 21
348.778714816289
 31
0.0
  0
LINE
  5
1DF
  8
0
  6
CONTINUOUS
 62
     7
 10
-1162.01228527109
 20
353.881170253762
 30
0.0
 11
-1169.18765847641
 21
350.441505122024
 31
0.0
  0
LINE
  5
1E0
  8
0
  6
CONTINUOUS
 62
     7
 10
-1154.91482774756
 20
357.469416180324
 30
0.0
 11
-1162.01228527109
 21
353.881170253762
 31
0.0
  0
LINE
  5
1E1
  8
0
  6
CONTINUOUS
 62
     7
 10
-1147.89213768451
 20
361.20780193645
 30
0.0
 11
-1154.91482774756
 21
357.469416180324
 31
0.0
  0
LINE
  5
1E2
  8
0
  6
CONTINUOUS
 62
     7
 10
-1140.94844501197
 20
365.094152348624
 30
0.0
 11
-1147.89213768451
 21
361.20780193645
 31
0.0
  0
LINE
  5
1E3
  8
0
  6
CONTINUOUS
 62
     7
 10
-1134.08812461739
 20
369.126147685835
 30
0.0
 11
-1140.94844501197
 21
365.094152348624
 31
0.0
  0
LINE
  5
1E4
  8
0
  6
CONTINUOUS
 62
     7
 10
-1127.31509692306
 20
373.301458240384
 30
0.0
 11
-1134.08812461739
 21
369.126147685835
 31
0.0
  0
LINE
  5
1E5
  8
0
  6
CONTINUOUS
 62
     7
 10
-1120.63338197159
 20
377.617464021999
 30
0.0
 11
-1127.31509692306
 21
373.301458240384
 31
0.0
  0
LINE
  5
1E6
  8
0
  6
CONTINUOUS
 62
     7
 10
-1114.04690085992
 20
382.071449256199
 30
0.0
 11
-1120.63338197159
 21
377.617464021999
 31
0.0
  0
LINE
  5
1E7
  8
0
  6
CONTINUOUS
 62
     7
 10
-1107.55961399963
 20
386.660427895305
 30
0.0
 11
-1114.04690085992
 21
382.071449256199
 31
0.0
  0
LINE
  5
1E8
  8
0
  6
CONTINUOUS
 62
     7
 10
-1101.1753091286
 20
391.381278263186
 30
0.0
 11
-1107.55961399963
 21
386.660427895305
 31
0.0
  0
LINE
  5
1E9
  8
0
  6
CONTINUOUS
 62
     7
 10
-1094.89750416354
 20
396.230839595854
 30
0.0
 11
-1101.1753091286
 21
391.381278263186
 31
0.0
  0
LINE
  5
1EA
  8
0
  6
CONTINUOUS
 62
     7
 10
-1088.72970496995
 20
401.205826513598
 30
0.0
 11
-1094.89750416354
 21
396.230839595854
 31
0.0
  0
LINE
  5
1EB
  8
0
  6
CONTINUOUS
 62
     7
 10
-1082.67495682496
 20
406.303009998848
 30
0.0
 11
-1088.72970496995
 21
401.205826513598
 31
0.0
  0
LINE
  5
1EC
  8
0
  6
CONTINUOUS
 62
     7
 10
-1076.7361979851
 20
411.519132236237
 30
0.0
 11
-1082.67495682496
 21
406.303009998848
 31
0.0
  0
LINE
  5
1ED
  8
0
  6
CONTINUOUS
 62
     7
 10
-1070.91835766845
 20
416.848795746248
 30
0.0
 11
-1076.7361979851
 21
411.519132236237
 31
0.0
  0
LINE
  5
1EE
  8
0
  6
CONTINUOUS
 62
     7
 10
-1068.04988552203
 20
419.560575223468
 30
0.0
 11
-1070.91835766845
 21
416.848795746248
 31
0.0
  0
LINE
  5
1EF
  8
0
  6
CONTINUOUS
 62
     7
 10
-1065.21150322085
 20
422.300633670094
 30
0.0
 11
-1068.04988552203
 21
419.560575223468
 31
0.0
  0
LINE
  5
1F0
  8
0
  6
CONTINUOUS
 62
     7
 10
-1059.62944417056
 20
427.860932400423
 30
0.0
 11
-1065.21150322085
 21
422.300633670094
 31
0.0
  0
LINE
  5
1F1
  8
0
  6
CONTINUOUS
 62
     7
 10
-1056.88239495923
 20
430.684381647147
 30
0.0
 11
-1059.62944417056
 21
427.860932400423
 31
0.0
  0
LINE
  5
1F2
  8
0
  6
CONTINUOUS
 62
     7
 10
-1051.4836317037
 20
436.409774007276
 30
0.0
 11
-1056.88239495923
 21
430.684381647147
 31
0.0
  0
LINE
  5
1F3
  8
0
  6
CONTINUOUS
 62
     7
 10
-1046.21304938405
 20
442.237938046636
 30
0.0
 11
-1051.4836317037
 21
436.409774007276
 31
0.0
  0
LINE
  5
1F4
  8
0
  6
CONTINUOUS
 62
     7
 10
-1041.06877409772
 20
448.170106442687
 30
0.0
 11
-1046.21304938405
 21
442.237938046636
 31
0.0
  0
LINE
  5
1F5
  8
0
  6
CONTINUOUS
 62
     7
 10
-1036.05173445184
 20
454.204717094727
 30
0.0
 11
-1041.06877409772
 21
448.170106442687
 31
0.0
  0
LINE
  5
1F6
  8
0
  6
CONTINUOUS
 62
     7
 10
-1031.16305219682
 20
460.340111663694
 30
0.0
 11
-1036.05173445184
 21
454.204717094727
 31
0.0
  0
LINE
  5
1F7
  8
0
  6
CONTINUOUS
 62
     7
 10
-1028.76671828648
 20
463.44570527859
 30
0.0
 11
-1031.16305219682
 21
460.340111663694
 31
0.0
  0
LINE
  5
1F8
  8
0
  6
CONTINUOUS
 62
     7
 10
-1026.40241819683
 20
466.576521334933
 30
0.0
 11
-1028.76671828648
 21
463.44570527859
 31
0.0
  0
LINE
  5
1F9
  8
0
  6
CONTINUOUS
 62
     7
 10
-1024.07083827286
 20
469.731721185991
 30
0.0
 11
-1026.40241819683
 21
466.576521334933
 31
0.0
  0
LINE
  5
1FA
  8
0
  6
CONTINUOUS
 62
     7
 10
-1019.50652553352
 20
476.11424061559
 30
0.0
 11
-1024.07083827286
 21
469.731721185991
 31
0.0
  0
LINE
  5
1FB
  8
0
  6
CONTINUOUS
 62
     7
 10
-1015.07545268362
 20
482.591036608866
 30
0.0
 11
-1019.50652553352
 21
476.11424061559
 31
0.0
  0
LINE
  5
1FC
  8
0
  6
CONTINUOUS
 62
     7
 10
-1010.77851172436
 20
489.160848593139
 30
0.0
 11
-1015.07545268362
 21
482.591036608866
 31
0.0
  0
LINE
  5
1FD
  8
0
  6
CONTINUOUS
 62
     7
 10
-1006.61684783255
 20
495.822524913731
 30
0.0
 11
-1010.77851172436
 21
489.160848593139
 31
0.0
  0
LINE
  5
1FE
  8
0
  6
CONTINUOUS
 62
     7
 10
-1002.59153627551
 20
502.574872804713
 30
0.0
 11
-1006.61684783255
 21
495.822524913731
 31
0.0
  0
LINE
  5
1FF
  8
0
  6
CONTINUOUS
 62
     7
 10
-998.699808586561
 20
509.423987567319
 30
0.0
 11
-1002.59153627551
 21
502.574872804713
 31
0.0
  0
LINE
  5
200
  8
0
  6
CONTINUOUS
 62
     7
 10
-994.947525123698
 20
516.361076027022
 30
0.0
 11
-998.699808586561
 21
509.423987567319
 31
0.0
  0
LINE
  5
201
  8
0
  6
CONTINUOUS
 62
     7
 10
-991.336493182458
 20
523.384220227807
 30
0.0
 11
-994.947525123698
 21
516.361076027022
 31
0.0
  0
LINE
  5
202
  8
0
  6
CONTINUOUS
 62
     7
 10
-987.868597742242
 20
530.491154902437
 30
0.0
 11
-991.336493182458
 21
523.384220227807
 31
0.0
  0
LINE
  5
203
  8
0
  6
CONTINUOUS
 62
     7
 10
-984.545917458889
 20
537.679132525457
 30
0.0
 11
-987.868597742242
 21
530.491154902437
 31
0.0
  0
LINE
  5
204
  8
0
  6
CONTINUOUS
 62
     7
 10
-981.370705310369
 20
544.94496188853
 30
0.0
 11
-984.545917458889
 21
537.679132525457
 31
0.0
  0
LINE
  5
205
  8
0
  6
CONTINUOUS
 62
     7
 10
-978.345224684969
 20
552.284901718354
 30
0.0
 11
-981.370705310369
 21
544.94496188853
 31
0.0
  0
LINE
  5
206
  8
0
  6
CONTINUOUS
 62
     7
 10
-975.471961745541
 20
559.694622367948
 30
0.0
 11
-978.345224684969
 21
552.284901718354
 31
0.0
  0
LINE
  5
207
  8
0
  6
CONTINUOUS
 62
     7
 10
-972.75324902015
 20
567.169234248258
 30
0.0
 11
-975.471961745541
 21
559.694622367948
 31
0.0
  0
LINE
  5
208
  8
0
  6
CONTINUOUS
 62
     7
 10
-970.1914681558091
 20
574.703220554617
 30
0.0
 11
-972.75324902015
 21
567.169234248258
 31
0.0
  0
LINE
  5
209
  8
0
  6
CONTINUOUS
 62
     7
 10
-968.911921557215
 20
578.674570039367
 30
0.0
 11
-970.1914681558091
 21
574.703220554617
 31
0.0
  0
LINE
  5
20A
  8
0
  6
CONTINUOUS
 62
     7
 10
-967.676856561156
 20
582.658169566863
 30
0.0
 11
-968.911921557215
 21
578.674570039367
 31
0.0
  0
LINE
  5
20B
  8
0
  6
CONTINUOUS
 62
     7
 10
-1625.05184315125
 20
732.447049424719
 30
0.0
 11
-1632.98031925111
 21
763.062155583445
 31
0.0
  0
LINE
  5
20C
  8
0
  6
CONTINUOUS
 62
     7
 10
-1617.52971731489
 20
702.050738585727
 30
0.0
 11
-1625.05184315125
 21
732.447049424719
 31
0.0
  0
LINE
  5
20D
  8
0
  6
CONTINUOUS
 62
     7
 10
-1610.24625287951
 20
671.190297436184
 30
0.0
 11
-1617.52971731489
 21
702.050738585727
 31
0.0
  0
LINE
  5
20E
  8
0
  6
CONTINUOUS
 62
     7
 10
-1603.15128278563
 20
639.575177090565
 30
0.0
 11
-1610.24625287951
 21
671.190297436184
 31
0.0
  0
LINE
  5
20F
  8
0
  6
CONTINUOUS
 62
     7
 10
-1596.19814389388
 20
606.864919231507
 30
0.0
 11
-1603.15128278563
 21
639.575177090565
 31
0.0
  0
LINE
  5
210
  8
0
  6
CONTINUOUS
 62
     7
 10
-1590.6935155118
 20
579.489157879786
 30
0.0
 11
-1596.19814389388
 21
606.864919231507
 31
0.0
  0
LINE
  5
211
  8
0
  6
CONTINUOUS
 62
     7
 10
-1584.10088080563
 20
544.920805348622
 30
0.0
 11
-1590.6935155118
 21
579.489157879786
 31
0.0
  0
LINE
  5
212
  8
0
  6
CONTINUOUS
 62
     7
 10
-1577.27170209579
 20
506.363317414122
 30
0.0
 11
-1584.10088080563
 21
544.920805348622
 31
0.0
  0
LINE
  5
213
  8
0
  6
CONTINUOUS
 62
     7
 10
-1570.5137255693
 20
464.84304609048
 30
0.0
 11
-1577.27170209579
 21
506.363317414122
 31
0.0
  0
LINE
  5
214
  8
0
  6
CONTINUOUS
 62
     7
 10
-1565.63511999976
 20
432.223058504205
 30
0.0
 11
-1570.5137255693
 21
464.84304609048
 31
0.0
  0
LINE
  5
215
  8
0
  6
CONTINUOUS
 62
     7
 10
-1561.20039573652
 20
400.108830597494
 30
0.0
 11
-1565.63511999976
 21
432.223058504205
 31
0.0
  0
LINE
  5
216
  8
0
  6
CONTINUOUS
 62
     7
 10
-1556.25866040205
 20
360.730046748315
 30
0.0
 11
-1561.20039573652
 21
400.108830597494
 31
0.0
  0
LINE
  5
217
  8
0
  6
CONTINUOUS
 62
     7
 10
-1105.99723733008
 20
766.062172667615
 30
0.0
 11
-1103.61521039468
 21
766.062192491516
 31
0.0
  0
LINE
  5
218
  8
0
  6
CONTINUOUS
 62
     7
 10
-1100.20070267758
 20
766.021132180721
 30
0.0
 11
-1103.61521039468
 21
766.062192491516
 31
0.0
  0
LINE
  5
219
  8
0
  6
CONTINUOUS
 62
     7
 10
-1096.78749529211
 20
765.898034640093
 30
0.0
 11
-1100.20070267758
 21
766.021132180721
 31
0.0
  0
LINE
  5
21A
  8
0
  6
CONTINUOUS
 62
     7
 10
-1091.95448958577
 20
765.582889737513
 30
0.0
 11
-1096.78749529211
 21
765.898034640093
 31
0.0
  0
LINE
  5
21B
  8
0
  6
CONTINUOUS
 62
     7
 10
-1087.12902724981
 20
765.1024805388161
 30
0.0
 11
-1091.95448958577
 21
765.582889737513
 31
0.0
  0
LINE
  5
21C
  8
0
  6
CONTINUOUS
 62
     7
 10
-1082.31682143139
 20
764.456776333536
 30
0.0
 11
-1087.12902724981
 21
765.1024805388161
 31
0.0
  0
LINE
  5
21D
  8
0
  6
CONTINUOUS
 62
     7
 10
-1077.52370087033
 20
763.645900979108
 30
0.0
 11
-1082.31682143139
 21
764.456776333536
 31
0.0
  0
LINE
  5
21E
  8
0
  6
CONTINUOUS
 62
     7
 10
-1072.75555170289
 20
762.670345131814
 30
0.0
 11
-1077.52370087033
 21
763.645900979108
 31
0.0
  0
LINE
  5
21F
  8
0
  6
CONTINUOUS
 62
     7
 10
-1068.02367195426
 20
761.532083452154
 30
0.0
 11
-1072.75555170289
 21
762.670345131814
 31
0.0
  0
LINE
  5
220
  8
0
  6
CONTINUOUS
 62
     7
 10
-1065.66413793237
 20
760.899839856326
 30
0.0
 11
-1068.02367195426
 21
761.532083452154
 31
0.0
  0
LINE
  5
221
  8
0
  6
CONTINUOUS
 62
     7
 10
-1060.98530850339
 20
759.516007252536
 30
0.0
 11
-1065.66413793237
 21
760.899839856326
 31
0.0
  0
LINE
  5
222
  8
0
  6
CONTINUOUS
 62
     7
 10
-1056.35441305064
 20
757.971579090379
 30
0.0
 11
-1060.98530850339
 21
759.516007252536
 31
0.0
  0
LINE
  5
223
  8
0
  6
CONTINUOUS
 62
     7
 10
-1051.77815606967
 20
756.268446481179
 30
0.0
 11
-1056.35441305064
 21
757.971579090379
 31
0.0
  0
LINE
  5
224
  8
0
  6
CONTINUOUS
 62
     7
 10
-1047.26255637758
 20
754.4088566581741
 30
0.0
 11
-1051.77815606967
 21
756.268446481179
 31
0.0
  0
LINE
  5
225
  8
0
  6
CONTINUOUS
 62
     7
 10
-1042.81330470125
 20
752.395037100383
 30
0.0
 11
-1047.26255637758
 21
754.4088566581741
 31
0.0
  0
LINE
  5
226
  8
0
  6
CONTINUOUS
 62
     7
 10
-1038.43618760603
 20
750.229697944942
 30
0.0
 11
-1042.81330470125
 21
752.395037100383
 31
0.0
  0
LINE
  5
227
  8
0
  6
CONTINUOUS
 62
     7
 10
-1036.27663363679
 20
749.091167824598
 30
0.0
 11
-1038.43618760603
 21
750.229697944942
 31
0.0
  0
LINE
  5
228
  8
0
  6
CONTINUOUS
 62
     7
 10
-1034.13729999323
 20
747.915897173425
 30
0.0
 11
-1036.27663363679
 21
749.091167824598
 31
0.0
  0
LINE
  5
229
  8
0
  6
CONTINUOUS
 62
     7
 10
-1032.01885206638
 20
746.704243979576
 30
0.0
 11
-1034.13729999323
 21
747.915897173425
 31
0.0
  0
LINE
  5
22A
  8
0
  6
CONTINUOUS
 62
     7
 10
-1029.9219936893
 20
745.456682090482
 30
0.0
 11
-1032.01885206638
 21
746.704243979576
 31
0.0
  0
LINE
  5
22B
  8
0
  6
CONTINUOUS
 62
     7
 10
-1025.80030588966
 20
742.85856135696
 30
0.0
 11
-1029.9219936893
 21
745.456682090482
 31
0.0
  0
LINE
  5
22C
  8
0
  6
CONTINUOUS
 62
     7
 10
-1021.77797230777
 20
740.126126890134
 30
0.0
 11
-1025.80030588966
 21
742.85856135696
 31
0.0
  0
LINE
  5
22D
  8
0
  6
CONTINUOUS
 62
     7
 10
-1017.8540468484
 20
737.259628296544
 30
0.0
 11
-1021.77797230777
 21
740.126126890134
 31
0.0
  0
LINE
  5
22E
  8
0
  6
CONTINUOUS
 62
     7
 10
-1014.03336864862
 20
734.262990369499
 30
0.0
 11
-1017.8540468484
 21
737.259628296544
 31
0.0
  0
LINE
  5
22F
  8
0
  6
CONTINUOUS
 62
     7
 10
-1010.32065097583
 20
731.140436894405
 30
0.0
 11
-1014.03336864862
 21
734.262990369499
 31
0.0
  0
LINE
  5
230
  8
0
  6
CONTINUOUS
 62
     7
 10
-1006.72038485605
 20
727.896394010494
 30
0.0
 11
-1010.32065097583
 21
731.140436894405
 31
0.0
  0
LINE
  5
231
  8
0
  6
CONTINUOUS
 62
     7
 10
-1003.23680063196
 20
724.535374351546
 30
0.0
 11
-1006.72038485605
 21
727.896394010494
 31
0.0
  0
LINE
  5
232
  8
0
  6
CONTINUOUS
 62
     7
 10
-999.873925625874
 20
721.062150834809
 30
0.0
 11
-1003.23680063196
 21
724.535374351546
 31
0.0
  0
LINE
  5
233
  8
0
  6
CONTINUOUS
 62
     7
 10
-996.635536220546
 20
717.481515331936
 30
0.0
 11
-999.873925625874
 21
721.062150834809
 31
0.0
  0
LINE
  5
234
  8
0
  6
CONTINUOUS
 62
     7
 10
-993.525090185723
 20
713.798365430142
 30
0.0
 11
-996.635536220546
 21
717.481515331936
 31
0.0
  0
LINE
  5
235
  8
0
  6
CONTINUOUS
 62
     7
 10
-990.545871502231
 20
710.017656379674
 30
0.0
 11
-993.525090185723
 21
713.798365430142
 31
0.0
  0
LINE
  5
236
  8
0
  6
CONTINUOUS
 62
     7
 10
-989.105462273519
 20
708.0910742287221
 30
0.0
 11
-990.545871502231
 21
710.017656379674
 31
0.0
  0
LINE
  5
237
  8
0
  6
CONTINUOUS
 62
     7
 10
-987.70088397991
 20
706.144565005617
 30
0.0
 11
-989.105462273519
 21
708.0910742287221
 31
0.0
  0
LINE
  5
238
  8
0
  6
CONTINUOUS
 62
     7
 10
-986.32922731699
 20
704.17439959303
 30
0.0
 11
-987.70088397991
 21
706.144565005617
 31
0.0
  0
LINE
  5
239
  8
0
  6
CONTINUOUS
 62
     7
 10
-984.992322279893
 20
702.183186157725
 30
0.0
 11
-986.32922731699
 21
704.17439959303
 31
0.0
  0
LINE
  5
23A
  8
0
  6
CONTINUOUS
 62
     7
 10
-983.690418741764
 20
700.171677785003
 30
0.0
 11
-984.992322279893
 21
702.183186157725
 31
0.0
  0
LINE
  5
23B
  8
0
  6
CONTINUOUS
 62
     7
 10
-982.423776586159
 20
698.140367010097
 30
0.0
 11
-983.690418741764
 21
700.171677785003
 31
0.0
  0
LINE
  5
23C
  8
0
  6
CONTINUOUS
 62
     7
 10
-981.192665173841
 20
696.089871838019
 30
0.0
 11
-982.423776586159
 21
698.140367010097
 31
0.0
  0
LINE
  5
23D
  8
0
  6
CONTINUOUS
 62
     7
 10
-979.99729593593
 20
694.020829494794
 30
0.0
 11
-981.192665173841
 21
696.089871838019
 31
0.0
  0
LINE
  5
23E
  8
0
  6
CONTINUOUS
 62
     7
 10
-978.837890047358
 20
691.933809666303
 30
0.0
 11
-979.99729593593
 21
694.020829494794
 31
0.0
  0
LINE
  5
23F
  8
0
  6
CONTINUOUS
 62
     7
 10
-977.714620497224
 20
689.829333719294
 30
0.0
 11
-978.837890047358
 21
691.933809666303
 31
0.0
  0
LINE
  5
240
  8
0
  6
CONTINUOUS
 62
     7
 10
-977.024692982721
 20
688.482790145657
 30
0.0
 11
-977.714620497224
 21
689.829333719294
 31
0.0
  0
LINE
  5
241
  8
0
  6
CONTINUOUS
 62
     7
 10
-974.562118546905
 20
683.41370792754
 30
0.0
 11
-977.024692982721
 21
688.482790145657
 31
0.0
  0
LINE
  5
242
  8
0
  6
CONTINUOUS
 62
     7
 10
-972.6474011656241
 20
679.066169763415
 30
0.0
 11
-974.562118546905
 21
683.41370792754
 31
0.0
  0
LINE
  5
243
  8
0
  6
CONTINUOUS
 62
     7
 10
-970.881215098451
 20
674.662564614574
 30
0.0
 11
-972.6474011656241
 21
679.066169763415
 31
0.0
  0
LINE
  5
244
  8
0
  6
CONTINUOUS
 62
     7
 10
-969.2646161679691
 20
670.207043660775
 30
0.0
 11
-970.881215098451
 21
674.662564614574
 31
0.0
  0
LINE
  5
245
  8
0
  6
CONTINUOUS
 62
     7
 10
-967.798544870695
 20
665.703410503945
 30
0.0
 11
-969.2646161679691
 21
670.207043660775
 31
0.0
  0
LINE
  5
246
  8
0
  6
CONTINUOUS
 62
     7
 10
-966.48396105746
 20
661.155430170688
 30
0.0
 11
-967.798544870695
 21
665.703410503945
 31
0.0
  0
LINE
  5
247
  8
0
  6
CONTINUOUS
 62
     7
 10
-965.321258225781
 20
656.564676238448
 30
0.0
 11
-966.48396105746
 21
661.155430170688
 31
0.0
  0
LINE
  5
248
  8
0
  6
CONTINUOUS
 62
     7
 10
-964.310468139833
 20
651.929112492487
 30
0.0
 11
-965.321258225781
 21
656.564676238448
 31
0.0
  0
LINE
  5
249
  8
0
  6
CONTINUOUS
 62
     7
 10
-963.454825940815
 20
647.261105710927
 30
0.0
 11
-964.310468139833
 21
651.929112492487
 31
0.0
  0
LINE
  5
24A
  8
0
  6
CONTINUOUS
 62
     7
 10
-962.755194707987
 20
642.564613796995
 30
0.0
 11
-963.454825940815
 21
647.261105710927
 31
0.0
  0
LINE
  5
24B
  8
0
  6
CONTINUOUS
 62
     7
 10
-962.21265802903
 20
637.844646864615
 30
0.0
 11
-962.755194707987
 21
642.564613796995
 31
0.0
  0
LINE
  5
24C
  8
0
  6
CONTINUOUS
 62
     7
 10
-961.827925215116
 20
633.104699379905
 30
0.0
 11
-962.21265802903
 21
637.844646864615
 31
0.0
  0
LINE
  5
24D
  8
0
  6
CONTINUOUS
 62
     7
 10
-961.601803548712
 20
628.347204387687
 30
0.0
 11
-961.827925215116
 21
633.104699379905
 31
0.0
  0
LINE
  5
24E
  8
0
  6
CONTINUOUS
 62
     7
 10
-961.535278512901
 20
623.578329928146
 30
0.0
 11
-961.601803548712
 21
628.347204387687
 31
0.0
  0
LINE
  5
24F
  8
0
  6
CONTINUOUS
 62
     7
 10
-961.6291353697829
 20
618.802477720697
 30
0.0
 11
-961.535278512901
 21
623.578329928146
 31
0.0
  0
LINE
  5
250
  8
0
  6
CONTINUOUS
 62
     7
 10
-961.884052732776
 20
614.024406406489
 30
0.0
 11
-961.6291353697829
 21
618.802477720697
 31
0.0
  0
LINE
  5
251
  8
0
  6
CONTINUOUS
 62
     7
 10
-962.3006221875399
 20
609.2489999631511
 30
0.0
 11
-961.884052732776
 21
614.024406406489
 31
0.0
  0
LINE
  5
252
  8
0
  6
CONTINUOUS
 62
     7
 10
-962.879241509989
 20
604.481721131488
 30
0.0
 11
-962.3006221875399
 21
609.2489999631511
 31
0.0
  0
LINE
  5
253
  8
0
  6
CONTINUOUS
 62
     7
 10
-963.620883893936
 20
599.723661763943
 30
0.0
 11
-962.879241509989
 21
604.481721131488
 31
0.0
  0
LINE
  5
254
  8
0
  6
CONTINUOUS
 62
     7
 10
-964.524906660659
 20
594.985967317331
 30
0.0
 11
-963.620883893936
 21
599.723661763943
 31
0.0
  0
LINE
  5
255
  8
0
  6
CONTINUOUS
 62
     7
 10
-965.590973588482
 20
590.274504840203
 30
0.0
 11
-964.524906660659
 21
594.985967317331
 31
0.0
  0
LINE
  5
256
  8
0
  6
CONTINUOUS
 62
     7
 10
-966.581205784603
 20
586.451045534216
 30
0.0
 11
-965.590973588482
 21
590.274504840203
 31
0.0
  0
LINE
  5
257
  8
0
  6
CONTINUOUS
 62
     7
 10
-967.676856561156
 20
582.658169566863
 30
0.0
 11
-966.581205784603
 21
586.451045534216
 31
0.0
  0
LINE
  5
258
  8
0
  6
CONTINUOUS
 62
     7
 10
-1105.99723733008
 20
766.062172667615
 30
0.0
 11
-1630.41573935651
 21
766.062162129888
 31
0.0
  0
LINE
  5
259
  8
0
  6
CONTINUOUS
 62
     7
 10
-1067.53782849143
 20
420.04927809122
 30
0.0
 11
-1067.53454142953
 21
420.058066084097
 31
0.0
  0
LINE
  5
25A
  8
0
  6
CONTINUOUS
 62
     7
 10
-2956.24939074149
 20
-1718.53210754247
 30
0.0
 11
-2956.24939074149
 21
-1718.86194152685
 31
0.0
  0
LINE
  5
25B
  8
0
  6
CONTINUOUS
 62
     3
 10
-2956.24939074149
 20
-1250.00246942201
 30
0.0
 11
-2956.24939074149
 21
-1581.0
 31
0.0
  0
LINE
  5
25C
  8
0
  6
CONTINUOUS
 62
     3
 10
-2956.24939074149
 20
-1581.0
 30
0.0
 11
-2700.62019168276
 21
-1581.0
 31
0.0
  0
LINE
  5
25D
  8
0
  6
CONTINUOUS
 62
     7
 10
-3004.26037706961
 20
-1243.46945495458
 30
0.0
 11
-2974.25848497977
 21
-1243.47565002294
 31
0.0
  0
LINE
  5
25E
  8
0
  6
CONTINUOUS
 62
     1
 10
-3021.19439806571
 20
-623.875338743645
 30
0.0
 11
-3004.77484240164
 21
-574.594638060051
 31
0.0
  0
LINE
  5
25F
  8
0
  6
CONTINUOUS
 62
     1
 10
-3035.42614855399
 20
-673.791171263176
 30
0.0
 11
-3021.19439806571
 21
-623.875338743645
 31
0.0
  0
LINE
  5
260
  8
0
  6
CONTINUOUS
 62
     1
 10
-3047.3706065618
 20
-726.764971922356
 30
0.0
 11
-3035.42614855399
 21
-673.791171263176
 31
0.0
  0
LINE
  5
261
  8
0
  6
CONTINUOUS
 62
     1
 10
-3056.02038683524
 20
-780.384463499504
 30
0.0
 11
-3047.3706065618
 21
-726.764971922356
 31
0.0
  0
LINE
  5
262
  8
0
  6
CONTINUOUS
 62
     1
 10
-3061.34027208914
 20
-834.437731932121
 30
0.0
 11
-3056.02038683524
 21
-780.384463499504
 31
0.0
  0
LINE
  5
263
  8
0
  6
CONTINUOUS
 62
     1
 10
-3063.30951037039
 20
-888.716372679192
 30
0.0
 11
-3061.34027208914
 21
-834.437731932121
 31
0.0
  0
LINE
  5
264
  8
0
  6
CONTINUOUS
 62
     1
 10
-3061.92053331961
 20
-943.015457938629
 30
0.0
 11
-3063.30951037039
 21
-888.716372679192
 31
0.0
  0
LINE
  5
265
  8
0
  6
CONTINUOUS
 62
     1
 10
-3057.17944445242
 20
-997.1155006393971
 30
0.0
 11
-3061.92053331961
 21
-943.015457938629
 31
0.0
  0
LINE
  5
266
  8
0
  6
CONTINUOUS
 62
     1
 10
-3049.55358996024
 20
-1048.33358306738
 30
0.0
 11
-3057.17944445242
 21
-997.1155006393971
 31
0.0
  0
LINE
  5
267
  8
0
  6
CONTINUOUS
 62
     1
 10
-3038.92321886649
 20
-1099.01311035009
 30
0.0
 11
-3049.55358996024
 21
-1048.33358306738
 31
0.0
  0
LINE
  5
268
  8
0
  6
CONTINUOUS
 62
     7
 10
-3047.86847033133
 20
-1104.80964965673
 30
0.0
 11
-3048.69854845633
 21
-1101.39514465185
 31
0.0
  0
LINE
  5
269
  8
0
  6
CONTINUOUS
 62
     7
 10
-3051.39141955008
 20
-1089.53721923681
 30
0.0
 11
-3048.63476671805
 21
-1101.37959594579
 31
0.0
  0
LINE
  5
26A
  8
0
  6
CONTINUOUS
 62
     7
 10
-3053.98492540946
 20
-1077.66015930028
 30
0.0
 11
-3051.39141955008
 21
-1089.53721923681
 31
0.0
  0
LINE
  5
26B
  8
0
  6
CONTINUOUS
 62
     7
 10
-3056.42504992117
 20
-1065.69938201757
 30
0.0
 11
-3053.98492540946
 21
-1077.66015930028
 31
0.0
  0
LINE
  5
26C
  8
0
  6
CONTINUOUS
 62
     7
 10
-3058.70074572196
 20
-1053.70445556494
 30
0.0
 11
-3056.42504992117
 21
-1065.69938201757
 31
0.0
  0
LINE
  5
26D
  8
0
  6
CONTINUOUS
 62
     7
 10
-3060.81146349539
 20
-1041.67745513769
 30
0.0
 11
-3058.70074572196
 21
-1053.70445556494
 31
0.0
  0
LINE
  5
26E
  8
0
  6
CONTINUOUS
 62
     7
 10
-3062.75677599539
 20
-1029.62062377782
 30
0.0
 11
-3060.81146349539
 21
-1041.67745513769
 31
0.0
  0
LINE
  5
26F
  8
0
  6
CONTINUOUS
 62
     7
 10
-3064.53637804617
 20
-1017.53615112157
 30
0.0
 11
-3062.75677599539
 21
-1029.62062377782
 31
0.0
  0
LINE
  5
270
  8
0
  6
CONTINUOUS
 62
     7
 10
-3066.14984240164
 20
-1005.42638320776
 30
0.0
 11
-3064.53637804617
 21
-1017.53615112157
 31
0.0
  0
LINE
  5
271
  8
0
  6
CONTINUOUS
 62
     7
 10
-3067.59680285086
 20
-993.293574522453
 30
0.0
 11
-3066.14984240164
 21
-1005.42638320776
 31
0.0
  0
LINE
  5
272
  8
0
  6
CONTINUOUS
 62
     7
 10
-3068.87701525321
 20
-981.140074919182
 30
0.0
 11
-3067.59680285086
 21
-993.293574522453
 31
0.0
  0
LINE
  5
273
  8
0
  6
CONTINUOUS
 62
     7
 10
-3069.99017443289
 20
-968.968148420769
 30
0.0
 11
-3068.87701525321
 21
-981.140074919182
 31
0.0
  0
LINE
  5
274
  8
0
  6
CONTINUOUS
 62
     7
 10
-3070.93609728446
 20
-956.780147741753
 30
0.0
 11
-3069.99017443289
 21
-968.968148420769
 31
0.0
  0
LINE
  5
275
  8
0
  6
CONTINUOUS
 62
     7
 10
-3071.71447863211
 20
-944.578306625801
 30
0.0
 11
-3070.93609728446
 21
-956.780147741753
 31
0.0
  0
LINE
  5
276
  8
0
  6
CONTINUOUS
 62
     7
 10
-3072.32525744071
 20
-932.365155409294
 30
0.0
 11
-3071.71447863211
 21
-944.578306625801
 31
0.0
  0
LINE
  5
277
  8
0
  6
CONTINUOUS
 62
     7
 10
-3072.76818956961
 20
-920.142739485222
 30
0.0
 11
-3072.32525744071
 21
-932.365155409294
 31
0.0
  0
LINE
  5
278
  8
0
  6
CONTINUOUS
 62
     7
 10
-3073.04327501883
 20
-907.914282988029
 30
0.0
 11
-3072.76818956961
 21
-920.142739485222
 31
0.0
  0
LINE
  5
279
  8
0
  6
CONTINUOUS
 62
     7
 10
-3073.15039171805
 20
-895.686732481438
 30
0.0
 11
-3073.04327501883
 21
-907.914282988029
 31
0.0
  0
LINE
  5
27A
  8
0
  6
CONTINUOUS
 62
     7
 10
-3073.08960070242
 20
-883.45679015966
 30
0.0
 11
-3073.15039171805
 21
-895.686732481438
 31
0.0
  0
LINE
  5
27B
  8
0
  6
CONTINUOUS
 62
     7
 10
-3072.86102404227
 20
-871.226733396965
 30
0.0
 11
-3073.08960070242
 21
-883.45679015966
 31
0.0
  0
LINE
  5
27C
  8
0
  6
CONTINUOUS
 62
     7
 10
-3072.46460070242
 20
-858.998721312004
 30
0.0
 11
-3072.86102404227
 21
-871.226733396965
 31
0.0
  0
LINE
  5
27D
  8
0
  6
CONTINUOUS
 62
     7
 10
-3071.90039171805
 20
-846.775164793449
 30
0.0
 11
-3072.46460070242
 21
-858.998721312004
 31
0.0
  0
LINE
  5
27E
  8
0
  6
CONTINUOUS
 62
     7
 10
-3071.16833605399
 20
-834.555834959465
 30
0.0
 11
-3071.90039171805
 21
-846.775164793449
 31
0.0
  0
LINE
  5
27F
  8
0
  6
CONTINUOUS
 62
     7
 10
-3070.26812853446
 20
-822.34042663427
 30
0.0
 11
-3071.16833605399
 21
-834.555834959465
 31
0.0
  0
LINE
  5
280
  8
0
  6
CONTINUOUS
 62
     7
 10
-3069.20031847586
 20
-810.136355589348
 30
0.0
 11
-3070.26812853446
 21
-822.34042663427
 31
0.0
  0
LINE
  5
281
  8
0
  6
CONTINUOUS
 62
     7
 10
-3067.96496691336
 20
-797.945971678215
 30
0.0
 11
-3069.20031847586
 21
-810.136355589348
 31
0.0
  0
LINE
  5
282
  8
0
  6
CONTINUOUS
 62
     7
 10
-3066.56231798758
 20
-785.771655271965
 30
0.0
 11
-3067.96496691336
 21
-797.945971678215
 31
0.0
  0
LINE
  5
283
  8
0
  6
CONTINUOUS
 62
     7
 10
-3064.9926768743
 20
-773.615679930168
 30
0.0
 11
-3066.56231798758
 21
-785.771655271965
 31
0.0
  0
LINE
  5
284
  8
0
  6
CONTINUOUS
 62
     7
 10
-3063.25628771414
 20
-761.48039550634
 30
0.0
 11
-3064.9926768743
 21
-773.615679930168
 31
0.0
  0
LINE
  5
285
  8
0
  6
CONTINUOUS
 62
     7
 10
-3061.35345568289
 20
-749.368212889152
 30
0.0
 11
-3063.25628771414
 21
-761.48039550634
 31
0.0
  0
LINE
  5
286
  8
0
  6
CONTINUOUS
 62
     7
 10
-3059.28454699149
 20
-737.28134460302
 30
0.0
 11
-3061.35345568289
 21
-749.368212889152
 31
0.0
  0
LINE
  5
287
  8
0
  6
CONTINUOUS
 62
     7
 10
-3057.04992785086
 20
-725.222109983879
 30
0.0
 11
-3059.28454699149
 21
-737.28134460302
 31
0.0
  0
LINE
  5
288
  8
0
  6
CONTINUOUS
 62
     7
 10
-3054.65002550711
 20
-713.193041990715
 30
0.0
 11
-3057.04992785086
 21
-725.222109983879
 31
0.0
  0
LINE
  5
289
  8
0
  6
CONTINUOUS
 62
     7
 10
-3052.08532824149
 20
-701.196490477043
 30
0.0
 11
-3054.65002550711
 21
-713.193041990715
 31
0.0
  0
LINE
  5
28A
  8
0
  6
CONTINUOUS
 62
     7
 10
-3049.35632433524
 20
-689.234713743645
 30
0.0
 11
-3052.08532824149
 21
-701.196490477043
 31
0.0
  0
LINE
  5
28B
  8
0
  6
CONTINUOUS
 62
     7
 10
-3046.46350206961
 20
-677.310122679192
 30
0.0
 11
-3049.35632433524
 21
-689.234713743645
 31
0.0
  0
LINE
  5
28C
  8
0
  6
CONTINUOUS
 62
     7
 10
-3043.40753283133
 20
-665.424929808098
 30
0.0
 11
-3046.46350206961
 21
-677.310122679192
 31
0.0
  0
LINE
  5
28D
  8
0
  6
CONTINUOUS
 62
     7
 10
-3040.19329943289
 20
-653.580386351067
 30
0.0
 11
-3043.40753283133
 21
-665.424929808098
 31
0.0
  0
LINE
  5
28E
  8
0
  6
CONTINUOUS
 62
     7
 10
-3036.2836924993
 20
-639.7978851303631
 30
0.0
 11
-3040.19329943289
 21
-653.580386351067
 31
0.0
  0
LINE
  5
28F
  8
0
  6
CONTINUOUS
 62
     7
 10
-3032.21222033133
 20
-626.05981750341
 30
0.0
 11
-3036.2836924993
 21
-639.7978851303631
 31
0.0
  0
LINE
  5
290
  8
0
  6
CONTINUOUS
 62
     7
 10
-3027.97961535086
 20
-612.3684417709881
 30
0.0
 11
-3032.21222033133
 21
-626.05981750341
 31
0.0
  0
LINE
  5
291
  8
0
  6
CONTINUOUS
 62
     7
 10
-3023.5864268743
 20
-598.725741575676
 30
0.0
 11
-3027.97961535086
 21
-612.3684417709881
 31
0.0
  0
LINE
  5
292
  8
0
  6
CONTINUOUS
 62
     7
 10
-3019.10424913992
 20
-585.34155578466
 30
0.0
 11
-3023.5864268743
 21
-598.725741575676
 31
0.0
  0
LINE
  5
293
  8
0
  6
CONTINUOUS
 62
     7
 10
-3014.19932358177
 20
-571.23608703466
 30
0.0
 11
-3019.10424913992
 21
-585.34155578466
 31
0.0
  0
LINE
  5
294
  8
0
  6
CONTINUOUS
 62
     1
 10
-3004.08288683524
 20
-572.641818235832
 30
0.0
 11
-3004.77484240164
 21
-574.594638060051
 31
0.0
  0
LINE
  5
295
  8
0
  6
CONTINUOUS
 62
     1
 10
-3003.58477892508
 20
-571.23608703466
 30
0.0
 11
-3004.08288683524
 21
-572.641818235832
 31
0.0
  0
LINE
  5
296
  8
0
  6
CONTINUOUS
 62
     7
 10
-2992.23272814383
 20
-572.709170530754
 30
0.0
 11
-2991.37384142508
 21
-573.009677122551
 31
0.0
  0
LINE
  5
297
  8
0
  6
CONTINUOUS
 62
     7
 10
-2993.19635119071
 20
-572.429751585442
 30
0.0
 11
-2992.23272814383
 21
-572.709170530754
 31
0.0
  0
LINE
  5
298
  8
0
  6
CONTINUOUS
 62
     7
 10
-2994.83160509696
 20
-572.054019163567
 30
0.0
 11
-2993.19635119071
 21
-572.429751585442
 31
0.0
  0
LINE
  5
299
  8
0
  6
CONTINUOUS
 62
     7
 10
-2996.65344347586
 20
-571.741671751457
 30
0.0
 11
-2994.83160509696
 21
-572.054019163567
 31
0.0
  0
LINE
  5
29A
  8
0
  6
CONTINUOUS
 62
     7
 10
-2998.62219347586
 20
-571.5000335678631
 30
0.0
 11
-2996.65344347586
 21
-571.741671751457
 31
0.0
  0
LINE
  5
29B
  8
0
  6
CONTINUOUS
 62
     7
 10
-3000.70526232352
 20
-571.333712767082
 30
0.0
 11
-2998.62219347586
 21
-571.5000335678631
 31
0.0
  0
LINE
  5
29C
  8
0
  6
CONTINUOUS
 62
     7
 10
-3002.13592638602
 20
-571.26684875341
 30
0.0
 11
-3000.70526232352
 21
-571.333712767082
 31
0.0
  0
LINE
  5
29D
  8
0
  6
CONTINUOUS
 62
     7
 10
-3003.58477892508
 20
-571.23608703466
 30
0.0
 11
-3002.13592638602
 21
-571.26684875341
 31
0.0
  0
LINE
  5
29E
  8
0
  6
CONTINUOUS
 62
     7
 10
-3003.58477892508
 20
-571.23608703466
 30
0.0
 11
-3014.19932358177
 21
-571.23608703466
 31
0.0
  0
LINE
  5
29F
  8
0
  6
CONTINUOUS
 62
     7
 10
-2985.76336779227
 20
-575.5813323959881
 30
0.0
 11
-2985.23956408133
 21
-575.878726194817
 31
0.0
  0
LINE
  5
2A0
  8
0
  6
CONTINUOUS
 62
     7
 10
-2986.30731310477
 20
-575.286196897942
 30
0.0
 11
-2985.76336779227
 21
-575.5813323959881
 31
0.0
  0
LINE
  5
2A1
  8
0
  6
CONTINUOUS
 62
     7
 10
-2987.16009630789
 20
-574.847964476067
 30
0.0
 11
-2986.30731310477
 21
-575.286196897942
 31
0.0
  0
LINE
  5
2A2
  8
0
  6
CONTINUOUS
 62
     7
 10
-2988.05645861258
 20
-574.415530394035
 30
0.0
 11
-2970.783382645436
 21
-582.7486192696332
 31
0.0
  0
LINE
  5
2A3
  8
0
  6
CONTINUOUS
 62
     7
 10
-2988.99762072196
 20
-573.988162229973
 30
0.0
 11
-2985.880003098665
 21
-575.4038275087131
 31
0.0
  0
LINE
  5
2A4
  8
0
  6
CONTINUOUS
 62
     7
 10
-2989.98541369071
 20
-573.565402220207
 30
0.0
 11
-2988.99762072196
 21
-573.988162229973
 31
0.0
  0
LINE
  5
2A5
  8
0
  6
CONTINUOUS
 62
     7
 10
-2990.66949572196
 20
-573.286349485832
 30
0.0
 11
-2989.98541369071
 21
-573.565402220207
 31
0.0
  0
LINE
  5
2A6
  8
0
  6
CONTINUOUS
 62
     7
 10
-2991.37384142508
 20
-573.009677122551
 30
0.0
 11
-2990.66949572196
 21
-573.286349485832
 31
0.0
  0
LINE
  5
2A7
  8
0
  6
CONTINUOUS
 62
     7
 10
-2974.25848497977
 20
-1150.29362792822
 30
0.0
 11
-2974.25848497977
 21
-626.1978013150352
 31
0.0
  0
LINE
  5
2A8
  8
0
  6
CONTINUOUS
 62
     7
 10
-3045.79852404227
 20
-1113.05586547704
 30
0.0
 11
-3047.86847033133
 21
-1104.80964965673
 31
0.0
  0
LINE
  5
2A9
  8
0
  6
CONTINUOUS
 62
     7
 10
-3043.26385607352
 20
-1122.69353027197
 30
0.0
 11
-3045.79852404227
 21
-1113.05586547704
 31
0.0
  0
LINE
  5
2AA
  8
0
  6
CONTINUOUS
 62
     7
 10
-3040.62756456961
 20
-1132.25479431005
 30
0.0
 11
-3043.26385607352
 21
-1122.69353027197
 31
0.0
  0
LINE
  5
2AB
  8
0
  6
CONTINUOUS
 62
     7
 10
-3037.22192492117
 20
-1144.02504272314
 30
0.0
 11
-3040.62756456961
 21
-1132.25479431005
 31
0.0
  0
LINE
  5
2AC
  8
0
  6
CONTINUOUS
 62
     7
 10
-3033.08905138602
 20
-1157.74779052587
 30
0.0
 11
-3037.22192492117
 21
-1144.02504272314
 31
0.0
  0
LINE
  5
2AD
  8
0
  6
CONTINUOUS
 62
     7
 10
-3029.66424669852
 20
-1168.73372192236
 30
0.0
 11
-3033.08905138602
 21
-1157.74779052587
 31
0.0
  0
LINE
  5
2AE
  8
0
  6
CONTINUOUS
 62
     7
 10
-3026.30261339774
 20
-1179.21005554052
 30
0.0
 11
-3029.66424669852
 21
-1168.73372192236
 31
0.0
  0
LINE
  5
2AF
  8
0
  6
CONTINUOUS
 62
     7
 10
-3022.41772570242
 20
-1190.97699279638
 30
0.0
 11
-3026.30261339774
 21
-1179.21005554052
 31
0.0
  0
LINE
  5
2B0
  8
0
  6
CONTINUOUS
 62
     7
 10
-3017.59979357352
 20
-1205.1364166245
 30
0.0
 11
-3022.41772570242
 21
-1190.97699279638
 31
0.0
  0
LINE
  5
2B1
  8
0
  6
CONTINUOUS
 62
     7
 10
-3009.58758654227
 20
-1227.98565978857
 30
0.0
 11
-3017.59979357352
 21
-1205.1364166245
 31
0.0
  0
LINE
  5
2B2
  8
0
  6
CONTINUOUS
 62
     7
 10
-3007.42791857352
 20
-1234.12915344091
 30
0.0
 11
-3009.58758654227
 21
-1227.98565978857
 31
0.0
  0
LINE
  5
2B3
  8
0
  6
CONTINUOUS
 62
     7
 10
-3005.50842394461
 20
-1239.68908996435
 30
0.0
 11
-3007.42791857352
 21
-1234.12915344091
 31
0.0
  0
LINE
  5
2B4
  8
0
  6
CONTINUOUS
 62
     7
 10
-3004.65057482352
 20
-1242.25516052099
 30
0.0
 11
-3005.50842394461
 21
-1239.68908996435
 31
0.0
  0
LINE
  5
2B5
  8
0
  6
CONTINUOUS
 62
     7
 10
-3004.35064806571
 20
-1243.18243713232
 30
0.0
 11
-3004.65057482352
 21
-1242.25516052099
 31
0.0
  0
LINE
  5
2B6
  8
0
  6
CONTINUOUS
 62
     7
 10
-3004.26037706961
 20
-1243.46945495458
 30
0.0
 11
-3004.35064806571
 21
-1243.18243713232
 31
0.0
  0
LINE
  5
2B7
  8
0
  6
CONTINUOUS
 62
     7
 10
-2974.25848497977
 20
-1223.39483947607
 30
0.0
 11
-2974.25848497977
 21
-1150.29362792822
 31
0.0
  0
LINE
  5
2B8
  8
0
  6
CONTINUOUS
 62
     7
 10
-2974.25848497977
 20
-1223.39483947607
 30
0.0
 11
-2974.25848497977
 21
-1243.47565002294
 31
0.0
  0
LINE
  5
2B9
  8
0
  6
CONTINUOUS
 62
     7
 10
-2831.16021837821
 20
-563.525942991692
 30
0.0
 11
-2950.602528246113
 21
-595.1154028003049
 31
0.0
  0
LINE
  5
2BA
  8
0
  6
CONTINUOUS
 62
     7
 10
-2847.79571642508
 20
-537.177554319817
 30
0.0
 11
-2937.171192302961
 21
-559.2977351824328
 31
0.0
  0
LINE
  5
2BB
  8
1
  6
CONTINUOUS
 62
     1
 10
-2976.21357377515
 20
683.397194087158
 30
0.0
 11
-2976.21357377515
 21
306.739318749592
 31
0.0
  0
LINE
  5
2BC
  8
1
  6
CONTINUOUS
 62
     7
 10
-2986.90954361777
 20
306.739318749592
 30
0.0
 11
-2966.21357377515
 21
306.739318749592
 31
0.0
  0
LINE
  5
2BD
  8
1
  6
CONTINUOUS
 62
     7
 10
-2700.61975804536
 20
260.747094660917
 30
0.0
 11
-2940.61975804536
 21
260.747094660917
 31
0.0
  0
LINE
  5
2BE
  8
0
  6
CONTINUOUS
 62
     7
 10
-2966.21357377515
 20
582.6581572505691
 30
0.0
 11
-2966.21357377515
 21
306.739318749592
 31
0.0
  0
LINE
  5
2BF
  8
1
  6
CONTINUOUS
 62
     7
 10
-2955.61975804536
 20
275.747094660917
 30
0.0
 11
-2955.61975804536
 21
635.747140765774
 31
0.0
  0
LINE
  5
2C0
  8
1
  6
CONTINUOUS
 62
     7
 10
-2940.61975804536
 20
650.747140765774
 30
0.0
 11
-2700.61975804536
 21
650.747140765774
 31
0.0
  0
LINE
  5
2C1
  8
1
  6
CONTINUOUS
 62
     7
 10
-2862.38343643759
 20
1030.74712617985
 30
0.0
 11
-2700.61957674968
 21
1030.74710087344
 31
0.0
  0
LINE
  5
2C2
  8
1
  6
CONTINUOUS
 62
     7
 10
-2904.19423546663
 20
1350.74711795495
 30
0.0
 11
-2893.07213109149
 21
1350.74713124959
 31
0.0
  0
LINE
  5
2C3
  8
1
  6
CONTINUOUS
 62
     7
 10
-2921.80273698327
 20
1041.60545970427
 30
0.0
 11
-2918.77870361689
 21
1041.60545970427
 31
0.0
  0
LINE
  5
2C4
  8
0
  6
CONTINUOUS
 62
     7
 10
-2700.61976510883
 20
230.747100873501
 30
0.0
 11
-2735.61975807457
 21
230.747100873501
 31
0.0
  0
LINE
  5
2C5
  8
1
  6
CONTINUOUS
 62
     1
 10
-2966.14119215163
 20
759.391460651563
 30
0.0
 11
-2960.10772293178
 21
650.747140765774
 31
0.0
  0
LINE
  5
2C6
  8
1
  6
CONTINUOUS
 62
     1
 10
-2921.5349130916
 20
1036.60545970427
 30
0.0
 11
-2909.60848300439
 21
1036.60545970427
 31
0.0
  0
LINE
  5
2C7
  8
1
  6
CONTINUOUS
 62
     1
 10
-2862.59831654519
 20
1035.74712621346
 30
0.0
 11
-2700.61957596748
 21
1035.74710087344
 31
0.0
  0
LINE
  5
2C8
  8
1
  6
CONTINUOUS
 62
     1
 10
-2949.08088417154
 20
1312.93749581556
 30
0.0
 11
-2951.12277140182
 21
1305.80452990033
 31
0.0
  0
LINE
  5
2C9
  8
1
  6
CONTINUOUS
 62
     1
 10
-2904.05977042074
 20
1345.74711811568
 30
0.0
 11
-2893.07212858827
 21
1345.74713124959
 31
0.0
  0
LINE
  5
2CA
  8
1
  6
CONTINUOUS
 62
     1
 10
-2893.07212858827
 20
1345.74713124959
 30
0.0
 11
-2700.61950218823
 21
1345.74710114221
 31
0.0
  0
LINE
  5
2CB
  8
1
  6
CONTINUOUS
 62
     1
 10
-2958.11952843538
 20
1149.34050599437
 30
0.0
 11
-2958.11952843538
 21
1257.63555890867
 31
0.0
  0
LINE
  5
2CC
  8
0
  6
CONTINUOUS
 62
     7
 10
-1632.36855960035
 20
766.062176724648
 30
0.0
 11
-1630.41573935651
 21
766.062162129888
 31
0.0
  0
LINE
  5
2CD
  8
0
  6
CONTINUOUS
 62
     7
 10
-1633.7742647619
 20
766.054081895062
 30
0.0
 11
-1632.36855960035
 21
766.062176724648
 31
0.0
  0
LINE
  5
2CE
  8
0
  6
CONTINUOUS
 62
     7
 10
-1633.7742647619
 20
766.054081895062
 30
0.0
 11
-1632.98031925111
 21
763.062155583445
 31
0.0
  0
LINE
  5
2CF
  8
0
  6
CONTINUOUS
 62
     7
 10
-1553.89365155823
 20
351.050662375854
 30
0.0
 11
-1552.88785612883
 21
348.625961256724
 31
0.0
  0
LINE
  5
2D0
  8
0
  6
CONTINUOUS
 62
     7
 10
-1554.33845332942
 20
352.287353314879
 30
0.0
 11
-1553.89365155823
 21
351.050662375854
 31
0.0
  0
LINE
  5
2D1
  8
0
  6
CONTINUOUS
 62
     7
 10
-1554.7433608006
 20
353.537345460189
 30
0.0
 11
-1554.33845332942
 21
352.287353314879
 31
0.0
  0
LINE
  5
2D2
  8
0
  6
CONTINUOUS
 62
     7
 10
-1555.10795110954
 20
354.799364359734
 30
0.0
 11
-1554.7433608006
 21
353.537345460189
 31
0.0
  0
LINE
  5
2D3
  8
0
  6
CONTINUOUS
 62
     7
 10
-1555.4319559619
 20
356.072019968793
 30
0.0
 11
-1555.10795110954
 21
354.799364359734
 31
0.0
  0
LINE
  5
2D4
  8
1
  6
CONTINUOUS
 62
     7
 10
-1654.85973828682
 20
558.468833567261
 30
0.0
 11
-1610.1008763108
 21
382.246069008063
 31
0.0
  0
LINE
  5
2D5
  8
0
  6
CONTINUOUS
 62
     3
 10
-1693.37849059972
 20
663.2253364547451
 30
0.0
 11
-1708.51145035965
 21
690.63904869193
 31
0.0
  0
LINE
  5
2D6
  8
0
  6
CONTINUOUS
 62
     3
 10
-1688.33093437525
 20
654.081569734039
 30
0.0
 11
-1708.51145035965
 21
690.63904869193
 31
0.0
  0
LINE
  5
2D7
  8
0
  6
CONTINUOUS
 62
     3
 10
-1708.51145035965
 20
690.63904869193
 30
0.0
 11
-1726.11445984219
 21
721.7281166084171
 31
0.0
  0
LINE
  5
2D8
  8
1
  6
CONTINUOUS
 62
     3
 10
-1717.13182007889
 20
463.081182990872
 30
0.0
 11
-1590.25812628358
 21
332.847223145493
 31
0.0
  0
LINE
  5
2D9
  8
0
  6
CONTINUOUS
 62
     3
 10
-1734.85614029925
 20
583.007576956784
 30
0.0
 11
-1756.59402610263
 21
606.0917707465931
 31
0.0
  0
LINE
  5
2DA
  8
0
  6
CONTINUOUS
 62
     3
 10
-1756.59402610263
 20
606.0917707465931
 30
0.0
 11
-1778.30653358687
 21
628.654685196309
 31
0.0
  0
LINE
  5
2DB
  8
0
  6
CONTINUOUS
 62
     3
 10
-1778.30653358687
 20
628.654685196309
 30
0.0
 11
-1803.35617793775
 21
654.128424706895
 31
0.0
  0
LINE
  5
2DC
  8
0
  6
CONTINUOUS
 62
     3
 10
-1672.07240324709
 20
513.368429228817
 30
0.0
 11
-1690.52743194023
 21
534.3242198163071
 31
0.0
  0
LINE
  5
2DD
  8
0
  6
CONTINUOUS
 62
     3
 10
-1690.52743194023
 20
534.3242198163071
 30
0.0
 11
-1712.90415578605
 21
559.175564640716
 31
0.0
  0
LINE
  5
2DE
  8
0
  6
CONTINUOUS
 62
     3
 10
-1672.07240324709
 20
513.368429228817
 30
0.0
 11
-1690.52743194023
 21
534.3242198163071
 31
0.0
  0
LINE
  5
2DF
  8
0
  6
CONTINUOUS
 62
     3
 10
-1690.52743194023
 20
534.3242198163071
 30
0.0
 11
-1712.90415578605
 21
559.175564640716
 31
0.0
  0
LINE
  5
2E0
  8
0
  6
CONTINUOUS
 62
     3
 10
-1690.52743194023
 20
534.3242198163071
 30
0.0
 11
-1712.90415578605
 21
559.175564640716
 31
0.0
  0
LINE
  5
2E1
  8
0
  6
CONTINUOUS
 62
     3
 10
-1690.52743194023
 20
534.3242198163071
 30
0.0
 11
-1712.90415578605
 21
559.175564640716
 31
0.0
  0
LINE
  5
2E2
  8
0
  6
CONTINUOUS
 62
     3
 10
-1712.90415578605
 20
559.175564640716
 30
0.0
 11
-1734.85614029925
 21
583.007576956784
 31
0.0
  0
LINE
  5
2E3
  8
0
  6
CONTINUOUS
 62
     3
 10
-1631.24984594437
 20
465.512929063687
 30
0.0
 11
-1649.0788378481
 21
486.727675122938
 31
0.0
  0
LINE
  5
2E4
  8
0
  6
CONTINUOUS
 62
     3
 10
-1649.0788378481
 20
486.727675122938
 30
0.0
 11
-1672.07240324709
 21
513.368429228817
 31
0.0
  0
LINE
  5
2E5
  8
1
  6
CONTINUOUS
 62
     1
 10
-2700.61957674968
 20
1030.74710087344
 30
0.0
 11
-2700.61957674968
 21
650.747140765774
 31
0.0
  0
LINE
  5
2E6
  8
1
  6
CONTINUOUS
 62
     1
 10
-2957.92734166221
 20
1261.45037048709
 30
0.0
 11
-2958.11952843538
 21
1257.63555890867
 31
0.0
  0
LINE
  5
2E7
  8
1
  6
CONTINUOUS
 62
     1
 10
-2443.11958870824
 20
1257.63555890867
 30
0.0
 11
-2443.31177548142
 21
1261.45037048709
 31
0.0
  0
LINE
  5
2E8
  8
1
  6
CONTINUOUS
 62
     1
 10
-2700.61954039394
 20
650.747140765774
 30
0.0
 11
-2700.61954039394
 21
1030.74710087344
 31
0.0
  0
LINE
  5
2E9
  8
1
  6
CONTINUOUS
 62
     1
 10
-2443.11958870824
 20
1257.63555890867
 30
0.0
 11
-2443.11958870824
 21
1149.34050599437
 31
0.0
  0
LINE
  5
2EA
  8
1
  6
CONTINUOUS
 62
     1
 10
-2700.61961495539
 20
1345.74710114221
 30
0.0
 11
-2508.16698855535
 21
1345.74713124959
 31
0.0
  0
LINE
  5
2EB
  8
1
  6
CONTINUOUS
 62
     1
 10
-2508.16698855535
 20
1345.74713124959
 30
0.0
 11
-2497.17934672288
 21
1345.74711811568
 31
0.0
  0
LINE
  5
2EC
  8
1
  6
CONTINUOUS
 62
     1
 10
-2450.1163457418
 20
1305.80452990033
 30
0.0
 11
-2452.15823297208
 21
1312.93749581556
 31
0.0
  0
LINE
  5
2ED
  8
1
  6
CONTINUOUS
 62
     1
 10
-2700.61954117614
 20
1035.74710087344
 30
0.0
 11
-2538.64080059843
 21
1035.74712621346
 31
0.0
  0
LINE
  5
2EE
  8
1
  6
CONTINUOUS
 62
     1
 10
-2491.63063413923
 20
1036.60545970427
 30
0.0
 11
-2479.70420405202
 21
1036.60545970427
 31
0.0
  0
LINE
  5
2EF
  8
1
  6
CONTINUOUS
 62
     1
 10
-2441.13139421184
 20
650.747140765774
 30
0.0
 11
-2435.097924992
 21
759.391460651563
 31
0.0
  0
LINE
  5
2F0
  8
0
  6
CONTINUOUS
 62
     7
 10
-2665.61935906905
 20
230.747100873501
 30
0.0
 11
-2700.61935203479
 21
230.747100873501
 31
0.0
  0
LINE
  5
2F1
  8
1
  6
CONTINUOUS
 62
     7
 10
-2482.46041352673
 20
1041.60545970427
 30
0.0
 11
-2479.43638016035
 21
1041.60545970427
 31
0.0
  0
LINE
  5
2F2
  8
1
  6
CONTINUOUS
 62
     7
 10
-2508.16698605214
 20
1350.74713124959
 30
0.0
 11
-2497.04488167699
 21
1350.74711795495
 31
0.0
  0
LINE
  5
2F3
  8
1
  6
CONTINUOUS
 62
     7
 10
-2700.61954039394
 20
1030.74710087344
 30
0.0
 11
-2538.85568070603
 21
1030.74712617985
 31
0.0
  0
LINE
  5
2F4
  8
1
  6
CONTINUOUS
 62
     7
 10
-2700.61935909826
 20
650.747140765774
 30
0.0
 11
-2460.61935909826
 21
650.747140765774
 31
0.0
  0
LINE
  5
2F5
  8
1
  6
CONTINUOUS
 62
     7
 10
-2445.61935909826
 20
635.747140765774
 30
0.0
 11
-2445.61935909826
 21
275.747094660917
 31
0.0
  0
LINE
  5
2F6
  8
0
  6
CONTINUOUS
 62
     7
 10
-2435.02554336847
 20
306.739318749592
 30
0.0
 11
-2435.02554336847
 21
582.6581572505691
 31
0.0
  0
LINE
  5
2F7
  8
1
  6
CONTINUOUS
 62
     7
 10
-2460.61935909826
 20
260.747094660917
 30
0.0
 11
-2700.61935909826
 21
260.747094660917
 31
0.0
  0
LINE
  5
2F8
  8
1
  6
CONTINUOUS
 62
     7
 10
-2435.02554336847
 20
306.739318749592
 30
0.0
 11
-2414.32957352585
 21
306.739318749592
 31
0.0
  0
LINE
  5
2F9
  8
1
  6
CONTINUOUS
 62
     1
 10
-2425.02554336847
 20
306.739318749592
 30
0.0
 11
-2425.02554336847
 21
683.397194087158
 31
0.0
  0
LINE
  5
2FA
  8
0
  6
CONTINUOUS
 62
     7
 10
-2700.6196157376
 20
1350.74710114221
 30
0.0
 11
-2508.16698605214
 21
1350.74713124959
 31
0.0
  0
LINE
  5
2FB
  8
0
  6
CONTINUOUS
 62
     7
 10
-2438.11958870824
 20
1254.02673330037
 30
0.0
 11
-2438.11958870824
 21
1149.34050599437
 31
0.0
  0
LINE
  5
2FC
  8
0
  6
CONTINUOUS
 62
     7
 10
-2335.86562613717
 20
766.062218392848
 30
0.0
 11
-2407.03250869615
 21
766.062056810782
 31
0.0
  0
LINE
  5
2FD
  8
0
  6
CONTINUOUS
 62
     7
 10
-2434.91616836847
 20
702.065704247639
 30
0.0
 11
-2435.02554336847
 21
696.802978417561
 31
0.0
  0
LINE
  5
2FE
  8
0
  6
CONTINUOUS
 62
     7
 10
-2434.59988418878
 20
707.175308129475
 30
0.0
 11
-2434.91616836847
 21
702.065704247639
 31
0.0
  0
LINE
  5
2FF
  8
0
  6
CONTINUOUS
 62
     7
 10
-2433.71902481378
 20
714.942718407795
 30
0.0
 11
-2434.59988418878
 21
707.175308129475
 31
0.0
  0
LINE
  5
300
  8
0
  6
CONTINUOUS
 62
     7
 10
-2432.37405411066
 20
722.57562246053
 30
0.0
 11
-2433.71902481378
 21
714.942718407795
 31
0.0
  0
LINE
  5
301
  8
0
  6
CONTINUOUS
 62
     7
 10
-2431.54226700128
 20
726.293609521077
 30
0.0
 11
-2432.37405411066
 21
722.57562246053
 31
0.0
  0
LINE
  5
302
  8
0
  6
CONTINUOUS
 62
     7
 10
-2429.65542618097
 20
733.280975243733
 30
0.0
 11
-2431.54226700128
 21
726.293609521077
 31
0.0
  0
LINE
  5
303
  8
0
  6
CONTINUOUS
 62
     7
 10
-2427.50515762628
 20
739.7828749629711
 30
0.0
 11
-2429.65542618097
 21
733.280975243733
 31
0.0
  0
LINE
  5
304
  8
0
  6
CONTINUOUS
 62
     7
 10
-2425.79068008722
 20
744.264213463948
 30
0.0
 11
-2427.50515762628
 21
739.7828749629711
 31
0.0
  0
LINE
  5
305
  8
0
  6
CONTINUOUS
 62
     7
 10
-2424.04446426691
 20
748.3717802974441
 30
0.0
 11
-2425.79068008722
 21
744.264213463948
 31
0.0
  0
LINE
  5
306
  8
0
  6
CONTINUOUS
 62
     7
 10
-2418.49856582941
 20
758.477012536213
 30
0.0
 11
-2417.91018692316
 21
759.3524550410961
 31
0.0
  0
LINE
  5
307
  8
0
  6
CONTINUOUS
 62
     7
 10
-2419.10025039972
 20
757.551338097737
 30
0.0
 11
-2418.49856582941
 21
758.477012536213
 31
0.0
  0
LINE
  5
308
  8
0
  6
CONTINUOUS
 62
     7
 10
-2420.02078262628
 20
756.070175072834
 30
0.0
 11
-2419.10025039972
 21
757.551338097737
 31
0.0
  0
LINE
  5
309
  8
0
  6
CONTINUOUS
 62
     7
 10
-2420.95315567316
 20
754.480483910725
 30
0.0
 11
-2420.02078262628
 21
756.070175072834
 31
0.0
  0
LINE
  5
30A
  8
0
  6
CONTINUOUS
 62
     7
 10
-2421.88870254816
 20
752.782150170491
 30
0.0
 11
-2420.95315567316
 21
754.480483910725
 31
0.0
  0
LINE
  5
30B
  8
0
  6
CONTINUOUS
 62
     7
 10
-2422.82168594659
 20
750.968406579182
 30
0.0
 11
-2421.88870254816
 21
752.782150170491
 31
0.0
  0
LINE
  5
30C
  8
0
  6
CONTINUOUS
 62
     7
 10
-2423.43740860284
 20
749.695457360432
 30
0.0
 11
-2422.82168594659
 21
750.968406579182
 31
0.0
  0
LINE
  5
30D
  8
0
  6
CONTINUOUS
 62
     7
 10
-2424.04446426691
 20
748.3717802974441
 30
0.0
 11
-2423.43740860284
 21
749.695457360432
 31
0.0
  0
LINE
  5
30E
  8
0
  6
CONTINUOUS
 62
     7
 10
-2435.02554336847
 20
582.6581572505691
 30
0.0
 11
-2435.02554336847
 21
696.802978417561
 31
0.0
  0
LINE
  5
30F
  8
0
  6
CONTINUOUS
 62
     7
 10
-2406.62661758722
 20
765.9960478755691
 30
0.0
 11
-2405.201141513
 21
766.062194726155
 31
0.0
  0
LINE
  5
310
  8
0
  6
CONTINUOUS
 62
     7
 10
-2408.04342666925
 20
765.797477624104
 30
0.0
 11
-2406.62661758722
 21
765.9960478755691
 31
0.0
  0
LINE
  5
311
  8
0
  6
CONTINUOUS
 62
     7
 10
-2410.13339248956
 20
765.250488183186
 30
0.0
 11
-2408.04342666925
 21
765.797477624104
 31
0.0
  0
LINE
  5
312
  8
0
  6
CONTINUOUS
 62
     7
 10
-2412.1532899505
 20
764.402572533772
 30
0.0
 11
-2410.13339248956
 21
765.250488183186
 31
0.0
  0
LINE
  5
313
  8
0
  6
CONTINUOUS
 62
     7
 10
-2414.07009903253
 20
763.249969384358
 30
0.0
 11
-2412.1532899505
 21
764.402572533772
 31
0.0
  0
LINE
  5
314
  8
0
  6
CONTINUOUS
 62
     7
 10
-2415.84573379816
 20
761.787750146077
 30
0.0
 11
-2414.07009903253
 21
763.249969384358
 31
0.0
  0
LINE
  5
315
  8
0
  6
CONTINUOUS
 62
     7
 10
-2416.92776504816
 20
760.639686486409
 30
0.0
 11
-2415.84573379816
 21
761.787750146077
 31
0.0
  0
LINE
  5
316
  8
0
  6
CONTINUOUS
 62
     7
 10
-2417.91018692316
 20
759.3524550410961
 30
0.0
 11
-2416.92776504816
 21
760.639686486409
 31
0.0
  0
LINE
  5
317
  8
0
  6
CONTINUOUS
 62
     7
 10
-2434.18068167889
 20
711.2804335567211
 30
0.0
 11
-2434.19497696222
 21
711.2804335567211
 31
0.0
  0
LINE
  5
318
  8
0
  6
CONTINUOUS
 62
     7
 10
-2434.99282852472
 20
699.685287377522
 30
0.0
 11
-2435.02554336847
 21
696.802963158772
 31
0.0
  0
LINE
  5
319
  8
0
  6
CONTINUOUS
 62
     7
 10
-2434.92849747003
 20
701.591293236897
 30
0.0
 11
-2434.99282852472
 21
699.685287377522
 31
0.0
  0
LINE
  5
31A
  8
0
  6
CONTINUOUS
 62
     7
 10
-2434.60989395441
 20
707.052787682698
 30
0.0
 11
-2434.89944473566
 21
702.452857873127
 31
0.0
  0
LINE
  5
31B
  8
0
  6
CONTINUOUS
 62
     7
 10
-2434.42007461847
 20
709.169410607502
 30
0.0
 11
-2434.51345840753
 21
708.12827291219
 31
0.0
  0
LINE
  5
31C
  8
0
  6
CONTINUOUS
 62
     7
 10
-2433.99026504816
 20
712.95892324178
 30
0.0
 11
-2434.42007461847
 21
709.169410607502
 31
0.0
  0
LINE
  5
31D
  8
0
  6
CONTINUOUS
 62
     7
 10
-2433.78396622003
 20
714.417693993733
 30
0.0
 11
-2433.99026504816
 21
712.95892324178
 31
0.0
  0
LINE
  5
31E
  8
0
  6
CONTINUOUS
 62
     7
 10
-2433.54531875909
 20
716.104423424885
 30
0.0
 11
-2433.59573379816
 21
715.748481652424
 31
0.0
  0
LINE
  5
31F
  8
0
  6
CONTINUOUS
 62
     7
 10
-2433.33743301691
 20
717.406860253499
 30
0.0
 11
-2433.54531875909
 21
716.104423424885
 31
0.0
  0
LINE
  5
320
  8
0
  6
CONTINUOUS
 62
     7
 10
-2432.98757950128
 20
719.425346276448
 30
0.0
 11
-2433.33743301691
 21
717.406860253499
 31
0.0
  0
LINE
  5
321
  8
0
  6
CONTINUOUS
 62
     7
 10
-2432.68252579034
 20
721.044746300862
 30
0.0
 11
-2432.98757950128
 21
719.425346276448
 31
0.0
  0
LINE
  5
322
  8
0
  6
CONTINUOUS
 62
     7
 10
-2432.67910782159
 20
721.0621718379711
 30
0.0
 11
-2432.68252579034
 21
721.044746300862
 31
0.0
  0
LINE
  5
323
  8
0
  6
CONTINUOUS
 62
     7
 10
-2434.92207830582
 20
701.781654832748
 30
0.0
 11
-2434.92849747003
 21
701.591293236897
 31
0.0
  0
LINE
  5
324
  8
0
  6
CONTINUOUS
 62
     7
 10
-2434.89944473566
 20
702.452857873127
 30
0.0
 11
-2434.90811005712
 21
702.195886035584
 31
0.0
  0
LINE
  5
325
  8
0
  6
CONTINUOUS
 62
     7
 10
-2434.60206042671
 20
707.140150108759
 30
0.0
 11
-2434.60989395441
 21
707.052787682698
 31
0.0
  0
LINE
  5
326
  8
0
  6
CONTINUOUS
 62
     7
 10
-2434.51345840753
 20
708.12827291219
 30
0.0
 11
-2434.59521072781
 21
707.216540508718
 31
0.0
  0
LINE
  5
327
  8
0
  6
CONTINUOUS
 62
     7
 10
-2433.75665903658
 20
714.610753522853
 30
0.0
 11
-2433.78396622003
 21
714.417693993733
 31
0.0
  0
LINE
  5
328
  8
0
  6
CONTINUOUS
 62
     7
 10
-2433.59573379816
 20
715.748481652424
 30
0.0
 11
-2433.67176905752
 21
715.210918655681
 31
0.0
  0
LINE
  5
329
  8
0
  6
CONTINUOUS
 62
     7
 10
-2433.79373184503
 20
714.419113061116
 30
0.0
 11
-2433.73000118506
 21
714.8458977430211
 31
0.0
  0
LINE
  5
32A
  8
0
  6
CONTINUOUS
 62
     7
 10
-2433.88717280196
 20
713.6881852471011
 30
0.0
 11
-2433.79373184503
 21
714.419113061116
 31
0.0
  0
LINE
  5
32B
  8
0
  6
CONTINUOUS
 62
     7
 10
-2434.19497696222
 20
711.2804335567211
 30
0.0
 11
-2434.06801143517
 21
712.273602271932
 31
0.0
  0
LINE
  5
32C
  8
0
  6
CONTINUOUS
 62
     7
 10
-2434.33218399347
 20
710.033904931233
 30
0.0
 11
-2434.36645062124
 21
709.642298061942
 31
0.0
  0
LINE
  5
32D
  8
0
  6
CONTINUOUS
 62
     7
 10
-2434.19497696222
 20
711.2804335567211
 30
0.0
 11
-2434.33218399347
 21
710.033904931233
 31
0.0
  0
LINE
  5
32E
  8
0
  6
CONTINUOUS
 62
     7
 10
-2402.61831680597
 20
333.158355614827
 30
0.0
 11
-2404.38030916574
 21
315.733267710748
 31
0.0
  0
LINE
  5
32F
  8
0
  6
CONTINUOUS
 62
     7
 10
-2393.66311661066
 20
403.783203026936
 30
0.0
 11
-2393.14871231378
 21
407.247131249592
 31
0.0
  0
LINE
  5
330
  8
0
  6
CONTINUOUS
 62
     7
 10
-2395.26089493097
 20
392.886993310139
 30
0.0
 11
-2393.66311661066
 21
403.783203026936
 31
0.0
  0
LINE
  5
331
  8
0
  6
CONTINUOUS
 62
     7
 10
-2397.24661270441
 20
378.526489159749
 30
0.0
 11
-2395.26089493097
 21
392.886993310139
 31
0.0
  0
LINE
  5
332
  8
0
  6
CONTINUOUS
 62
     7
 10
-2399.10672012628
 20
364.165679833577
 30
0.0
 11
-2397.24661270441
 21
378.526489159749
 31
0.0
  0
LINE
  5
333
  8
0
  6
CONTINUOUS
 62
     7
 10
-2400.82424942316
 20
349.804656884358
 30
0.0
 11
-2399.10672012628
 21
364.165679833577
 31
0.0
  0
LINE
  5
334
  8
0
  6
CONTINUOUS
 62
     7
 10
-2402.38577286066
 20
335.443481347249
 30
0.0
 11
-2400.82424942316
 21
349.804656884358
 31
0.0
  0
LINE
  5
335
  8
0
  6
CONTINUOUS
 62
     7
 10
-2402.77066055597
 20
331.651763817952
 30
0.0
 11
-2402.38577286066
 21
335.443481347249
 31
0.0
  0
LINE
  5
336
  8
0
  6
CONTINUOUS
 62
     7
 10
-2393.14871231378
 20
407.247131249592
 30
0.0
 11
-2392.4384462005
 21
411.865875146077
 31
0.0
  0
LINE
  5
337
  8
0
  6
CONTINUOUS
 62
     7
 10
-2388.59811416925
 20
435.882568261311
 30
0.0
 11
-2388.58450332941
 21
435.966033837483
 31
0.0
  0
LINE
  5
338
  8
0
  6
CONTINUOUS
 62
     7
 10
-2337.14712539972
 20
751.717452904866
 30
0.0
 11
-2335.86562613717
 21
766.062218392848
 31
0.0
  0
LINE
  5
339
  8
0
  6
CONTINUOUS
 62
     7
 10
-2338.52273575128
 20
737.372001549885
 30
0.0
 11
-2337.14712539972
 21
751.717452904866
 31
0.0
  0
LINE
  5
33A
  8
0
  6
CONTINUOUS
 62
     7
 10
-2340.06973282159
 20
723.025848290608
 30
0.0
 11
-2338.52273575128
 21
737.372001549885
 31
0.0
  0
LINE
  5
33B
  8
0
  6
CONTINUOUS
 62
     7
 10
-2341.77627579034
 20
708.679000756428
 30
0.0
 11
-2340.06973282159
 21
723.025848290608
 31
0.0
  0
LINE
  5
33C
  8
0
  6
CONTINUOUS
 62
     7
 10
-2343.63046280206
 20
694.331451317952
 30
0.0
 11
-2341.77627579034
 21
708.679000756428
 31
0.0
  0
LINE
  5
33D
  8
0
  6
CONTINUOUS
 62
     7
 10
-2345.62002579034
 20
679.983306786702
 30
0.0
 11
-2343.63046280206
 21
694.331451317952
 31
0.0
  0
LINE
  5
33E
  8
0
  6
CONTINUOUS
 62
     7
 10
-2347.69650284112
 20
665.958419701741
 30
0.0
 11
-2345.62002579034
 21
679.983306786702
 31
0.0
  0
LINE
  5
33F
  8
0
  6
CONTINUOUS
 62
     7
 10
-2347.74417129816
 20
665.634414574788
 30
0.0
 11
-2347.69650284112
 21
665.958419701741
 31
0.0
  0
LINE
  5
340
  8
0
  6
CONTINUOUS
 62
     7
 10
-2350.00881973566
 20
651.284881493733
 30
0.0
 11
-2347.74417129816
 21
665.634414574788
 31
0.0
  0
LINE
  5
341
  8
0
  6
CONTINUOUS
 62
     7
 10
-2351.177704013
 20
644.109863183186
 30
0.0
 11
-2350.00881973566
 21
651.284881493733
 31
0.0
  0
LINE
  5
342
  8
0
  6
CONTINUOUS
 62
     7
 10
-2353.27755752862
 20
631.5773467036941
 30
0.0
 11
-2351.177704013
 21
644.109863183186
 31
0.0
  0
LINE
  5
343
  8
0
  6
CONTINUOUS
 62
     7
 10
-2354.81161514581
 20
622.583816430256
 30
0.0
 11
-2353.27755752862
 21
631.5773467036941
 31
0.0
  0
LINE
  5
344
  8
0
  6
CONTINUOUS
 62
     7
 10
-2356.83108536066
 20
611.059982201741
 30
0.0
 11
-2354.81161514581
 21
622.583816430256
 31
0.0
  0
LINE
  5
345
  8
0
  6
CONTINUOUS
 62
     7
 10
-2358.60366836847
 20
601.056304833577
 30
0.0
 11
-2356.83108536066
 21
611.059982201741
 31
0.0
  0
LINE
  5
346
  8
0
  6
CONTINUOUS
 62
     7
 10
-2360.50015274347
 20
590.576766869709
 30
0.0
 11
-2358.60366836847
 21
601.056304833577
 31
0.0
  0
LINE
  5
347
  8
0
  6
CONTINUOUS
 62
     7
 10
-2363.83279434503
 20
572.350738427327
 30
0.0
 11
-2360.50015274347
 21
590.576766869709
 31
0.0
  0
LINE
  5
348
  8
0
  6
CONTINUOUS
 62
     7
 10
-2367.82968155206
 20
550.81991567342
 30
0.0
 11
-2363.83279434503
 21
572.350738427327
 31
0.0
  0
LINE
  5
349
  8
0
  6
CONTINUOUS
 62
     7
 10
-2373.08969131769
 20
522.720764062092
 30
0.0
 11
-2367.82968155206
 21
550.81991567342
 31
0.0
  0
LINE
  5
34A
  8
0
  6
CONTINUOUS
 62
     7
 10
-2375.88735977472
 20
507.754119774983
 30
0.0
 11
-2373.08969131769
 21
522.720764062092
 31
0.0
  0
LINE
  5
34B
  8
0
  6
CONTINUOUS
 62
     7
 10
-2379.34512344659
 20
489.001861474202
 30
0.0
 11
-2375.88735977472
 21
507.754119774983
 31
0.0
  0
LINE
  5
34C
  8
0
  6
CONTINUOUS
 62
     7
 10
-2382.42977920831
 20
471.861846825764
 30
0.0
 11
-2379.34512344659
 21
489.001861474202
 31
0.0
  0
LINE
  5
34D
  8
0
  6
CONTINUOUS
 62
     7
 10
-2384.94802872003
 20
457.503906151936
 30
0.0
 11
-2382.42977920831
 21
471.861846825764
 31
0.0
  0
LINE
  5
34E
  8
0
  6
CONTINUOUS
 62
     7
 10
-2387.39230362237
 20
443.14544667928
 30
0.0
 11
-2384.94802872003
 21
457.503906151936
 31
0.0
  0
LINE
  5
34F
  8
0
  6
CONTINUOUS
 62
     7
 10
-2388.58450332941
 20
435.966033837483
 30
0.0
 11
-2387.39230362237
 21
443.14544667928
 31
0.0
  0
LINE
  5
350
  8
0
  6
CONTINUOUS
 62
     7
 10
-2391.75979629816
 20
416.278289696858
 30
0.0
 11
-2390.91976944269
 21
421.606841942952
 31
0.0
  0
LINE
  5
351
  8
0
  6
CONTINUOUS
 62
     7
 10
-2389.90396133722
 20
427.914306542561
 30
0.0
 11
-2389.76480118097
 21
428.786498925374
 31
0.0
  0
LINE
  5
352
  8
0
  6
CONTINUOUS
 62
     7
 10
-2392.04818741144
 20
414.427032372639
 30
0.0
 11
-2391.75979629816
 21
416.278289696858
 31
0.0
  0
LINE
  5
353
  8
0
  6
CONTINUOUS
 62
     7
 10
-2392.4384462005
 20
411.865875146077
 30
0.0
 11
-2392.04818741144
 21
414.427032372639
 31
0.0
  0
LINE
  5
354
  8
0
  6
CONTINUOUS
 62
     7
 10
-2389.76480118097
 20
428.786498925374
 30
0.0
 11
-2388.59811416925
 21
435.882568261311
 31
0.0
  0
LINE
  5
355
  8
0
  6
CONTINUOUS
 62
     7
 10
-2390.91976944269
 20
421.606841942952
 30
0.0
 11
-2389.90396133722
 21
427.914306542561
 31
0.0
  0
LINE
  5
356
  8
0
  6
CONTINUOUS
 62
     7
 10
-2432.02463122748
 20
724.558648064722
 30
0.0
 11
-2430.11263965628
 21
758.987766091363
 31
0.0
  0
LINE
  5
357
  8
0
  6
CONTINUOUS
 62
     7
 10
-2400.65527014226
 20
181.7994368297
 30
0.0
 11
-2401.72254414593
 21
202.1642379769
 31
0.0
  0
LINE
  5
358
  8
0
  6
CONTINUOUS
 62
     7
 10
-2402.61664521742
 20
203.1064239161
 30
0.0
 11
-2665.60011955174
 21
230.747100873501
 31
0.0
  0
LINE
  5
359
  8
0
  6
CONTINUOUS
 62
     7
 10
-2423.89790478524
 20
180.747100873501
 30
0.0
 11
-2700.61934026234
 21
180.747100873501
 31
0.0
  0
LINE
  5
35A
  8
0
  6
CONTINUOUS
 62
     7
 10
-2405.48324218154
 20
180.747100873501
 30
0.0
 11
-2423.89790478524
 21
180.747100873501
 31
0.0
  0
LINE
  5
35B
  8
0
  6
CONTINUOUS
 62
     7
 10
-2401.65389967702
 20
180.747100873501
 30
0.0
 11
-2405.48324218154
 21
180.747100873501
 31
0.0
  0
LINE
  5
35C
  8
0
  6
CONTINUOUS
 62
     7
 10
-2665.61935906905
 20
260.747101709094
 30
0.0
 11
-2665.61935906905
 21
230.747100873501
 31
0.0
  0
LINE
  5
35D
  8
1
  6
CONTINUOUS
 62
     3
 10
-1647.98579918947
 20
1290.3844912087
 30
0.0
 11
-1653.60328851211
 21
1270.68566512117
 31
0.0
  0
LINE
  5
35E
  8
1
  6
CONTINUOUS
 62
     7
 10
-1065.21150322085
 20
422.300633670094
 30
0.0
 11
-1095.0321789794
 21
270.21518730148
 31
0.0
  0
LINE
  5
35F
  8
1
  6
CONTINUOUS
 62
     7
 10
-968.911921557215
 20
578.674570039367
 30
0.0
 11
-1058.30605796684
 21
263.763407687265
 31
0.0
  0
LINE
  5
360
  8
1
  6
CONTINUOUS
 62
     3
 10
-966.091209236179
 20
662.719715064276
 30
0.0
 11
-653.238730773867
 21
685.432292396412
 31
0.0
  0
LINE
  5
361
  8
1
  6
CONTINUOUS
 62
     3
 10
-963.75208211449
 20
599.036093813439
 30
0.0
 11
-646.740347295771
 21
648.714388902461
 31
0.0
  0
ARC
  5
362
  8
1
  6
CONTINUOUS
 62
     3
 10
-2708.157245133758
 20
-431.698861921219
 30
0.0
 40
918.999999999999
 50
-105.6618157712739
 51
-73.35971350623059
  0
ARC
  5
363
  8
1
  6
CONTINUOUS
 62
     7
 10
-2704.620085913229
 20
-1533.374422008226
 30
0.0
 40
955.3376682872632
 50
74.66187307683821
 51
89.76008995461061
  0
ARC
  5
364
  8
1
  6
CONTINUOUS
 62
     7
 10
-2695.246086849311
 20
1221.675963871953
 30
0.0
 40
1973.000000000117
 50
-90.15605382316291
 51
-82.71296491862462
  0
ARC
  5
365
  8
1
  6
CONTINUOUS
 62
     7
 10
-2453.464367304739
 20
-603.4245416020632
 30
0.0
 40
8.776901978338621
 50
-79.85953709803974
 51
79.16185731264925
  0
ARC
  5
366
  8
1
  6
CONTINUOUS
 62
     1
 10
-2445.08693366302
 20
-621.3515497564413
 30
0.0
 40
14.00000000001572
 50
-13.56996026562234
 51
92.18248300980744
  0
ARC
  5
367
  8
1
  6
CONTINUOUS
 62
     1
 10
-2731.892671203448
 20
-1448.28242337355
 30
0.0
 40
887.0000000000005
 50
76.61911029850384
 51
87.97951559233088
  0
ARC
  5
368
  8
1
  6
CONTINUOUS
 62
     3
 10
-2694.120085912099
 20
-1800.250000680202
 30
0.0
 40
1595.509278142439
 50
80.35640974058995
 51
81.039724351226
  0
ARC
  5
369
  8
1
  6
CONTINUOUS
 62
     7
 10
-2472.676815483497
 20
-604.6849463684587
 30
0.0
 40
50.50328365401645
 50
-25.82769807867445
 51
12.75318865552795
  0
ARC
  5
36A
  8
1
  6
CONTINUOUS
 62
     7
 10
-2486.159151138782
 20
-626.7737296732984
 30
0.0
 40
71.00000000000014
 50
27.91319808012283
 51
71.87242844251668
  0
ARC
  5
36B
  8
1
  6
CONTINUOUS
 62
     7
 10
-2446.797658526613
 20
-622.9133804890512
 30
0.0
 40
20.00000000000576
 50
-14.02248509252825
 51
61.86112897689783
  0
ARC
  5
36C
  8
1
  6
CONTINUOUS
 62
     7
 10
-2954.442185430766
 20
-622.9133804890512
 30
0.0
 40
20.00000000000547
 50
118.1388710231022
 51
-165.9775149074718
  0
ARC
  5
36D
  8
1
  6
CONTINUOUS
 62
     7
 10
-2915.080692818597
 20
-626.7737296732984
 30
0.0
 40
71.00000000000006
 50
108.1275715574833
 51
152.0868019198772
  0
ARC
  5
36E
  8
1
  6
CONTINUOUS
 62
     7
 10
-2928.563028473882
 20
-604.6849463684587
 30
0.0
 40
50.50328365401644
 50
167.2468113444721
 51
-154.1723019213256
  0
ARC
  5
36F
  8
1
  6
CONTINUOUS
 62
     3
 10
-2707.11975804528
 20
-1800.250000680202
 30
0.0
 40
1595.509278142439
 50
98.96027564877402
 51
99.64359025941006
  0
ARC
  5
370
  8
1
  6
CONTINUOUS
 62
     1
 10
-2669.347172753931
 20
-1448.28242337355
 30
0.0
 40
887.0000000000005
 50
92.02048440766913
 51
103.3808897014962
  0
ARC
  5
371
  8
1
  6
CONTINUOUS
 62
     1
 10
-2956.152910294359
 20
-621.3515497564413
 30
0.0
 40
14.00000000001664
 50
87.81751699019256
 51
-166.4300397343777
  0
ARC
  5
372
  8
1
  6
CONTINUOUS
 62
     7
 10
-2947.77547665264
 20
-603.4245416020632
 30
0.0
 40
8.776901978338522
 50
100.8381426873508
 51
-100.1404629019603
  0
ARC
  5
373
  8
1
  6
CONTINUOUS
 62
     7
 10
-2705.993757108068
 20
1221.675963871953
 30
0.0
 40
1973.000000000117
 50
-97.28703508137538
 51
-89.84394617683709
  0
ARC
  5
374
  8
1
  6
CONTINUOUS
 62
     7
 10
-2696.61975804415
 20
-1533.374422008226
 30
0.0
 40
955.3376682872631
 50
90.23991004538941
 51
105.3381269231618
  0
ARC
  5
375
  8
1
  6
CONTINUOUS
 62
     1
 10
-2700.61955857181
 20
1353.062767215016
 30
0.0
 40
813.489045506504
 50
-108.2681613985685
 51
-71.73183860143143
  0
ARC
  5
376
  8
1
  6
CONTINUOUS
 62
     3
 10
-2011.805325261119
 20
1122.575230710384
 30
0.0
 40
69.00000000000033
 50
144.5704844540711
 51
-161.2322836052164
  0
ARC
  5
377
  8
1
  6
CONTINUOUS
 62
     3
 10
-2011.805325261119
 20
1122.575230710384
 30
0.0
 40
69.00000000000033
 50
144.5704844540711
 51
-161.2322836052164
  0
ARC
  5
378
  8
1
  6
CONTINUOUS
 62
     3
 10
-1806.217919698623
 20
1228.163594032482
 30
0.0
 40
69.00000000000031
 50
129.5704844540714
 51
-176.2322836052167
  0
ARC
  5
379
  8
1
  6
CONTINUOUS
 62
     3
 10
-1806.217919698623
 20
1228.163594032482
 30
0.0
 40
69.00000000000031
 50
129.5704844540714
 51
-176.2322836052167
  0
ARC
  5
37A
  8
1
  6
CONTINUOUS
 62
     7
 10
-2986.90954361777
 20
316.739318749592
 30
0.0
 40
10.00000000000589
 50
-174.2259838963579
 51
-90.0
  0
ARC
  5
37B
  8
1
  6
CONTINUOUS
 62
     7
 10
-2940.61975804536
 20
635.747140765774
 30
0.0
 40
15.0
 50
90.0
 51
180.0
  0
ARC
  5
37C
  8
1
  6
CONTINUOUS
 62
     7
 10
-2940.61975804536
 20
275.747094660917
 30
0.0
 40
15.0
 50
180.0
 51
-90.0
  0
ARC
  5
37D
  8
1
  6
CONTINUOUS
 62
     1
 10
-2991.77826240012
 20
899.269731281343
 30
0.0
 40
5.000000000003237
 50
10.66880623081984
 51
17.17483889186005
  0
ARC
  5
37E
  8
1
  6
CONTINUOUS
 62
     1
 10
-2409.4608547435
 20
899.269731281343
 30
0.0
 40
5.000000000000685
 50
162.82516110814
 51
169.3311937691802
  0
ARC
  5
37F
  8
1
  6
CONTINUOUS
 62
     7
 10
-2460.61935909826
 20
275.747094660917
 30
0.0
 40
15.0
 50
-90.0
 51
0.0
  0
ARC
  5
380
  8
1
  6
CONTINUOUS
 62
     7
 10
-2460.61935909826
 20
635.747140765774
 30
0.0
 40
15.0
 50
0.0
 51
90.0
  0
ARC
  5
381
  8
1
  6
CONTINUOUS
 62
     7
 10
-2414.32957352585
 20
316.739318749592
 30
0.0
 40
10.0
 50
-90.0
 51
-5.77401610364239
  0
ARC
  5
382
  8
0
  6
CONTINUOUS
 62
     7
 10
-2999.58521746661
 20
181.747100873501
 30
0.0
 40
1.000000000002975
 50
177.0000000025309
 51
-90.0
  0
ARC
  5
383
  8
0
  6
CONTINUOUS
 62
     7
 10
-2998.51794346295
 20
202.1119020207
 30
0.0
 40
1.000000000030758
 50
95.99999999937771
 51
177.0000000024437
  0
ARC
  5
384
  8
0
  6
CONTINUOUS
 62
     7
 10
-1662.89487353336
 20
202.1119020207
 30
0.0
 40
1.000000000029713
 50
95.99999999880762
 51
177.000000002413
  0
ARC
  5
385
  8
0
  6
CONTINUOUS
 62
     7
 10
-1663.96214753701
 20
181.747100873501
 30
0.0
 40
1.000000000003202
 50
177.0000000025316
 51
-90.0
  0
ARC
  5
386
  8
0
  6
CONTINUOUS
 62
     7
 10
-1066.06970778758
 20
181.747100873501
 30
0.0
 40
1.0
 50
-90.0
 51
2.99999999746843
  0
ARC
  5
387
  8
0
  6
CONTINUOUS
 62
     7
 10
-1067.13698179123
 20
202.1119020207
 30
0.0
 40
0.9999999999932653
 50
2.99999999755697
 51
84.00000000062229
  0
ARC
  5
388
  8
1
  6
CONTINUOUS
 62
     1
 10
-3069.29421840597
 20
678.094656719407
 30
0.0
 40
92.99999999999952
 50
45.12569807556548
 51
71.06496582711665
  0
ARC
  5
389
  8
1
  6
CONTINUOUS
 62
     1
 10
-3048.45250558137
 20
694.157766702796
 30
0.0
 40
67.00000000000644
 50
15.82399325833326
 51
48.06551229406863
  0
ARC
  5
38A
  8
1
  6
CONTINUOUS
 62
     1
 10
-3103.89705185277
 20
664.744657861525
 30
0.0
 40
129.0387061375252
 50
8.31121763554806
 51
21.6862554855572
  0
ARC
  5
38B
  8
1
  6
CONTINUOUS
 62
     7
 10
-2836.6674271152
 20
1137.55636106517
 30
0.0
 40
127.0000000000055
 50
174.6759496355848
 51
-142.6452463736558
  0
ARC
  5
38C
  8
1
  6
CONTINUOUS
 62
     7
 10
-2878.0977417803
 20
1101.01134614703
 30
0.0
 40
72.00000000000847
 50
-145.7595643527753
 51
-117.9056343679121
  0
ARC
  5
38D
  8
1
  6
CONTINUOUS
 62
     7
 10
-2872.14286616095
 20
1145.34849216717
 30
0.0
 40
115.0161708399545
 50
-110.1666706815646
 51
-85.13244685775074
  0
ARC
  5
38E
  8
1
  6
CONTINUOUS
 62
     1
 10
-2872.14286616095
 20
1145.34849216717
 30
0.0
 40
110.0161708399579
 50
-110.1666706815657
 51
-85.02299761094996
  0
ARC
  5
38F
  8
1
  6
CONTINUOUS
 62
     1
 10
-2836.6674271152
 20
1137.55636106517
 30
0.0
 40
121.999999999999
 50
174.6759496355854
 51
-142.6452463736533
  0
ARC
  5
390
  8
1
  6
CONTINUOUS
 62
     7
 10
-1535.97360983123
 20
414.897996428448
 30
0.0
 40
80.99999999999544
 50
-156.2272424126348
 51
-94.18402867722723
  0
ARC
  5
391
  8
1
  6
CONTINUOUS
 62
     7
 10
-1619.63351129466
 20
985.705004593122
 30
0.0
 40
101.0684116251793
 50
139.0095524917188
 51
-174.5595499397098
  0
ARC
  5
392
  8
1
  6
CONTINUOUS
 62
     7
 10
-1545.50477090024
 20
1149.03365133566
 30
0.0
 40
179.0000000000031
 50
173.968936843752
 51
-147.1738156665531
  0
ARC
  5
393
  8
1
  6
CONTINUOUS
 62
     7
 10
-1647.89896653735
 20
1297.95819430572
 30
0.0
 40
68.99999999999997
 50
129.5704844540687
 51
-176.2322836052216
  0
ARC
  5
394
  8
1
  6
CONTINUOUS
 62
     3
 10
-1768.82572580527
 20
936.66981577942
 30
0.0
 40
101.06841162517
 50
154.0095524917128
 51
-159.5595499397089
  0
ARC
  5
395
  8
1
  6
CONTINUOUS
 62
     3
 10
-1768.82572580527
 20
936.66981577942
 30
0.0
 40
101.06841162517
 50
154.0095524917128
 51
-159.5595499397089
  0
ARC
  5
396
  8
1
  6
CONTINUOUS
 62
     3
 10
-1739.49542537581
 20
1113.61910364441
 30
0.0
 40
179.0000000000013
 50
-171.0310631562504
 51
-132.1738156665535
  0
ARC
  5
397
  8
1
  6
CONTINUOUS
 62
     3
 10
-1876.94513140763
 20
1230.96759792866
 30
0.0
 40
69.00000000000328
 50
144.570484454068
 51
-161.2322836052225
  0
ARC
  5
398
  8
1
  6
CONTINUOUS
 62
     3
 10
-1917.71004917629
 20
1029.20280145292
 30
0.0
 40
179.0000000000026
 50
-156.0310631562498
 51
-117.1738156665541
  0
ARC
  5
399
  8
1
  6
CONTINUOUS
 62
     3
 10
-2080.84829528313
 20
1106.97814109343
 30
0.0
 40
68.99999999999902
 50
159.5704844540717
 51
-146.2322836052215
  0
ARC
  5
39A
  8
1
  6
CONTINUOUS
 62
     3
 10
-1900.24309813713
 20
850.69167401094
 30
0.0
 40
101.0684116251805
 50
169.0095524917159
 51
-144.5595499397115
  0
ARC
  5
39B
  8
1
  6
CONTINUOUS
 62
     3
 10
-1542.38799410936
 20
398.18825501386
 30
0.0
 40
81.00000000000142
 50
-126.227242412637
 51
-69.00723208952233
  0
ARC
  5
39C
  8
1
  6
CONTINUOUS
 62
     3
 10
-4651.05861081767
 20
-3952.41099134127
 30
0.0
 40
5477.000000000001
 50
57.08905206396398
 51
57.92010888212678
  0
ARC
  5
39D
  8
1
  6
CONTINUOUS
 62
     1
 10
-2890.66865763562
 20
1087.07191308753
 30
0.0
 40
49.00000000000286
 50
-151.2894767553079
 51
-113.3264802915792
  0
ARC
  5
39E
  8
1
  6
CONTINUOUS
 62
     1
 10
-2510.57045950801
 20
1087.07191308753
 30
0.0
 40
49.00000000001384
 50
-66.67351970840956
 51
-28.71052324468626
  0
ARC
  5
39F
  8
1
  6
CONTINUOUS
 62
     1
 10
-2564.57169002843
 20
1137.55636106517
 30
0.0
 40
122.0000000000022
 50
-37.35475362634368
 51
5.32405036441412
  0
ARC
  5
3A0
  8
1
  6
CONTINUOUS
 62
     1
 10
-2529.09625098267
 20
1145.34849216717
 30
0.0
 40
110.0161708399577
 50
-94.97700238905006
 51
-69.8333293184343
  0
ARC
  5
3A1
  8
1
  6
CONTINUOUS
 62
     7
 10
-2529.09625098267
 20
1145.34849216717
 30
0.0
 40
115.0161708399512
 50
-94.86755314224928
 51
-69.83332931843542
  0
ARC
  5
3A2
  8
1
  6
CONTINUOUS
 62
     7
 10
-2523.14137536332
 20
1101.01134614703
 30
0.0
 40
71.99999999999966
 50
-62.0943656320876
 51
-34.24043564722453
  0
ARC
  5
3A3
  8
1
  6
CONTINUOUS
 62
     7
 10
-2564.57169002843
 20
1137.55636106517
 30
0.0
 40
127.0000000000102
 50
-37.35475362634131
 51
5.32405036441476
  0
ARC
  5
3A4
  8
1
  6
CONTINUOUS
 62
     1
 10
-2297.34206529085
 20
664.744657861525
 30
0.0
 40
129.0387061375211
 50
158.3137445144432
 51
171.688782364452
  0
ARC
  5
3A5
  8
1
  6
CONTINUOUS
 62
     1
 10
-2352.78661156226
 20
694.157766702796
 30
0.0
 40
66.99999999999739
 50
131.934487705925
 51
164.1760067416652
  0
ARC
  5
3A6
  8
1
  6
CONTINUOUS
 62
     1
 10
-2331.94489873765
 20
678.094656719407
 30
0.0
 40
93.00000000000021
 50
108.9350341728836
 51
134.8743019244347
  0
ARC
  5
3A7
  8
0
  6
CONTINUOUS
 62
     7
 10
-2402.72117368066
 20
202.1119020207
 30
0.0
 40
0.9999999999730568
 50
2.99999999761766
 51
84.00000000176244
  0
ARC
  5
3A8
  8
0
  6
CONTINUOUS
 62
     7
 10
-2401.65389967702
 20
181.747100873501
 30
0.0
 40
1.0
 50
-90.0
 51
2.99999999746911
  0
ARC
  5
3A9
  8
1
  6
CONTINUOUS
 62
     3
 10
-1580.30745573708
 20
1276.9441851281
 30
0.0
 40
69.00000000000037
 50
114.570484454072
 51
168.7677163947835
  0
ARC
  5
3AA
  8
1
  6
CONTINUOUS
 62
     7
 10
-1077.66567354505
 20
261.316505744507
 30
0.0
 40
19.51363739679821
 50
152.8691783274014
 51
7.20353567129726
  0
ARC
  5
3AB
  8
1
  6
CONTINUOUS
 62
     3
 10
-644.3180165796809
 20
668.077094249481
 30
0.0
 40
19.51363739679585
 50
-97.13082167260342
 51
117.2035356712971
  0
POLYLINE
  5
3AC
  8
0
  6
CONTINUOUS
 62
     7
 66
     1
 10
0.0
 20
0.0
 30
0.0
  0
VERTEX
  5
40D
  8
0
  6
CONTINUOUS
 62
     7
 10
-2700.619902101752
 20
-519.9328157686668
 30
0.0
  0
VERTEX
  5
40E
  8
0
  6
CONTINUOUS
 62
     7
 10
-2697.890259538368
 20
-519.9138773496178
 30
0.0
  0
VERTEX
  5
40F
  8
0
  6
CONTINUOUS
 62
     7
 10
-2695.160558607968
 20
-519.907564169932
 30
0.0
  0
VERTEX
  5
410
  8
0
  6
CONTINUOUS
 62
     7
 10
-2671.309143833946
 20
-520.3896439512374
 30
0.0
  0
VERTEX
  5
411
  8
0
  6
CONTINUOUS
 62
     7
 10
-2647.496697872723
 20
-521.8350523096754
 30
0.0
  0
VERTEX
  5
412
  8
0
  6
CONTINUOUS
 62
     7
 10
-2623.760797028794
 20
-524.1990905401508
 30
0.0
  0
VERTEX
  5
413
  8
0
  6
CONTINUOUS
 62
     7
 10
-2600.159981750016
 20
-527.6033263156999
 30
0.0
  0
VERTEX
  5
414
  8
0
  6
CONTINUOUS
 62
     7
 10
-2576.746962748699
 20
-532.0880641950838
 30
0.0
  0
VERTEX
  5
415
  8
0
  6
CONTINUOUS
 62
     7
 10
-2553.444128895817
 20
-537.1775596895602
 30
0.0
  0
SEQEND
  5
416
  8
0
  6
CONTINUOUS
 62
     7
  0
POLYLINE
  5
3AD
  8
0
  6
CONTINUOUS
 62
     7
 66
     1
 10
0.0
 20
0.0
 30
0.0
  0
VERTEX
  5
417
  8
0
  6
CONTINUOUS
 62
     7
 10
-2700.619895643639
 20
-547.3617052726747
 30
0.0
  0
VERTEX
  5
418
  8
0
  6
CONTINUOUS
 62
     7
 10
-2697.797714463082
 20
-547.3373607778044
 30
0.0
  0
VERTEX
  5
419
  8
0
  6
CONTINUOUS
 62
     7
 10
-2694.975439993067
 20
-547.3292456711329
 30
0.0
  0
VERTEX
  5
41A
  8
0
  6
CONTINUOUS
 62
     7
 10
-2673.902673271548
 20
-547.7818370160578
 30
0.0
  0
VERTEX
  5
41B
  8
0
  6
CONTINUOUS
 62
     7
 10
-2652.868775168588
 20
-549.1390908443576
 30
0.0
  0
VERTEX
  5
41C
  8
0
  6
CONTINUOUS
 62
     7
 10
-2631.948733401844
 20
-551.3544913415016
 30
0.0
  0
VERTEX
  5
41D
  8
0
  6
CONTINUOUS
 62
     7
 10
-2621.533962622262
 20
-552.8179902302361
 30
0.0
  0
VERTEX
  5
41E
  8
0
  6
CONTINUOUS
 62
     7
 10
-2611.163632050842
 20
-554.5455164281461
 30
0.0
  0
VERTEX
  5
41F
  8
0
  6
CONTINUOUS
 62
     7
 10
-2590.566484467109
 20
-558.7515846904748
 30
0.0
  0
VERTEX
  5
420
  8
0
  6
CONTINUOUS
 62
     7
 10
-2570.079627209526
 20
-563.5259483559938
 30
0.0
  0
SEQEND
  5
421
  8
0
  6
CONTINUOUS
 62
     7
  0
POLYLINE
  5
3AE
  8
1
  6
CONTINUOUS
 62
     1
 66
     1
 10
0.0
 20
0.0
 30
0.0
  0
VERTEX
  5
422
  8
1
  6
CONTINUOUS
 62
     1
 10
-2362.316625090889
 20
-1099.01311035009
 30
0.0
  0
VERTEX
  5
423
  8
1
  6
CONTINUOUS
 62
     1
 10
-2365.635697154815
 20
-1109.760688202316
 30
0.0
  0
VERTEX
  5
424
  8
1
  6
CONTINUOUS
 62
     1
 10
-2369.461698155299
 20
-1120.317401860599
 30
0.0
  0
VERTEX
  5
425
  8
1
  6
CONTINUOUS
 62
     1
 10
-2374.194508979932
 20
-1130.510321153036
 30
0.0
  0
VERTEX
  5
426
  8
1
  6
CONTINUOUS
 62
     1
 10
-2379.813730967369
 20
-1140.254550827721
 30
0.0
  0
VERTEX
  5
427
  8
1
  6
CONTINUOUS
 62
     1
 10
-2384.437596644611
 20
-1147.11913425335
 30
0.0
  0
VERTEX
  5
428
  8
1
  6
CONTINUOUS
 62
     1
 10
-2389.375627213874
 20
-1153.758337644451
 30
0.0
  0
VERTEX
  5
429
  8
1
  6
CONTINUOUS
 62
     1
 10
-2399.871599562919
 20
-1166.713866847381
 30
0.0
  0
VERTEX
  5
42A
  8
1
  6
CONTINUOUS
 62
     1
 10
-2407.176832535235
 20
-1175.934433943076
 30
0.0
  0
VERTEX
  5
42B
  8
1
  6
CONTINUOUS
 62
     1
 10
-2410.395541107821
 20
-1180.781225758295
 30
0.0
  0
VERTEX
  5
42C
  8
1
  6
CONTINUOUS
 62
     1
 10
-2413.101257572749
 20
-1185.91820911972
 30
0.0
  0
VERTEX
  5
42D
  8
1
  6
CONTINUOUS
 62
     1
 10
-2415.439715764238
 20
-1192.393253708335
 30
0.0
  0
VERTEX
  5
42E
  8
1
  6
CONTINUOUS
 62
     1
 10
-2416.942126027218
 20
-1199.14786712955
 30
0.0
  0
VERTEX
  5
42F
  8
1
  6
CONTINUOUS
 62
     1
 10
-2417.731104823119
 20
-1205.324096223489
 30
0.0
  0
VERTEX
  5
430
  8
1
  6
CONTINUOUS
 62
     1
 10
-2418.222415512039
 20
-1211.52399881617
 30
0.0
  0
VERTEX
  5
431
  8
1
  6
CONTINUOUS
 62
     1
 10
-2419.096662822347
 20
-1227.486765970498
 30
0.0
  0
VERTEX
  5
432
  8
1
  6
CONTINUOUS
 62
     1
 10
-2419.076041772217
 20
-1243.474017659776
 30
0.0
  0
SEQEND
  5
433
  8
1
  6
CONTINUOUS
 62
     1
  0
POLYLINE
  5
3AF
  8
1
  6
CONTINUOUS
 62
     1
 66
     1
 10
0.0
 20
0.0
 30
0.0
  0
VERTEX
  5
434
  8
1
  6
CONTINUOUS
 62
     1
 10
-3038.92321886649
 20
-1099.01311035009
 30
0.0
  0
VERTEX
  5
435
  8
1
  6
CONTINUOUS
 62
     1
 10
-3035.604146802564
 20
-1109.760688202316
 30
0.0
  0
VERTEX
  5
436
  8
1
  6
CONTINUOUS
 62
     1
 10
-3031.77814580208
 20
-1120.317401860599
 30
0.0
  0
VERTEX
  5
437
  8
1
  6
CONTINUOUS
 62
     1
 10
-3027.045334977447
 20
-1130.510321153035
 30
0.0
  0
VERTEX
  5
438
  8
1
  6
CONTINUOUS
 62
     1
 10
-3021.426112990011
 20
-1140.25455082772
 30
0.0
  0
VERTEX
  5
439
  8
1
  6
CONTINUOUS
 62
     1
 10
-3016.802247312769
 20
-1147.11913425335
 30
0.0
  0
VERTEX
  5
43A
  8
1
  6
CONTINUOUS
 62
     1
 10
-3011.864216743506
 20
-1153.758337644451
 30
0.0
  0
VERTEX
  5
43B
  8
1
  6
CONTINUOUS
 62
     1
 10
-3001.368244394461
 20
-1166.713866847381
 30
0.0
  0
VERTEX
  5
43C
  8
1
  6
CONTINUOUS
 62
     1
 10
-2994.063011422143
 20
-1175.934433943076
 30
0.0
  0
VERTEX
  5
43D
  8
1
  6
CONTINUOUS
 62
     1
 10
-2990.844302849557
 20
-1180.781225758295
 30
0.0
  0
VERTEX
  5
43E
  8
1
  6
CONTINUOUS
 62
     1
 10
-2988.138586384629
 20
-1185.91820911972
 30
0.0
  0
VERTEX
  5
43F
  8
1
  6
CONTINUOUS
 62
     1
 10
-2985.80012819314
 20
-1192.393253708335
 30
0.0
  0
VERTEX
  5
440
  8
1
  6
CONTINUOUS
 62
     1
 10
-2984.297717930162
 20
-1199.147867129551
 30
0.0
  0
VERTEX
  5
441
  8
1
  6
CONTINUOUS
 62
     1
 10
-2983.50873913426
 20
-1205.324096223488
 30
0.0
  0
VERTEX
  5
442
  8
1
  6
CONTINUOUS
 62
     1
 10
-2983.01742844534
 20
-1211.52399881617
 30
0.0
  0
VERTEX
  5
443
  8
1
  6
CONTINUOUS
 62
     1
 10
-2982.143181135032
 20
-1227.486765970498
 30
0.0
  0
VERTEX
  5
444
  8
1
  6
CONTINUOUS
 62
     1
 10
-2982.163802185162
 20
-1243.474017659776
 30
0.0
  0
SEQEND
  5
445
  8
1
  6
CONTINUOUS
 62
     1
  0
POLYLINE
  5
3B0
  8
1
  6
CONTINUOUS
 62
     3
 66
     1
 10
0.0
 20
0.0
 30
0.0
  0
VERTEX
  5
446
  8
1
  6
CONTINUOUS
 62
     3
 10
-1945.218557531081
 20
863.9087963275316
 30
0.0
  0
VERTEX
  5
447
  8
1
  6
CONTINUOUS
 62
     3
 10
-1944.30380720905
 20
865.5706060497475
 30
0.0
  0
VERTEX
  5
448
  8
1
  6
CONTINUOUS
 62
     3
 10
-1943.830979707331
 20
867.4090322963921
 30
0.0
  0
VERTEX
  5
449
  8
1
  6
CONTINUOUS
 62
     3
 10
-1943.624554094892
 20
868.7521064692195
 30
0.0
  0
VERTEX
  5
44A
  8
1
  6
CONTINUOUS
 62
     3
 10
-1943.503178704526
 20
870.102691641874
 30
0.0
  0
VERTEX
  5
44B
  8
1
  6
CONTINUOUS
 62
     3
 10
-1943.468617244855
 20
871.4242243769272
 30
0.0
  0
VERTEX
  5
44C
  8
1
  6
CONTINUOUS
 62
     3
 10
-1943.510622873233
 20
872.7462585352489
 30
0.0
  0
VERTEX
  5
44D
  8
1
  6
CONTINUOUS
 62
     3
 10
-1943.624163832987
 20
874.1106778654776
 30
0.0
  0
VERTEX
  5
44E
  8
1
  6
CONTINUOUS
 62
     3
 10
-1943.789472089823
 20
875.4698140054353
 30
0.0
  0
VERTEX
  5
44F
  8
1
  6
CONTINUOUS
 62
     3
 10
-1943.987014981492
 20
876.8374015914485
 30
0.0
  0
VERTEX
  5
450
  8
1
  6
CONTINUOUS
 62
     3
 10
-1944.194849252755
 20
878.2032991343078
 30
0.0
  0
VERTEX
  5
451
  8
1
  6
CONTINUOUS
 62
     3
 10
-1944.6335158109
 20
881.2002229025386
 30
0.0
  0
VERTEX
  5
452
  8
1
  6
CONTINUOUS
 62
     3
 10
-1945.086916353304
 20
884.1960707010909
 30
0.0
  0
VERTEX
  5
453
  8
1
  6
CONTINUOUS
 62
     3
 10
-1945.613253443891
 20
887.1596041370678
 30
0.0
  0
VERTEX
  5
454
  8
1
  6
CONTINUOUS
 62
     3
 10
-1946.276191362732
 20
890.0924482129177
 30
0.0
  0
VERTEX
  5
455
  8
1
  6
CONTINUOUS
 62
     3
 10
-1947.705782741341
 20
894.7068026458907
 30
0.0
  0
VERTEX
  5
456
  8
1
  6
CONTINUOUS
 62
     3
 10
-1949.450455760253
 20
899.223185750057
 30
0.0
  0
VERTEX
  5
457
  8
1
  6
CONTINUOUS
 62
     3
 10
-1951.3528528709
 20
903.6927834177909
 30
0.0
  0
VERTEX
  5
458
  8
1
  6
CONTINUOUS
 62
     3
 10
-1953.148294628612
 20
908.1988957807772
 30
0.0
  0
VERTEX
  5
459
  8
1
  6
CONTINUOUS
 62
     3
 10
-1954.627788929167
 20
912.816921110684
 30
0.0
  0
VERTEX
  5
45A
  8
1
  6
CONTINUOUS
 62
     3
 10
-1955.908563991867
 20
917.5055644544208
 30
0.0
  0
SEQEND
  5
45B
  8
1
  6
CONTINUOUS
 62
     3
  0
POLYLINE
  5
3B1
  8
1
  6
CONTINUOUS
 62
     3
 66
     1
 10
0.0
 20
0.0
 30
0.0
  0
VERTEX
  5
45C
  8
1
  6
CONTINUOUS
 62
     3
 10
-1955.908563991893
 20
917.5055644545176
 30
0.0
  0
VERTEX
  5
45D
  8
1
  6
CONTINUOUS
 62
     3
 10
-1956.706764511482
 20
919.8273395141431
 30
0.0
  0
VERTEX
  5
45E
  8
1
  6
CONTINUOUS
 62
     3
 10
-1957.495347556475
 20
922.1523987128735
 30
0.0
  0
VERTEX
  5
45F
  8
1
  6
CONTINUOUS
 62
     3
 10
-1960.935619501977
 20
932.6728750955932
 30
0.0
  0
VERTEX
  5
460
  8
1
  6
CONTINUOUS
 62
     3
 10
-1964.216163838988
 20
943.2447059694691
 30
0.0
  0
VERTEX
  5
461
  8
1
  6
CONTINUOUS
 62
     3
 10
-1967.377265010124
 20
953.855434888052
 30
0.0
  0
VERTEX
  5
462
  8
1
  6
CONTINUOUS
 62
     3
 10
-1970.458268378202
 20
964.489559044279
 30
0.0
  0
VERTEX
  5
463
  8
1
  6
CONTINUOUS
 62
     3
 10
-1973.493674056085
 20
975.1142479431377
 30
0.0
  0
VERTEX
  5
464
  8
1
  6
CONTINUOUS
 62
     3
 10
-1976.529912307817
 20
985.7387974198551
 30
0.0
  0
VERTEX
  5
465
  8
1
  6
CONTINUOUS
 62
     3
 10
-1979.606753129873
 20
996.3497595306948
 30
0.0
  0
VERTEX
  5
466
  8
1
  6
CONTINUOUS
 62
     3
 10
-1982.764797669851
 20
1006.936580220586
 30
0.0
  0
VERTEX
  5
467
  8
1
  6
CONTINUOUS
 62
     3
 10
-1986.263829080582
 20
1018.228629287815
 30
0.0
  0
VERTEX
  5
468
  8
1
  6
CONTINUOUS
 62
     3
 10
-1989.857572199753
 20
1029.49120345275
 30
0.0
  0
VERTEX
  5
469
  8
1
  6
CONTINUOUS
 62
     3
 10
-1993.502013430125
 20
1040.737146952185
 30
0.0
  0
VERTEX
  5
46A
  8
1
  6
CONTINUOUS
 62
     3
 10
-1997.153579889317
 20
1051.980632635797
 30
0.0
  0
VERTEX
  5
46B
  8
1
  6
CONTINUOUS
 62
     3
 10
-2000.80757522581
 20
1063.359306287064
 30
0.0
  0
VERTEX
  5
46C
  8
1
  6
CONTINUOUS
 62
     3
 10
-2004.377140100732
 20
1074.765042811213
 30
0.0
  0
VERTEX
  5
46D
  8
1
  6
CONTINUOUS
 62
     3
 10
-2007.817373790913
 20
1086.220585877249
 30
0.0
  0
VERTEX
  5
46E
  8
1
  6
CONTINUOUS
 62
     3
 10
-2011.077119032278
 20
1097.727764117377
 30
0.0
  0
VERTEX
  5
46F
  8
1
  6
CONTINUOUS
 62
     3
 10
-2013.201061103593
 20
1105.603644902262
 30
0.0
  0
VERTEX
  5
470
  8
1
  6
CONTINUOUS
 62
     3
 10
-2015.377086066556
 20
1113.466385372208
 30
0.0
  0
VERTEX
  5
471
  8
1
  6
CONTINUOUS
 62
     3
 10
-2017.756050338844
 20
1121.250490636482
 30
0.0
  0
VERTEX
  5
472
  8
1
  6
CONTINUOUS
 62
     3
 10
-2020.494277140003
 20
1128.91465863854
 30
0.0
  0
VERTEX
  5
473
  8
1
  6
CONTINUOUS
 62
     3
 10
-2023.677546424407
 20
1136.262367854963
 30
0.0
  0
VERTEX
  5
474
  8
1
  6
CONTINUOUS
 62
     3
 10
-2027.466684284429
 20
1143.318485388994
 30
0.0
  0
VERTEX
  5
475
  8
1
  6
CONTINUOUS
 62
     3
 10
-2032.012748895511
 20
1150.034577660099
 30
0.0
  0
VERTEX
  5
476
  8
1
  6
CONTINUOUS
 62
     3
 10
-2037.302797170839
 20
1156.169896304421
 30
0.0
  0
VERTEX
  5
477
  8
1
  6
CONTINUOUS
 62
     3
 10
-2040.478776837096
 20
1159.172794647734
 30
0.0
  0
VERTEX
  5
478
  8
1
  6
CONTINUOUS
 62
     3
 10
-2043.921006007267
 20
1161.875360147973
 30
0.0
  0
VERTEX
  5
479
  8
1
  6
CONTINUOUS
 62
     3
 10
-2047.506851409798
 20
1164.076575756278
 30
0.0
  0
VERTEX
  5
47A
  8
1
  6
CONTINUOUS
 62
     3
 10
-2051.385343645145
 20
1165.669661670524
 30
0.0
  0
VERTEX
  5
47B
  8
1
  6
CONTINUOUS
 62
     3
 10
-2055.731592229833
 20
1166.494662115897
 30
0.0
  0
VERTEX
  5
47C
  8
1
  6
CONTINUOUS
 62
     3
 10
-2060.08311392575
 20
1166.224431497165
 30
0.0
  0
VERTEX
  5
47D
  8
1
  6
CONTINUOUS
 62
     3
 10
-2064.154376148672
 20
1164.742554918458
 30
0.0
  0
VERTEX
  5
47E
  8
1
  6
CONTINUOUS
 62
     3
 10
-2068.028545213932
 20
1162.574599932062
 30
0.0
  0
SEQEND
  5
47F
  8
1
  6
CONTINUOUS
 62
     3
  0
POLYLINE
  5
3B2
  8
1
  6
CONTINUOUS
 62
     3
 66
     1
 10
0.0
 20
0.0
 30
0.0
  0
VERTEX
  5
480
  8
1
  6
CONTINUOUS
 62
     3
 10
-1955.908563991893
 20
917.5055644545176
 30
0.0
  0
VERTEX
  5
481
  8
1
  6
CONTINUOUS
 62
     3
 10
-1956.706764511482
 20
919.8273395141431
 30
0.0
  0
VERTEX
  5
482
  8
1
  6
CONTINUOUS
 62
     3
 10
-1957.495347556475
 20
922.1523987128735
 30
0.0
  0
VERTEX
  5
483
  8
1
  6
CONTINUOUS
 62
     3
 10
-1960.935619501977
 20
932.6728750955932
 30
0.0
  0
VERTEX
  5
484
  8
1
  6
CONTINUOUS
 62
     3
 10
-1964.216163838988
 20
943.2447059694691
 30
0.0
  0
VERTEX
  5
485
  8
1
  6
CONTINUOUS
 62
     3
 10
-1967.377265010124
 20
953.855434888052
 30
0.0
  0
VERTEX
  5
486
  8
1
  6
CONTINUOUS
 62
     3
 10
-1970.458268378202
 20
964.489559044279
 30
0.0
  0
VERTEX
  5
487
  8
1
  6
CONTINUOUS
 62
     3
 10
-1973.493674056085
 20
975.1142479431377
 30
0.0
  0
VERTEX
  5
488
  8
1
  6
CONTINUOUS
 62
     3
 10
-1976.529912307817
 20
985.7387974198551
 30
0.0
  0
VERTEX
  5
489
  8
1
  6
CONTINUOUS
 62
     3
 10
-1979.606753129873
 20
996.3497595306948
 30
0.0
  0
VERTEX
  5
48A
  8
1
  6
CONTINUOUS
 62
     3
 10
-1982.764797669851
 20
1006.936580220586
 30
0.0
  0
VERTEX
  5
48B
  8
1
  6
CONTINUOUS
 62
     3
 10
-1986.263829080582
 20
1018.228629287815
 30
0.0
  0
VERTEX
  5
48C
  8
1
  6
CONTINUOUS
 62
     3
 10
-1989.857572199753
 20
1029.49120345275
 30
0.0
  0
VERTEX
  5
48D
  8
1
  6
CONTINUOUS
 62
     3
 10
-1993.502013430125
 20
1040.737146952185
 30
0.0
  0
VERTEX
  5
48E
  8
1
  6
CONTINUOUS
 62
     3
 10
-1997.153579889317
 20
1051.980632635797
 30
0.0
  0
VERTEX
  5
48F
  8
1
  6
CONTINUOUS
 62
     3
 10
-2000.80757522581
 20
1063.359306287064
 30
0.0
  0
VERTEX
  5
490
  8
1
  6
CONTINUOUS
 62
     3
 10
-2004.377140100732
 20
1074.765042811213
 30
0.0
  0
VERTEX
  5
491
  8
1
  6
CONTINUOUS
 62
     3
 10
-2007.817373790913
 20
1086.220585877249
 30
0.0
  0
VERTEX
  5
492
  8
1
  6
CONTINUOUS
 62
     3
 10
-2011.077119032278
 20
1097.727764117377
 30
0.0
  0
VERTEX
  5
493
  8
1
  6
CONTINUOUS
 62
     3
 10
-2013.201061103593
 20
1105.603644902262
 30
0.0
  0
VERTEX
  5
494
  8
1
  6
CONTINUOUS
 62
     3
 10
-2015.377086066556
 20
1113.466385372208
 30
0.0
  0
VERTEX
  5
495
  8
1
  6
CONTINUOUS
 62
     3
 10
-2017.756050338844
 20
1121.250490636482
 30
0.0
  0
VERTEX
  5
496
  8
1
  6
CONTINUOUS
 62
     3
 10
-2020.494277140003
 20
1128.91465863854
 30
0.0
  0
VERTEX
  5
497
  8
1
  6
CONTINUOUS
 62
     3
 10
-2023.677546424407
 20
1136.262367854963
 30
0.0
  0
VERTEX
  5
498
  8
1
  6
CONTINUOUS
 62
     3
 10
-2027.466684284429
 20
1143.318485388994
 30
0.0
  0
VERTEX
  5
499
  8
1
  6
CONTINUOUS
 62
     3
 10
-2032.012748895511
 20
1150.034577660099
 30
0.0
  0
VERTEX
  5
49A
  8
1
  6
CONTINUOUS
 62
     3
 10
-2037.302797170839
 20
1156.169896304421
 30
0.0
  0
VERTEX
  5
49B
  8
1
  6
CONTINUOUS
 62
     3
 10
-2040.478776837096
 20
1159.172794647734
 30
0.0
  0
VERTEX
  5
49C
  8
1
  6
CONTINUOUS
 62
     3
 10
-2043.921006007267
 20
1161.875360147973
 30
0.0
  0
VERTEX
  5
49D
  8
1
  6
CONTINUOUS
 62
     3
 10
-2047.506851409798
 20
1164.076575756278
 30
0.0
  0
VERTEX
  5
49E
  8
1
  6
CONTINUOUS
 62
     3
 10
-2051.385343645145
 20
1165.669661670524
 30
0.0
  0
VERTEX
  5
49F
  8
1
  6
CONTINUOUS
 62
     3
 10
-2055.731592229833
 20
1166.494662115897
 30
0.0
  0
VERTEX
  5
4A0
  8
1
  6
CONTINUOUS
 62
     3
 10
-2060.08311392575
 20
1166.224431497165
 30
0.0
  0
VERTEX
  5
4A1
  8
1
  6
CONTINUOUS
 62
     3
 10
-2064.154376148672
 20
1164.742554918458
 30
0.0
  0
VERTEX
  5
4A2
  8
1
  6
CONTINUOUS
 62
     3
 10
-2068.028545213932
 20
1162.574599932062
 30
0.0
  0
SEQEND
  5
4A3
  8
1
  6
CONTINUOUS
 62
     3
  0
POLYLINE
  5
3B3
  8
1
  6
CONTINUOUS
 62
     3
 66
     1
 10
0.0
 20
0.0
 30
0.0
  0
VERTEX
  5
4A4
  8
1
  6
CONTINUOUS
 62
     3
 10
-1955.908563991893
 20
917.5055644545176
 30
0.0
  0
VERTEX
  5
4A5
  8
1
  6
CONTINUOUS
 62
     3
 10
-1956.706764511482
 20
919.8273395141431
 30
0.0
  0
VERTEX
  5
4A6
  8
1
  6
CONTINUOUS
 62
     3
 10
-1957.495347556475
 20
922.1523987128735
 30
0.0
  0
VERTEX
  5
4A7
  8
1
  6
CONTINUOUS
 62
     3
 10
-1960.935619501977
 20
932.6728750955932
 30
0.0
  0
VERTEX
  5
4A8
  8
1
  6
CONTINUOUS
 62
     3
 10
-1964.216163838988
 20
943.2447059694691
 30
0.0
  0
VERTEX
  5
4A9
  8
1
  6
CONTINUOUS
 62
     3
 10
-1967.377265010124
 20
953.855434888052
 30
0.0
  0
VERTEX
  5
4AA
  8
1
  6
CONTINUOUS
 62
     3
 10
-1970.458268378202
 20
964.489559044279
 30
0.0
  0
VERTEX
  5
4AB
  8
1
  6
CONTINUOUS
 62
     3
 10
-1973.493674056085
 20
975.1142479431377
 30
0.0
  0
VERTEX
  5
4AC
  8
1
  6
CONTINUOUS
 62
     3
 10
-1976.529912307817
 20
985.7387974198551
 30
0.0
  0
VERTEX
  5
4AD
  8
1
  6
CONTINUOUS
 62
     3
 10
-1979.606753129873
 20
996.3497595306948
 30
0.0
  0
VERTEX
  5
4AE
  8
1
  6
CONTINUOUS
 62
     3
 10
-1982.764797669851
 20
1006.936580220586
 30
0.0
  0
VERTEX
  5
4AF
  8
1
  6
CONTINUOUS
 62
     3
 10
-1986.263829080582
 20
1018.228629287815
 30
0.0
  0
VERTEX
  5
4B0
  8
1
  6
CONTINUOUS
 62
     3
 10
-1989.857572199753
 20
1029.49120345275
 30
0.0
  0
VERTEX
  5
4B1
  8
1
  6
CONTINUOUS
 62
     3
 10
-1993.502013430125
 20
1040.737146952185
 30
0.0
  0
VERTEX
  5
4B2
  8
1
  6
CONTINUOUS
 62
     3
 10
-1997.153579889317
 20
1051.980632635797
 30
0.0
  0
VERTEX
  5
4B3
  8
1
  6
CONTINUOUS
 62
     3
 10
-2000.80757522581
 20
1063.359306287064
 30
0.0
  0
VERTEX
  5
4B4
  8
1
  6
CONTINUOUS
 62
     3
 10
-2004.377140100732
 20
1074.765042811213
 30
0.0
  0
VERTEX
  5
4B5
  8
1
  6
CONTINUOUS
 62
     3
 10
-2007.817373790913
 20
1086.220585877249
 30
0.0
  0
VERTEX
  5
4B6
  8
1
  6
CONTINUOUS
 62
     3
 10
-2011.077119032278
 20
1097.727764117377
 30
0.0
  0
VERTEX
  5
4B7
  8
1
  6
CONTINUOUS
 62
     3
 10
-2013.201061103593
 20
1105.603644902262
 30
0.0
  0
VERTEX
  5
4B8
  8
1
  6
CONTINUOUS
 62
     3
 10
-2015.377086066556
 20
1113.466385372208
 30
0.0
  0
VERTEX
  5
4B9
  8
1
  6
CONTINUOUS
 62
     3
 10
-2017.756050338844
 20
1121.250490636482
 30
0.0
  0
VERTEX
  5
4BA
  8
1
  6
CONTINUOUS
 62
     3
 10
-2020.494277140003
 20
1128.91465863854
 30
0.0
  0
VERTEX
  5
4BB
  8
1
  6
CONTINUOUS
 62
     3
 10
-2023.677546424407
 20
1136.262367854963
 30
0.0
  0
VERTEX
  5
4BC
  8
1
  6
CONTINUOUS
 62
     3
 10
-2027.466684284429
 20
1143.318485388994
 30
0.0
  0
VERTEX
  5
4BD
  8
1
  6
CONTINUOUS
 62
     3
 10
-2032.012748895511
 20
1150.034577660099
 30
0.0
  0
VERTEX
  5
4BE
  8
1
  6
CONTINUOUS
 62
     3
 10
-2037.302797170839
 20
1156.169896304421
 30
0.0
  0
VERTEX
  5
4BF
  8
1
  6
CONTINUOUS
 62
     3
 10
-2040.478776837096
 20
1159.172794647734
 30
0.0
  0
VERTEX
  5
4C0
  8
1
  6
CONTINUOUS
 62
     3
 10
-2043.921006007267
 20
1161.875360147973
 30
0.0
  0
VERTEX
  5
4C1
  8
1
  6
CONTINUOUS
 62
     3
 10
-2047.506851409798
 20
1164.076575756278
 30
0.0
  0
VERTEX
  5
4C2
  8
1
  6
CONTINUOUS
 62
     3
 10
-2051.385343645145
 20
1165.669661670524
 30
0.0
  0
VERTEX
  5
4C3
  8
1
  6
CONTINUOUS
 62
     3
 10
-2055.731592229833
 20
1166.494662115897
 30
0.0
  0
VERTEX
  5
4C4
  8
1
  6
CONTINUOUS
 62
     3
 10
-2060.08311392575
 20
1166.224431497165
 30
0.0
  0
VERTEX
  5
4C5
  8
1
  6
CONTINUOUS
 62
     3
 10
-2064.154376148672
 20
1164.742554918458
 30
0.0
  0
VERTEX
  5
4C6
  8
1
  6
CONTINUOUS
 62
     3
 10
-2068.028545213932
 20
1162.574599932062
 30
0.0
  0
SEQEND
  5
4C7
  8
1
  6
CONTINUOUS
 62
     3
  0
POLYLINE
  5
3B4
  8
1
  6
CONTINUOUS
 62
     3
 66
     1
 10
0.0
 20
0.0
 30
0.0
  0
VERTEX
  5
4C8
  8
1
  6
CONTINUOUS
 62
     3
 10
-1955.908563991893
 20
917.5055644545176
 30
0.0
  0
VERTEX
  5
4C9
  8
1
  6
CONTINUOUS
 62
     3
 10
-1956.706764511482
 20
919.8273395141431
 30
0.0
  0
VERTEX
  5
4CA
  8
1
  6
CONTINUOUS
 62
     3
 10
-1957.495347556475
 20
922.1523987128735
 30
0.0
  0
VERTEX
  5
4CB
  8
1
  6
CONTINUOUS
 62
     3
 10
-1960.935619501977
 20
932.6728750955932
 30
0.0
  0
VERTEX
  5
4CC
  8
1
  6
CONTINUOUS
 62
     3
 10
-1964.216163838988
 20
943.2447059694691
 30
0.0
  0
VERTEX
  5
4CD
  8
1
  6
CONTINUOUS
 62
     3
 10
-1967.377265010124
 20
953.855434888052
 30
0.0
  0
VERTEX
  5
4CE
  8
1
  6
CONTINUOUS
 62
     3
 10
-1970.458268378202
 20
964.489559044279
 30
0.0
  0
VERTEX
  5
4CF
  8
1
  6
CONTINUOUS
 62
     3
 10
-1973.493674056085
 20
975.1142479431377
 30
0.0
  0
VERTEX
  5
4D0
  8
1
  6
CONTINUOUS
 62
     3
 10
-1976.529912307817
 20
985.7387974198551
 30
0.0
  0
VERTEX
  5
4D1
  8
1
  6
CONTINUOUS
 62
     3
 10
-1979.606753129873
 20
996.3497595306948
 30
0.0
  0
VERTEX
  5
4D2
  8
1
  6
CONTINUOUS
 62
     3
 10
-1982.764797669851
 20
1006.936580220586
 30
0.0
  0
VERTEX
  5
4D3
  8
1
  6
CONTINUOUS
 62
     3
 10
-1986.263829080582
 20
1018.228629287815
 30
0.0
  0
VERTEX
  5
4D4
  8
1
  6
CONTINUOUS
 62
     3
 10
-1989.857572199753
 20
1029.49120345275
 30
0.0
  0
VERTEX
  5
4D5
  8
1
  6
CONTINUOUS
 62
     3
 10
-1993.502013430125
 20
1040.737146952185
 30
0.0
  0
VERTEX
  5
4D6
  8
1
  6
CONTINUOUS
 62
     3
 10
-1997.153579889317
 20
1051.980632635797
 30
0.0
  0
VERTEX
  5
4D7
  8
1
  6
CONTINUOUS
 62
     3
 10
-2000.80757522581
 20
1063.359306287064
 30
0.0
  0
VERTEX
  5
4D8
  8
1
  6
CONTINUOUS
 62
     3
 10
-2004.377140100732
 20
1074.765042811213
 30
0.0
  0
VERTEX
  5
4D9
  8
1
  6
CONTINUOUS
 62
     3
 10
-2007.817373790913
 20
1086.220585877249
 30
0.0
  0
VERTEX
  5
4DA
  8
1
  6
CONTINUOUS
 62
     3
 10
-2011.077119032278
 20
1097.727764117377
 30
0.0
  0
VERTEX
  5
4DB
  8
1
  6
CONTINUOUS
 62
     3
 10
-2013.201061103593
 20
1105.603644902262
 30
0.0
  0
VERTEX
  5
4DC
  8
1
  6
CONTINUOUS
 62
     3
 10
-2015.377086066556
 20
1113.466385372208
 30
0.0
  0
VERTEX
  5
4DD
  8
1
  6
CONTINUOUS
 62
     3
 10
-2017.756050338844
 20
1121.250490636482
 30
0.0
  0
VERTEX
  5
4DE
  8
1
  6
CONTINUOUS
 62
     3
 10
-2020.494277140003
 20
1128.91465863854
 30
0.0
  0
VERTEX
  5
4DF
  8
1
  6
CONTINUOUS
 62
     3
 10
-2023.677546424407
 20
1136.262367854963
 30
0.0
  0
VERTEX
  5
4E0
  8
1
  6
CONTINUOUS
 62
     3
 10
-2027.466684284429
 20
1143.318485388994
 30
0.0
  0
VERTEX
  5
4E1
  8
1
  6
CONTINUOUS
 62
     3
 10
-2032.012748895511
 20
1150.034577660099
 30
0.0
  0
VERTEX
  5
4E2
  8
1
  6
CONTINUOUS
 62
     3
 10
-2037.302797170839
 20
1156.169896304421
 30
0.0
  0
VERTEX
  5
4E3
  8
1
  6
CONTINUOUS
 62
     3
 10
-2040.478776837096
 20
1159.172794647734
 30
0.0
  0
VERTEX
  5
4E4
  8
1
  6
CONTINUOUS
 62
     3
 10
-2043.921006007267
 20
1161.875360147973
 30
0.0
  0
VERTEX
  5
4E5
  8
1
  6
CONTINUOUS
 62
     3
 10
-2047.506851409798
 20
1164.076575756278
 30
0.0
  0
VERTEX
  5
4E6
  8
1
  6
CONTINUOUS
 62
     3
 10
-2051.385343645145
 20
1165.669661670524
 30
0.0
  0
VERTEX
  5
4E7
  8
1
  6
CONTINUOUS
 62
     3
 10
-2055.731592229833
 20
1166.494662115897
 30
0.0
  0
VERTEX
  5
4E8
  8
1
  6
CONTINUOUS
 62
     3
 10
-2060.08311392575
 20
1166.224431497165
 30
0.0
  0
VERTEX
  5
4E9
  8
1
  6
CONTINUOUS
 62
     3
 10
-2064.154376148672
 20
1164.742554918458
 30
0.0
  0
VERTEX
  5
4EA
  8
1
  6
CONTINUOUS
 62
     3
 10
-2068.028545213932
 20
1162.574599932062
 30
0.0
  0
SEQEND
  5
4EB
  8
1
  6
CONTINUOUS
 62
     3
  0
POLYLINE
  5
3B5
  8
1
  6
CONTINUOUS
 62
     3
 66
     1
 10
0.0
 20
0.0
 30
0.0
  0
VERTEX
  5
4EC
  8
1
  6
CONTINUOUS
 62
     3
 10
-1955.908563991893
 20
917.5055644545176
 30
0.0
  0
VERTEX
  5
4ED
  8
1
  6
CONTINUOUS
 62
     3
 10
-1956.706764511482
 20
919.8273395141431
 30
0.0
  0
VERTEX
  5
4EE
  8
1
  6
CONTINUOUS
 62
     3
 10
-1957.495347556475
 20
922.1523987128735
 30
0.0
  0
VERTEX
  5
4EF
  8
1
  6
CONTINUOUS
 62
     3
 10
-1960.935619501977
 20
932.6728750955932
 30
0.0
  0
VERTEX
  5
4F0
  8
1
  6
CONTINUOUS
 62
     3
 10
-1964.216163838988
 20
943.2447059694691
 30
0.0
  0
VERTEX
  5
4F1
  8
1
  6
CONTINUOUS
 62
     3
 10
-1967.377265010124
 20
953.855434888052
 30
0.0
  0
VERTEX
  5
4F2
  8
1
  6
CONTINUOUS
 62
     3
 10
-1970.458268378202
 20
964.489559044279
 30
0.0
  0
VERTEX
  5
4F3
  8
1
  6
CONTINUOUS
 62
     3
 10
-1973.493674056085
 20
975.1142479431377
 30
0.0
  0
VERTEX
  5
4F4
  8
1
  6
CONTINUOUS
 62
     3
 10
-1976.529912307817
 20
985.7387974198551
 30
0.0
  0
VERTEX
  5
4F5
  8
1
  6
CONTINUOUS
 62
     3
 10
-1979.606753129873
 20
996.3497595306948
 30
0.0
  0
VERTEX
  5
4F6
  8
1
  6
CONTINUOUS
 62
     3
 10
-1982.764797669851
 20
1006.936580220586
 30
0.0
  0
VERTEX
  5
4F7
  8
1
  6
CONTINUOUS
 62
     3
 10
-1986.263829080582
 20
1018.228629287815
 30
0.0
  0
VERTEX
  5
4F8
  8
1
  6
CONTINUOUS
 62
     3
 10
-1989.857572199753
 20
1029.49120345275
 30
0.0
  0
VERTEX
  5
4F9
  8
1
  6
CONTINUOUS
 62
     3
 10
-1993.502013430125
 20
1040.737146952185
 30
0.0
  0
VERTEX
  5
4FA
  8
1
  6
CONTINUOUS
 62
     3
 10
-1997.153579889317
 20
1051.980632635797
 30
0.0
  0
VERTEX
  5
4FB
  8
1
  6
CONTINUOUS
 62
     3
 10
-2000.80757522581
 20
1063.359306287064
 30
0.0
  0
VERTEX
  5
4FC
  8
1
  6
CONTINUOUS
 62
     3
 10
-2004.377140100732
 20
1074.765042811213
 30
0.0
  0
VERTEX
  5
4FD
  8
1
  6
CONTINUOUS
 62
     3
 10
-2007.817373790913
 20
1086.220585877249
 30
0.0
  0
VERTEX
  5
4FE
  8
1
  6
CONTINUOUS
 62
     3
 10
-2011.077119032278
 20
1097.727764117377
 30
0.0
  0
VERTEX
  5
4FF
  8
1
  6
CONTINUOUS
 62
     3
 10
-2013.201061103593
 20
1105.603644902262
 30
0.0
  0
VERTEX
  5
500
  8
1
  6
CONTINUOUS
 62
     3
 10
-2015.377086066556
 20
1113.466385372208
 30
0.0
  0
VERTEX
  5
501
  8
1
  6
CONTINUOUS
 62
     3
 10
-2017.756050338844
 20
1121.250490636482
 30
0.0
  0
VERTEX
  5
502
  8
1
  6
CONTINUOUS
 62
     3
 10
-2020.494277140003
 20
1128.91465863854
 30
0.0
  0
VERTEX
  5
503
  8
1
  6
CONTINUOUS
 62
     3
 10
-2023.677546424407
 20
1136.262367854963
 30
0.0
  0
VERTEX
  5
504
  8
1
  6
CONTINUOUS
 62
     3
 10
-2027.466684284429
 20
1143.318485388994
 30
0.0
  0
VERTEX
  5
505
  8
1
  6
CONTINUOUS
 62
     3
 10
-2032.012748895511
 20
1150.034577660099
 30
0.0
  0
VERTEX
  5
506
  8
1
  6
CONTINUOUS
 62
     3
 10
-2037.302797170839
 20
1156.169896304421
 30
0.0
  0
VERTEX
  5
507
  8
1
  6
CONTINUOUS
 62
     3
 10
-2040.478776837096
 20
1159.172794647734
 30
0.0
  0
VERTEX
  5
508
  8
1
  6
CONTINUOUS
 62
     3
 10
-2043.921006007267
 20
1161.875360147973
 30
0.0
  0
VERTEX
  5
509
  8
1
  6
CONTINUOUS
 62
     3
 10
-2047.506851409798
 20
1164.076575756278
 30
0.0
  0
VERTEX
  5
50A
  8
1
  6
CONTINUOUS
 62
     3
 10
-2051.385343645145
 20
1165.669661670524
 30
0.0
  0
VERTEX
  5
50B
  8
1
  6
CONTINUOUS
 62
     3
 10
-2055.731592229833
 20
1166.494662115897
 30
0.0
  0
VERTEX
  5
50C
  8
1
  6
CONTINUOUS
 62
     3
 10
-2060.08311392575
 20
1166.224431497165
 30
0.0
  0
VERTEX
  5
50D
  8
1
  6
CONTINUOUS
 62
     3
 10
-2064.154376148672
 20
1164.742554918458
 30
0.0
  0
VERTEX
  5
50E
  8
1
  6
CONTINUOUS
 62
     3
 10
-2068.028545213932
 20
1162.574599932062
 30
0.0
  0
SEQEND
  5
50F
  8
1
  6
CONTINUOUS
 62
     3
  0
POLYLINE
  5
3B6
  8
1
  6
CONTINUOUS
 62
     3
 66
     1
 10
0.0
 20
0.0
 30
0.0
  0
VERTEX
  5
510
  8
1
  6
CONTINUOUS
 62
     3
 10
-1955.908563991893
 20
917.5055644545176
 30
0.0
  0
VERTEX
  5
511
  8
1
  6
CONTINUOUS
 62
     3
 10
-1956.706764511482
 20
919.8273395141431
 30
0.0
  0
VERTEX
  5
512
  8
1
  6
CONTINUOUS
 62
     3
 10
-1957.495347556475
 20
922.1523987128735
 30
0.0
  0
VERTEX
  5
513
  8
1
  6
CONTINUOUS
 62
     3
 10
-1960.935619501977
 20
932.6728750955932
 30
0.0
  0
VERTEX
  5
514
  8
1
  6
CONTINUOUS
 62
     3
 10
-1964.216163838988
 20
943.2447059694691
 30
0.0
  0
VERTEX
  5
515
  8
1
  6
CONTINUOUS
 62
     3
 10
-1967.377265010124
 20
953.855434888052
 30
0.0
  0
VERTEX
  5
516
  8
1
  6
CONTINUOUS
 62
     3
 10
-1970.458268378202
 20
964.489559044279
 30
0.0
  0
VERTEX
  5
517
  8
1
  6
CONTINUOUS
 62
     3
 10
-1973.493674056085
 20
975.1142479431377
 30
0.0
  0
VERTEX
  5
518
  8
1
  6
CONTINUOUS
 62
     3
 10
-1976.529912307817
 20
985.7387974198551
 30
0.0
  0
VERTEX
  5
519
  8
1
  6
CONTINUOUS
 62
     3
 10
-1979.606753129873
 20
996.3497595306948
 30
0.0
  0
VERTEX
  5
51A
  8
1
  6
CONTINUOUS
 62
     3
 10
-1982.764797669851
 20
1006.936580220586
 30
0.0
  0
VERTEX
  5
51B
  8
1
  6
CONTINUOUS
 62
     3
 10
-1986.263829080582
 20
1018.228629287815
 30
0.0
  0
VERTEX
  5
51C
  8
1
  6
CONTINUOUS
 62
     3
 10
-1989.857572199753
 20
1029.49120345275
 30
0.0
  0
VERTEX
  5
51D
  8
1
  6
CONTINUOUS
 62
     3
 10
-1993.502013430125
 20
1040.737146952185
 30
0.0
  0
VERTEX
  5
51E
  8
1
  6
CONTINUOUS
 62
     3
 10
-1997.153579889317
 20
1051.980632635797
 30
0.0
  0
VERTEX
  5
51F
  8
1
  6
CONTINUOUS
 62
     3
 10
-2000.80757522581
 20
1063.359306287064
 30
0.0
  0
VERTEX
  5
520
  8
1
  6
CONTINUOUS
 62
     3
 10
-2004.377140100732
 20
1074.765042811213
 30
0.0
  0
VERTEX
  5
521
  8
1
  6
CONTINUOUS
 62
     3
 10
-2007.817373790913
 20
1086.220585877249
 30
0.0
  0
VERTEX
  5
522
  8
1
  6
CONTINUOUS
 62
     3
 10
-2011.077119032278
 20
1097.727764117377
 30
0.0
  0
VERTEX
  5
523
  8
1
  6
CONTINUOUS
 62
     3
 10
-2013.201061103593
 20
1105.603644902262
 30
0.0
  0
VERTEX
  5
524
  8
1
  6
CONTINUOUS
 62
     3
 10
-2015.377086066556
 20
1113.466385372208
 30
0.0
  0
VERTEX
  5
525
  8
1
  6
CONTINUOUS
 62
     3
 10
-2017.756050338844
 20
1121.250490636482
 30
0.0
  0
VERTEX
  5
526
  8
1
  6
CONTINUOUS
 62
     3
 10
-2020.494277140003
 20
1128.91465863854
 30
0.0
  0
VERTEX
  5
527
  8
1
  6
CONTINUOUS
 62
     3
 10
-2023.677546424407
 20
1136.262367854963
 30
0.0
  0
VERTEX
  5
528
  8
1
  6
CONTINUOUS
 62
     3
 10
-2027.466684284429
 20
1143.318485388994
 30
0.0
  0
VERTEX
  5
529
  8
1
  6
CONTINUOUS
 62
     3
 10
-2032.012748895511
 20
1150.034577660099
 30
0.0
  0
VERTEX
  5
52A
  8
1
  6
CONTINUOUS
 62
     3
 10
-2037.302797170839
 20
1156.169896304421
 30
0.0
  0
VERTEX
  5
52B
  8
1
  6
CONTINUOUS
 62
     3
 10
-2040.478776837096
 20
1159.172794647734
 30
0.0
  0
VERTEX
  5
52C
  8
1
  6
CONTINUOUS
 62
     3
 10
-2043.921006007267
 20
1161.875360147973
 30
0.0
  0
VERTEX
  5
52D
  8
1
  6
CONTINUOUS
 62
     3
 10
-2047.506851409798
 20
1164.076575756278
 30
0.0
  0
VERTEX
  5
52E
  8
1
  6
CONTINUOUS
 62
     3
 10
-2051.385343645145
 20
1165.669661670524
 30
0.0
  0
VERTEX
  5
52F
  8
1
  6
CONTINUOUS
 62
     3
 10
-2055.731592229833
 20
1166.494662115897
 30
0.0
  0
VERTEX
  5
530
  8
1
  6
CONTINUOUS
 62
     3
 10
-2060.08311392575
 20
1166.224431497165
 30
0.0
  0
VERTEX
  5
531
  8
1
  6
CONTINUOUS
 62
     3
 10
-2064.154376148672
 20
1164.742554918458
 30
0.0
  0
VERTEX
  5
532
  8
1
  6
CONTINUOUS
 62
     3
 10
-2068.028545213932
 20
1162.574599932062
 30
0.0
  0
SEQEND
  5
533
  8
1
  6
CONTINUOUS
 62
     3
  0
POLYLINE
  5
3B7
  8
1
  6
CONTINUOUS
 62
     3
 66
     1
 10
0.0
 20
0.0
 30
0.0
  0
VERTEX
  5
534
  8
1
  6
CONTINUOUS
 62
     3
 10
-1955.908563991893
 20
917.5055644545176
 30
0.0
  0
VERTEX
  5
535
  8
1
  6
CONTINUOUS
 62
     3
 10
-1956.706764511482
 20
919.8273395141431
 30
0.0
  0
VERTEX
  5
536
  8
1
  6
CONTINUOUS
 62
     3
 10
-1957.495347556475
 20
922.1523987128735
 30
0.0
  0
VERTEX
  5
537
  8
1
  6
CONTINUOUS
 62
     3
 10
-1960.935619501977
 20
932.6728750955932
 30
0.0
  0
VERTEX
  5
538
  8
1
  6
CONTINUOUS
 62
     3
 10
-1964.216163838988
 20
943.2447059694691
 30
0.0
  0
VERTEX
  5
539
  8
1
  6
CONTINUOUS
 62
     3
 10
-1967.377265010124
 20
953.855434888052
 30
0.0
  0
VERTEX
  5
53A
  8
1
  6
CONTINUOUS
 62
     3
 10
-1970.458268378202
 20
964.489559044279
 30
0.0
  0
VERTEX
  5
53B
  8
1
  6
CONTINUOUS
 62
     3
 10
-1973.493674056085
 20
975.1142479431377
 30
0.0
  0
VERTEX
  5
53C
  8
1
  6
CONTINUOUS
 62
     3
 10
-1976.529912307817
 20
985.7387974198551
 30
0.0
  0
VERTEX
  5
53D
  8
1
  6
CONTINUOUS
 62
     3
 10
-1979.606753129873
 20
996.3497595306948
 30
0.0
  0
VERTEX
  5
53E
  8
1
  6
CONTINUOUS
 62
     3
 10
-1982.764797669851
 20
1006.936580220586
 30
0.0
  0
VERTEX
  5
53F
  8
1
  6
CONTINUOUS
 62
     3
 10
-1986.263829080582
 20
1018.228629287815
 30
0.0
  0
VERTEX
  5
540
  8
1
  6
CONTINUOUS
 62
     3
 10
-1989.857572199753
 20
1029.49120345275
 30
0.0
  0
VERTEX
  5
541
  8
1
  6
CONTINUOUS
 62
     3
 10
-1993.502013430125
 20
1040.737146952185
 30
0.0
  0
VERTEX
  5
542
  8
1
  6
CONTINUOUS
 62
     3
 10
-1997.153579889317
 20
1051.980632635797
 30
0.0
  0
VERTEX
  5
543
  8
1
  6
CONTINUOUS
 62
     3
 10
-2000.80757522581
 20
1063.359306287064
 30
0.0
  0
VERTEX
  5
544
  8
1
  6
CONTINUOUS
 62
     3
 10
-2004.377140100732
 20
1074.765042811213
 30
0.0
  0
VERTEX
  5
545
  8
1
  6
CONTINUOUS
 62
     3
 10
-2007.817373790913
 20
1086.220585877249
 30
0.0
  0
VERTEX
  5
546
  8
1
  6
CONTINUOUS
 62
     3
 10
-2011.077119032278
 20
1097.727764117377
 30
0.0
  0
VERTEX
  5
547
  8
1
  6
CONTINUOUS
 62
     3
 10
-2013.201061103593
 20
1105.603644902262
 30
0.0
  0
VERTEX
  5
548
  8
1
  6
CONTINUOUS
 62
     3
 10
-2015.377086066556
 20
1113.466385372208
 30
0.0
  0
VERTEX
  5
549
  8
1
  6
CONTINUOUS
 62
     3
 10
-2017.756050338844
 20
1121.250490636482
 30
0.0
  0
VERTEX
  5
54A
  8
1
  6
CONTINUOUS
 62
     3
 10
-2020.494277140003
 20
1128.91465863854
 30
0.0
  0
VERTEX
  5
54B
  8
1
  6
CONTINUOUS
 62
     3
 10
-2023.677546424407
 20
1136.262367854963
 30
0.0
  0
VERTEX
  5
54C
  8
1
  6
CONTINUOUS
 62
     3
 10
-2027.466684284429
 20
1143.318485388994
 30
0.0
  0
VERTEX
  5
54D
  8
1
  6
CONTINUOUS
 62
     3
 10
-2032.012748895511
 20
1150.034577660099
 30
0.0
  0
VERTEX
  5
54E
  8
1
  6
CONTINUOUS
 62
     3
 10
-2037.302797170839
 20
1156.169896304421
 30
0.0
  0
VERTEX
  5
54F
  8
1
  6
CONTINUOUS
 62
     3
 10
-2040.478776837096
 20
1159.172794647734
 30
0.0
  0
VERTEX
  5
550
  8
1
  6
CONTINUOUS
 62
     3
 10
-2043.921006007267
 20
1161.875360147973
 30
0.0
  0
VERTEX
  5
551
  8
1
  6
CONTINUOUS
 62
     3
 10
-2047.506851409798
 20
1164.076575756278
 30
0.0
  0
VERTEX
  5
552
  8
1
  6
CONTINUOUS
 62
     3
 10
-2051.385343645145
 20
1165.669661670524
 30
0.0
  0
VERTEX
  5
553
  8
1
  6
CONTINUOUS
 62
     3
 10
-2055.731592229833
 20
1166.494662115897
 30
0.0
  0
VERTEX
  5
554
  8
1
  6
CONTINUOUS
 62
     3
 10
-2060.08311392575
 20
1166.224431497165
 30
0.0
  0
VERTEX
  5
555
  8
1
  6
CONTINUOUS
 62
     3
 10
-2064.154376148672
 20
1164.742554918458
 30
0.0
  0
VERTEX
  5
556
  8
1
  6
CONTINUOUS
 62
     3
 10
-2068.028545213932
 20
1162.574599932062
 30
0.0
  0
SEQEND
  5
557
  8
1
  6
CONTINUOUS
 62
     3
  0
POLYLINE
  5
3B8
  8
1
  6
CONTINUOUS
 62
     3
 66
     1
 10
0.0
 20
0.0
 30
0.0
  0
VERTEX
  5
558
  8
1
  6
CONTINUOUS
 62
     3
 10
-1808.847840606112
 20
961.0770810276263
 30
0.0
  0
VERTEX
  5
559
  8
1
  6
CONTINUOUS
 62
     3
 10
-1807.53415164001
 20
962.4455111518379
 30
0.0
  0
VERTEX
  5
55A
  8
1
  6
CONTINUOUS
 62
     3
 10
-1806.601615619071
 20
964.098917780706
 30
0.0
  0
VERTEX
  5
55B
  8
1
  6
CONTINUOUS
 62
     3
 10
-1806.054610613896
 20
965.3428009309657
 30
0.0
  0
VERTEX
  5
55C
  8
1
  6
CONTINUOUS
 62
     3
 10
-1805.587813824949
 20
966.615951767202
 30
0.0
  0
VERTEX
  5
55D
  8
1
  6
CONTINUOUS
 62
     3
 10
-1805.212392177901
 20
967.8835092022871
 30
0.0
  0
VERTEX
  5
55E
  8
1
  6
CONTINUOUS
 62
     3
 10
-1804.910798880752
 20
969.1713679956724
 30
0.0
  0
VERTEX
  5
55F
  8
1
  6
CONTINUOUS
 62
     3
 10
-1804.66733331795
 20
970.5186824274117
 30
0.0
  0
VERTEX
  5
560
  8
1
  6
CONTINUOUS
 62
     3
 10
-1804.475238514619
 20
971.8742920516219
 30
0.0
  0
VERTEX
  5
561
  8
1
  6
CONTINUOUS
 62
     3
 10
-1804.312092582376
 20
973.2464080832523
 30
0.0
  0
VERTEX
  5
562
  8
1
  6
CONTINUOUS
 62
     3
 10
-1804.159324774827
 20
974.6195552635932
 30
0.0
  0
VERTEX
  5
563
  8
1
  6
CONTINUOUS
 62
     3
 10
-1803.807383184529
 20
977.627896590444
 30
0.0
  0
VERTEX
  5
564
  8
1
  6
CONTINUOUS
 62
     3
 10
-1803.469952011596
 20
980.6390120461311
 30
0.0
  0
VERTEX
  5
565
  8
1
  6
CONTINUOUS
 62
     3
 10
-1803.211335706699
 20
983.6377915922003
 30
0.0
  0
VERTEX
  5
566
  8
1
  6
CONTINUOUS
 62
     3
 10
-1803.092608660588
 20
986.6422823886591
 30
0.0
  0
VERTEX
  5
567
  8
1
  6
CONTINUOUS
 62
     3
 10
-1803.27920508612
 20
991.4694119826177
 30
0.0
  0
VERTEX
  5
568
  8
1
  6
CONTINUOUS
 62
     3
 10
-1803.795503851179
 20
996.2834576691186
 30
0.0
  0
VERTEX
  5
569
  8
1
  6
CONTINUOUS
 62
     3
 10
-1804.476261351856
 20
1001.093134093088
 30
0.0
  0
VERTEX
  5
56A
  8
1
  6
CONTINUOUS
 62
     3
 10
-1805.044257216315
 20
1005.910398921925
 30
0.0
  0
VERTEX
  5
56B
  8
1
  6
CONTINUOUS
 62
     3
 10
-1805.278106064922
 20
1010.753990156643
 30
0.0
  0
VERTEX
  5
56C
  8
1
  6
CONTINUOUS
 62
     3
 10
-1805.301729582599
 20
1015.614360831336
 30
0.0
  0
SEQEND
  5
56D
  8
1
  6
CONTINUOUS
 62
     3
  0
POLYLINE
  5
3B9
  8
1
  6
CONTINUOUS
 62
     3
 66
     1
 10
0.0
 20
0.0
 30
0.0
  0
VERTEX
  5
56E
  8
1
  6
CONTINUOUS
 62
     3
 10
-1805.301729582599
 20
1015.614360831436
 30
0.0
  0
VERTEX
  5
56F
  8
1
  6
CONTINUOUS
 62
     3
 10
-1805.471812475152
 20
1018.063612820642
 30
0.0
  0
VERTEX
  5
570
  8
1
  6
CONTINUOUS
 62
     3
 10
-1805.631755602862
 20
1020.513547859036
 30
0.0
  0
VERTEX
  5
571
  8
1
  6
CONTINUOUS
 62
     3
 10
-1806.231903473082
 20
1031.565955601797
 30
0.0
  0
VERTEX
  5
572
  8
1
  6
CONTINUOUS
 62
     3
 10
-1806.664474800726
 20
1042.626627426756
 30
0.0
  0
VERTEX
  5
573
  8
1
  6
CONTINUOUS
 62
     3
 10
-1806.971605334889
 20
1053.693957711554
 30
0.0
  0
VERTEX
  5
574
  8
1
  6
CONTINUOUS
 62
     3
 10
-1807.195312199383
 20
1064.763155223701
 30
0.0
  0
VERTEX
  5
575
  8
1
  6
CONTINUOUS
 62
     3
 10
-1807.377417101601
 20
1075.811437426444
 30
0.0
  0
VERTEX
  5
576
  8
1
  6
CONTINUOUS
 62
     3
 10
-1807.560362293507
 20
1086.859800443708
 30
0.0
  0
VERTEX
  5
577
  8
1
  6
CONTINUOUS
 62
     3
 10
-1807.786043225764
 20
1097.90554779184
 30
0.0
  0
VERTEX
  5
578
  8
1
  6
CONTINUOUS
 62
     3
 10
-1808.096409185871
 20
1108.948993386725
 30
0.0
  0
VERTEX
  5
579
  8
1
  6
CONTINUOUS
 62
     3
 10
-1808.553616635662
 20
1120.761891180995
 30
0.0
  0
VERTEX
  5
57A
  8
1
  6
CONTINUOUS
 62
     3
 10
-1809.109937236753
 20
1132.570831599849
 30
0.0
  0
VERTEX
  5
57B
  8
1
  6
CONTINUOUS
 62
     3
 10
-1809.719532785762
 20
1144.376829666118
 30
0.0
  0
VERTEX
  5
57C
  8
1
  6
CONTINUOUS
 62
     3
 10
-1810.336646906849
 20
1156.182297809526
 30
0.0
  0
VERTEX
  5
57D
  8
1
  6
CONTINUOUS
 62
     3
 10
-1810.921117922554
 20
1168.118976142
 30
0.0
  0
VERTEX
  5
57E
  8
1
  6
CONTINUOUS
 62
     3
 10
-1811.417030987984
 20
1180.059942990883
 30
0.0
  0
VERTEX
  5
57F
  8
1
  6
CONTINUOUS
 62
     3
 10
-1811.775128840317
 20
1192.015545891157
 30
0.0
  0
VERTEX
  5
580
  8
1
  6
CONTINUOUS
 62
     3
 10
-1811.945524072141
 20
1203.974310691655
 30
0.0
  0
VERTEX
  5
581
  8
1
  6
CONTINUOUS
 62
     3
 10
-1811.95866662828
 20
1212.1315440053
 30
0.0
  0
VERTEX
  5
582
  8
1
  6
CONTINUOUS
 62
     3
 10
-1812.025518358335
 20
1220.289564793663
 30
0.0
  0
VERTEX
  5
583
  8
1
  6
CONTINUOUS
 62
     3
 10
-1812.30874669728
 20
1228.424154364265
 30
0.0
  0
VERTEX
  5
584
  8
1
  6
CONTINUOUS
 62
     3
 10
-1812.970038038959
 20
1236.535877420421
 30
0.0
  0
VERTEX
  5
585
  8
1
  6
CONTINUOUS
 62
     3
 10
-1814.143112969712
 20
1244.45711023312
 30
0.0
  0
VERTEX
  5
586
  8
1
  6
CONTINUOUS
 62
     3
 10
-1815.976881485788
 20
1252.253497435264
 30
0.0
  0
VERTEX
  5
587
  8
1
  6
CONTINUOUS
 62
     3
 10
-1818.629790113183
 20
1259.91735251328
 30
0.0
  0
VERTEX
  5
588
  8
1
  6
CONTINUOUS
 62
     3
 10
-1822.151647051716
 20
1267.21278048751
 30
0.0
  0
VERTEX
  5
589
  8
1
  6
CONTINUOUS
 62
     3
 10
-1824.442200553365
 20
1270.935361575522
 30
0.0
  0
VERTEX
  5
58A
  8
1
  6
CONTINUOUS
 62
     3
 10
-1827.06766318674
 20
1274.436753856288
 30
0.0
  0
VERTEX
  5
58B
  8
1
  6
CONTINUOUS
 62
     3
 10
-1829.961607348318
 20
1277.491049944549
 30
0.0
  0
VERTEX
  5
58C
  8
1
  6
CONTINUOUS
 62
     3
 10
-1833.295622190409
 20
1280.033680429407
 30
0.0
  0
VERTEX
  5
58D
  8
1
  6
CONTINUOUS
 62
     3
 10
-1837.280250118353
 20
1281.955461574759
 30
0.0
  0
VERTEX
  5
58E
  8
1
  6
CONTINUOUS
 62
     3
 10
-1841.553438138793
 20
1282.820695531152
 30
0.0
  0
VERTEX
  5
58F
  8
1
  6
CONTINUOUS
 62
     3
 10
-1845.86951334657
 20
1282.443032873305
 30
0.0
  0
VERTEX
  5
590
  8
1
  6
CONTINUOUS
 62
     3
 10
-1850.172781341518
 20
1281.351657899748
 30
0.0
  0
SEQEND
  5
591
  8
1
  6
CONTINUOUS
 62
     3
  0
POLYLINE
  5
3BA
  8
1
  6
CONTINUOUS
 62
     3
 66
     1
 10
0.0
 20
0.0
 30
0.0
  0
VERTEX
  5
592
  8
1
  6
CONTINUOUS
 62
     3
 10
-1805.301729582599
 20
1015.614360831436
 30
0.0
  0
VERTEX
  5
593
  8
1
  6
CONTINUOUS
 62
     3
 10
-1805.471812475152
 20
1018.063612820642
 30
0.0
  0
VERTEX
  5
594
  8
1
  6
CONTINUOUS
 62
     3
 10
-1805.631755602862
 20
1020.513547859036
 30
0.0
  0
VERTEX
  5
595
  8
1
  6
CONTINUOUS
 62
     3
 10
-1806.231903473082
 20
1031.565955601797
 30
0.0
  0
VERTEX
  5
596
  8
1
  6
CONTINUOUS
 62
     3
 10
-1806.664474800726
 20
1042.626627426756
 30
0.0
  0
VERTEX
  5
597
  8
1
  6
CONTINUOUS
 62
     3
 10
-1806.971605334889
 20
1053.693957711554
 30
0.0
  0
VERTEX
  5
598
  8
1
  6
CONTINUOUS
 62
     3
 10
-1807.195312199383
 20
1064.763155223701
 30
0.0
  0
VERTEX
  5
599
  8
1
  6
CONTINUOUS
 62
     3
 10
-1807.377417101601
 20
1075.811437426444
 30
0.0
  0
VERTEX
  5
59A
  8
1
  6
CONTINUOUS
 62
     3
 10
-1807.560362293507
 20
1086.859800443708
 30
0.0
  0
VERTEX
  5
59B
  8
1
  6
CONTINUOUS
 62
     3
 10
-1807.786043225764
 20
1097.90554779184
 30
0.0
  0
VERTEX
  5
59C
  8
1
  6
CONTINUOUS
 62
     3
 10
-1808.096409185871
 20
1108.948993386725
 30
0.0
  0
VERTEX
  5
59D
  8
1
  6
CONTINUOUS
 62
     3
 10
-1808.553616635662
 20
1120.761891180995
 30
0.0
  0
VERTEX
  5
59E
  8
1
  6
CONTINUOUS
 62
     3
 10
-1809.109937236753
 20
1132.570831599849
 30
0.0
  0
VERTEX
  5
59F
  8
1
  6
CONTINUOUS
 62
     3
 10
-1809.719532785762
 20
1144.376829666118
 30
0.0
  0
VERTEX
  5
5A0
  8
1
  6
CONTINUOUS
 62
     3
 10
-1810.336646906849
 20
1156.182297809526
 30
0.0
  0
VERTEX
  5
5A1
  8
1
  6
CONTINUOUS
 62
     3
 10
-1810.921117922554
 20
1168.118976142
 30
0.0
  0
VERTEX
  5
5A2
  8
1
  6
CONTINUOUS
 62
     3
 10
-1811.417030987984
 20
1180.059942990883
 30
0.0
  0
VERTEX
  5
5A3
  8
1
  6
CONTINUOUS
 62
     3
 10
-1811.775128840317
 20
1192.015545891157
 30
0.0
  0
VERTEX
  5
5A4
  8
1
  6
CONTINUOUS
 62
     3
 10
-1811.945524072141
 20
1203.974310691655
 30
0.0
  0
VERTEX
  5
5A5
  8
1
  6
CONTINUOUS
 62
     3
 10
-1811.95866662828
 20
1212.1315440053
 30
0.0
  0
VERTEX
  5
5A6
  8
1
  6
CONTINUOUS
 62
     3
 10
-1812.025518358335
 20
1220.289564793663
 30
0.0
  0
VERTEX
  5
5A7
  8
1
  6
CONTINUOUS
 62
     3
 10
-1812.30874669728
 20
1228.424154364265
 30
0.0
  0
VERTEX
  5
5A8
  8
1
  6
CONTINUOUS
 62
     3
 10
-1812.970038038959
 20
1236.535877420421
 30
0.0
  0
VERTEX
  5
5A9
  8
1
  6
CONTINUOUS
 62
     3
 10
-1814.143112969712
 20
1244.45711023312
 30
0.0
  0
VERTEX
  5
5AA
  8
1
  6
CONTINUOUS
 62
     3
 10
-1815.976881485788
 20
1252.253497435264
 30
0.0
  0
VERTEX
  5
5AB
  8
1
  6
CONTINUOUS
 62
     3
 10
-1818.629790113183
 20
1259.91735251328
 30
0.0
  0
VERTEX
  5
5AC
  8
1
  6
CONTINUOUS
 62
     3
 10
-1822.151647051716
 20
1267.21278048751
 30
0.0
  0
VERTEX
  5
5AD
  8
1
  6
CONTINUOUS
 62
     3
 10
-1824.442200553365
 20
1270.935361575522
 30
0.0
  0
VERTEX
  5
5AE
  8
1
  6
CONTINUOUS
 62
     3
 10
-1827.06766318674
 20
1274.436753856288
 30
0.0
  0
VERTEX
  5
5AF
  8
1
  6
CONTINUOUS
 62
     3
 10
-1829.961607348318
 20
1277.491049944549
 30
0.0
  0
VERTEX
  5
5B0
  8
1
  6
CONTINUOUS
 62
     3
 10
-1833.295622190409
 20
1280.033680429407
 30
0.0
  0
VERTEX
  5
5B1
  8
1
  6
CONTINUOUS
 62
     3
 10
-1837.280250118353
 20
1281.955461574759
 30
0.0
  0
VERTEX
  5
5B2
  8
1
  6
CONTINUOUS
 62
     3
 10
-1841.553438138793
 20
1282.820695531152
 30
0.0
  0
VERTEX
  5
5B3
  8
1
  6
CONTINUOUS
 62
     3
 10
-1845.86951334657
 20
1282.443032873305
 30
0.0
  0
VERTEX
  5
5B4
  8
1
  6
CONTINUOUS
 62
     3
 10
-1850.172781341518
 20
1281.351657899748
 30
0.0
  0
SEQEND
  5
5B5
  8
1
  6
CONTINUOUS
 62
     3
  0
POLYLINE
  5
3BB
  8
0
  6
CONTINUOUS
 62
     1
 66
     1
 10
0.0
 20
0.0
 30
0.0
  0
VERTEX
  5
5B6
  8
0
  6
CONTINUOUS
 62
     1
 10
-2995.35055415445
 20
191.9330488048
 30
0.0
  0
VERTEX
  5
5B7
  8
0
  6
CONTINUOUS
 62
     1
 10
-2995.24991204404
 20
191.8290642362212
 30
0.0
  0
VERTEX
  5
5B8
  8
0
  6
CONTINUOUS
 62
     1
 10
-2995.117715544964
 20
191.7700105732119
 30
0.0
  0
VERTEX
  5
5B9
  8
0
  6
CONTINUOUS
 62
     1
 10
-2995.060954025442
 20
191.7509733179291
 30
0.0
  0
VERTEX
  5
5BA
  8
0
  6
CONTINUOUS
 62
     1
 10
-2995.00391577073
 20
191.7335147355984
 30
0.0
  0
VERTEX
  5
5BB
  8
0
  6
CONTINUOUS
 62
     1
 10
-2994.94689751915
 20
191.7176176088424
 30
0.0
  0
VERTEX
  5
5BC
  8
0
  6
CONTINUOUS
 62
     1
 10
-2994.889476361385
 20
191.7029920526982
 30
0.0
  0
VERTEX
  5
5BD
  8
0
  6
CONTINUOUS
 62
     1
 10
-2994.803872933579
 20
191.6833884773693
 30
0.0
  0
VERTEX
  5
5BE
  8
0
  6
CONTINUOUS
 62
     1
 10
-2994.71783408259
 20
191.6659137578425
 30
0.0
  0
VERTEX
  5
5BF
  8
0
  6
CONTINUOUS
 62
     1
 10
-2994.631193299159
 20
191.6501270365495
 30
0.0
  0
VERTEX
  5
5C0
  8
0
  6
CONTINUOUS
 62
     1
 10
-2994.544307530966
 20
191.6357056193473
 30
0.0
  0
VERTEX
  5
5C1
  8
0
  6
CONTINUOUS
 62
     1
 10
-2994.449123216067
 20
191.6211241281213
 30
0.0
  0
VERTEX
  5
5C2
  8
0
  6
CONTINUOUS
 62
     1
 10
-2994.35378139005
 20
191.6076313413291
 30
0.0
  0
VERTEX
  5
5C3
  8
0
  6
CONTINUOUS
 62
     1
 10
-2994.258391950734
 20
191.5951412135347
 30
0.0
  0
VERTEX
  5
5C4
  8
0
  6
CONTINUOUS
 62
     1
 10
-2994.162889332852
 20
191.5835409283009
 30
0.0
  0
VERTEX
  5
5C5
  8
0
  6
CONTINUOUS
 62
     1
 10
-2994.061702338093
 20
191.5721266235926
 30
0.0
  0
VERTEX
  5
5C6
  8
0
  6
CONTINUOUS
 62
     1
 10
-2993.960428092189
 20
191.5615168425026
 30
0.0
  0
VERTEX
  5
5C7
  8
0
  6
CONTINUOUS
 62
     1
 10
-2993.859054529331
 20
191.551629594566
 30
0.0
  0
VERTEX
  5
5C8
  8
0
  6
CONTINUOUS
 62
     1
 10
-2993.75761985784
 20
191.5423885595877
 30
0.0
  0
VERTEX
  5
5C9
  8
0
  6
CONTINUOUS
 62
     1
 10
-2993.642527864313
 20
191.532601389904
 30
0.0
  0
VERTEX
  5
5CA
  8
0
  6
CONTINUOUS
 62
     1
 10
-2993.527380317072
 20
191.5234915665146
 30
0.0
  0
VERTEX
  5
5CB
  8
0
  6
CONTINUOUS
 62
     1
 10
-2993.412193624034
 20
191.5150075860999
 30
0.0
  0
VERTEX
  5
5CC
  8
0
  6
CONTINUOUS
 62
     1
 10
-2993.296966096974
 20
191.5070964103988
 30
0.0
  0
VERTEX
  5
5CD
  8
0
  6
CONTINUOUS
 62
     1
 10
-2993.153156876659
 20
191.4979569165338
 30
0.0
  0
VERTEX
  5
5CE
  8
0
  6
CONTINUOUS
 62
     1
 10
-2993.00930182382
 20
191.4895683983133
 30
0.0
  0
VERTEX
  5
5CF
  8
0
  6
CONTINUOUS
 62
     1
 10
-2992.865404565719
 20
191.4818716001495
 30
0.0
  0
VERTEX
  5
5D0
  8
0
  6
CONTINUOUS
 62
     1
 10
-2992.721474830561
 20
191.4748076492878
 30
0.0
  0
VERTEX
  5
5D1
  8
0
  6
CONTINUOUS
 62
     1
 10
-2992.561836111761
 20
191.4676486977712
 30
0.0
  0
VERTEX
  5
5D2
  8
0
  6
CONTINUOUS
 62
     1
 10
-2992.402169097168
 20
191.4611510145963
 30
0.0
  0
VERTEX
  5
5D3
  8
0
  6
CONTINUOUS
 62
     1
 10
-2992.242479322227
 20
191.4552703569146
 30
0.0
  0
VERTEX
  5
5D4
  8
0
  6
CONTINUOUS
 62
     1
 10
-2992.082769479419
 20
191.4499623526958
 30
0.0
  0
VERTEX
  5
5D5
  8
0
  6
CONTINUOUS
 62
     1
 10
-2991.924915914703
 20
191.4452384811408
 30
0.0
  0
VERTEX
  5
5D6
  8
0
  6
CONTINUOUS
 62
     1
 10
-2991.767048488207
 20
191.4410037933232
 30
0.0
  0
VERTEX
  5
5D7
  8
0
  6
CONTINUOUS
 62
     1
 10
-2991.609169153389
 20
191.4372314685122
 30
0.0
  0
VERTEX
  5
5D8
  8
0
  6
CONTINUOUS
 62
     1
 10
-2991.451279995286
 20
191.4338946897022
 30
0.0
  0
VERTEX
  5
5D9
  8
0
  6
CONTINUOUS
 62
     1
 10
-2991.281484257247
 20
191.4307636443888
 30
0.0
  0
VERTEX
  5
5DA
  8
0
  6
CONTINUOUS
 62
     1
 10
-2991.111680812752
 20
191.4280829515717
 30
0.0
  0
VERTEX
  5
5DB
  8
0
  6
CONTINUOUS
 62
     1
 10
-2990.94187116461
 20
191.4258303232302
 30
0.0
  0
VERTEX
  5
5DC
  8
0
  6
CONTINUOUS
 62
     1
 10
-2990.772056601742
 20
191.4239834670274
 30
0.0
  0
VERTEX
  5
5DD
  8
0
  6
CONTINUOUS
 62
     1
 10
-2990.570509790299
 20
191.4222894535989
 30
0.0
  0
VERTEX
  5
5DE
  8
0
  6
CONTINUOUS
 62
     1
 10
-2990.368959283572
 20
191.4211106953721
 30
0.0
  0
VERTEX
  5
5DF
  8
0
  6
CONTINUOUS
 62
     1
 10
-2990.167406433566
 20
191.4204222875187
 30
0.0
  0
VERTEX
  5
5E0
  8
0
  6
CONTINUOUS
 62
     1
 10
-2989.965852536365
 20
191.4201993249676
 30
0.0
  0
VERTEX
  5
5E1
  8
0
  6
CONTINUOUS
 62
     1
 10
-2989.772958031442
 20
191.4203999595204
 30
0.0
  0
VERTEX
  5
5E2
  8
0
  6
CONTINUOUS
 62
     1
 10
-2989.580064331834
 20
191.420989032138
 30
0.0
  0
VERTEX
  5
5E3
  8
0
  6
CONTINUOUS
 62
     1
 10
-2989.38717218766
 20
191.4219514821646
 30
0.0
  0
VERTEX
  5
5E4
  8
0
  6
CONTINUOUS
 62
     1
 10
-2989.194282150897
 20
191.4232722489705
 30
0.0
  0
VERTEX
  5
5E5
  8
0
  6
CONTINUOUS
 62
     1
 10
-2988.96763424337
 20
191.4252628427837
 30
0.0
  0
VERTEX
  5
5E6
  8
0
  6
CONTINUOUS
 62
     1
 10
-2988.740990788362
 20
191.4277098000653
 30
0.0
  0
VERTEX
  5
5E7
  8
0
  6
CONTINUOUS
 62
     1
 10
-2988.514352425081
 20
191.4305955550799
 30
0.0
  0
VERTEX
  5
5E8
  8
0
  6
CONTINUOUS
 62
     1
 10
-2988.287719821644
 20
191.4339025419531
 30
0.0
  0
VERTEX
  5
5E9
  8
0
  6
CONTINUOUS
 62
     1
 10
-2988.074166186975
 20
191.4373891932093
 30
0.0
  0
VERTEX
  5
5EA
  8
0
  6
CONTINUOUS
 62
     1
 10
-2987.860618525819
 20
191.4412238287214
 30
0.0
  0
VERTEX
  5
5EB
  8
0
  6
CONTINUOUS
 62
     1
 10
-2987.647077264165
 20
191.4453959920198
 30
0.0
  0
VERTEX
  5
5EC
  8
0
  6
CONTINUOUS
 62
     1
 10
-2987.433542631261
 20
191.449895230153
 30
0.0
  0
VERTEX
  5
5ED
  8
0
  6
CONTINUOUS
 62
     1
 10
-2987.185593344121
 20
191.4555169535366
 30
0.0
  0
VERTEX
  5
5EE
  8
0
  6
CONTINUOUS
 62
     1
 10
-2986.937653793736
 20
191.4615527368354
 30
0.0
  0
VERTEX
  5
5EF
  8
0
  6
CONTINUOUS
 62
     1
 10
-2986.689724157434
 20
191.4679897141033
 30
0.0
  0
VERTEX
  5
5F0
  8
0
  6
CONTINUOUS
 62
     1
 10
-2986.441804858971
 20
191.474815013461
 30
0.0
  0
VERTEX
  5
5F1
  8
0
  6
CONTINUOUS
 62
     1
 10
-2985.944930537935
 20
191.4896189379682
 30
0.0
  0
VERTEX
  5
5F2
  8
0
  6
CONTINUOUS
 62
     1
 10
-2985.44810106896
 20
191.5058664685516
 30
0.0
  0
VERTEX
  5
5F3
  8
0
  6
CONTINUOUS
 62
     1
 10
-2984.951317461305
 20
191.5234929710816
 30
0.0
  0
VERTEX
  5
5F4
  8
0
  6
CONTINUOUS
 62
     1
 10
-2984.454582271597
 20
191.5424337617679
 30
0.0
  0
VERTEX
  5
5F5
  8
0
  6
CONTINUOUS
 62
     1
 10
-2983.930733463839
 20
191.5637689735623
 30
0.0
  0
VERTEX
  5
5F6
  8
0
  6
CONTINUOUS
 62
     1
 10
-2983.406941277362
 20
191.5864529600082
 30
0.0
  0
VERTEX
  5
5F7
  8
0
  6
CONTINUOUS
 62
     1
 10
-2982.883208058056
 20
191.6104443795253
 30
0.0
  0
VERTEX
  5
5F8
  8
0
  6
CONTINUOUS
 62
     1
 10
-2982.359534482401
 20
191.6357019613903
 30
0.0
  0
VERTEX
  5
5F9
  8
0
  6
CONTINUOUS
 62
     1
 10
-2982.036463553785
 20
191.6518999220022
 30
0.0
  0
VERTEX
  5
5FA
  8
0
  6
CONTINUOUS
 62
     1
 10
-2981.713416095242
 20
191.6685584069032
 30
0.0
  0
VERTEX
  5
5FB
  8
0
  6
CONTINUOUS
 62
     1
 10
-2981.390392620649
 20
191.6856716501917
 30
0.0
  0
VERTEX
  5
5FC
  8
0
  6
CONTINUOUS
 62
     1
 10
-2981.067393235431
 20
191.7032339068101
 30
0.0
  0
VERTEX
  5
5FD
  8
0
  6
CONTINUOUS
 62
     1
 10
-2980.777081512239
 20
191.7193986195552
 30
0.0
  0
VERTEX
  5
5FE
  8
0
  6
CONTINUOUS
 62
     1
 10
-2980.486789797515
 20
191.7359183923428
 30
0.0
  0
VERTEX
  5
5FF
  8
0
  6
CONTINUOUS
 62
     1
 10
-2980.196518294394
 20
191.7527901573764
 30
0.0
  0
VERTEX
  5
600
  8
0
  6
CONTINUOUS
 62
     1
 10
-2979.906267237376
 20
191.7700108454324
 30
0.0
  0
VERTEX
  5
601
  8
0
  6
CONTINUOUS
 62
     1
 10
-2978.652646184456
 20
191.8483601479537
 30
0.0
  0
VERTEX
  5
602
  8
0
  6
CONTINUOUS
 62
     1
 10
-2977.39943742909
 20
191.9330488292932
 30
0.0
  0
SEQEND
  5
603
  8
0
  6
CONTINUOUS
 62
     1
  0
POLYLINE
  5
3BC
  8
0
  6
CONTINUOUS
 62
     1
 66
     1
 10
0.0
 20
0.0
 30
0.0
  0
VERTEX
  5
604
  8
0
  6
CONTINUOUS
 62
     1
 10
-2998.62247192621
 20
203.1064239161
 30
0.0
  0
VERTEX
  5
605
  8
0
  6
CONTINUOUS
 62
     1
 10
-2998.597582185799
 20
203.0035954634023
 30
0.0
  0
VERTEX
  5
606
  8
0
  6
CONTINUOUS
 62
     1
 10
-2998.572601251489
 20
202.9007891271043
 30
0.0
  0
VERTEX
  5
607
  8
0
  6
CONTINUOUS
 62
     1
 10
-2998.555743342095
 20
202.8316353444273
 30
0.0
  0
VERTEX
  5
608
  8
0
  6
CONTINUOUS
 62
     1
 10
-2998.538844289084
 20
202.7624916041364
 30
0.0
  0
VERTEX
  5
609
  8
0
  6
CONTINUOUS
 62
     1
 10
-2998.521904101895
 20
202.693357932344
 30
0.0
  0
VERTEX
  5
60A
  8
0
  6
CONTINUOUS
 62
     1
 10
-2998.504922788623
 20
202.6242343498367
 30
0.0
  0
VERTEX
  5
60B
  8
0
  6
CONTINUOUS
 62
     1
 10
-2998.484450761076
 20
202.5411365563042
 30
0.0
  0
VERTEX
  5
60C
  8
0
  6
CONTINUOUS
 62
     1
 10
-2998.463919324285
 20
202.4580534236802
 30
0.0
  0
VERTEX
  5
60D
  8
0
  6
CONTINUOUS
 62
     1
 10
-2998.44332849732
 20
202.3749849391837
 30
0.0
  0
VERTEX
  5
60E
  8
0
  6
CONTINUOUS
 62
     1
 10
-2998.422678320785
 20
202.2919311768483
 30
0.0
  0
VERTEX
  5
60F
  8
0
  6
CONTINUOUS
 62
     1
 10
-2998.351977603495
 20
202.0094736643311
 30
0.0
  0
VERTEX
  5
610
  8
0
  6
CONTINUOUS
 62
     1
 10
-2998.280591650848
 20
201.7271884384014
 30
0.0
  0
VERTEX
  5
611
  8
0
  6
CONTINUOUS
 62
     1
 10
-2998.208521818793
 20
201.445076858327
 30
0.0
  0
VERTEX
  5
612
  8
0
  6
CONTINUOUS
 62
     1
 10
-2998.135769503158
 20
201.1631404695428
 30
0.0
  0
VERTEX
  5
613
  8
0
  6
CONTINUOUS
 62
     1
 10
-2998.057652034327
 20
200.8635024847484
 30
0.0
  0
VERTEX
  5
614
  8
0
  6
CONTINUOUS
 62
     1
 10
-2997.978765823756
 20
200.564066208997
 30
0.0
  0
VERTEX
  5
615
  8
0
  6
CONTINUOUS
 62
     1
 10
-2997.899112070683
 20
200.2648321663829
 30
0.0
  0
VERTEX
  5
616
  8
0
  6
CONTINUOUS
 62
     1
 10
-2997.818692290457
 20
199.9658020987988
 30
0.0
  0
VERTEX
  5
617
  8
0
  6
CONTINUOUS
 62
     1
 10
-2997.254134035913
 20
197.9417951686408
 30
0.0
  0
VERTEX
  5
618
  8
0
  6
CONTINUOUS
 62
     1
 10
-2996.652533159036
 20
195.9285594929609
 30
0.0
  0
VERTEX
  5
619
  8
0
  6
CONTINUOUS
 62
     1
 10
-2996.012347370475
 20
193.9273828681639
 30
0.0
  0
VERTEX
  5
61A
  8
0
  6
CONTINUOUS
 62
     1
 10
-2995.350554154481
 20
191.9330488048949
 30
0.0
  0
SEQEND
  5
61B
  8
0
  6
CONTINUOUS
 62
     1
  0
POLYLINE
  5
3BD
  8
0
  6
CONTINUOUS
 62
     1
 66
     1
 10
0.0
 20
0.0
 30
0.0
  0
VERTEX
  5
61C
  8
0
  6
CONTINUOUS
 62
     1
 10
-1662.99940199661
 20
203.1064239161
 30
0.0
  0
VERTEX
  5
61D
  8
0
  6
CONTINUOUS
 62
     1
 10
-1662.974512256199
 20
203.0035954634023
 30
0.0
  0
VERTEX
  5
61E
  8
0
  6
CONTINUOUS
 62
     1
 10
-1662.949531321888
 20
202.9007891271046
 30
0.0
  0
VERTEX
  5
61F
  8
0
  6
CONTINUOUS
 62
     1
 10
-1662.932673412494
 20
202.8316353444278
 30
0.0
  0
VERTEX
  5
620
  8
0
  6
CONTINUOUS
 62
     1
 10
-1662.915774359485
 20
202.762491604137
 30
0.0
  0
VERTEX
  5
621
  8
0
  6
CONTINUOUS
 62
     1
 10
-1662.8988341723
 20
202.6933579323444
 30
0.0
  0
VERTEX
  5
622
  8
0
  6
CONTINUOUS
 62
     1
 10
-1662.881852859031
 20
202.6242343498369
 30
0.0
  0
VERTEX
  5
623
  8
0
  6
CONTINUOUS
 62
     1
 10
-1662.861380831486
 20
202.5411365563042
 30
0.0
  0
VERTEX
  5
624
  8
0
  6
CONTINUOUS
 62
     1
 10
-1662.840849394694
 20
202.4580534236802
 30
0.0
  0
VERTEX
  5
625
  8
0
  6
CONTINUOUS
 62
     1
 10
-1662.820258567726
 20
202.3749849391837
 30
0.0
  0
VERTEX
  5
626
  8
0
  6
CONTINUOUS
 62
     1
 10
-1662.799608391189
 20
202.2919311768483
 30
0.0
  0
VERTEX
  5
627
  8
0
  6
CONTINUOUS
 62
     1
 10
-1662.728907673895
 20
202.0094736643308
 30
0.0
  0
VERTEX
  5
628
  8
0
  6
CONTINUOUS
 62
     1
 10
-1662.657521721248
 20
201.7271884384007
 30
0.0
  0
VERTEX
  5
629
  8
0
  6
CONTINUOUS
 62
     1
 10
-1662.585451889193
 20
201.4450768583265
 30
0.0
  0
VERTEX
  5
62A
  8
0
  6
CONTINUOUS
 62
     1
 10
-1662.512699573559
 20
201.1631404695425
 30
0.0
  0
VERTEX
  5
62B
  8
0
  6
CONTINUOUS
 62
     1
 10
-1662.434582104727
 20
200.8635024847484
 30
0.0
  0
VERTEX
  5
62C
  8
0
  6
CONTINUOUS
 62
     1
 10
-1662.355695894155
 20
200.5640662089971
 30
0.0
  0
VERTEX
  5
62D
  8
0
  6
CONTINUOUS
 62
     1
 10
-1662.276042141083
 20
200.264832166383
 30
0.0
  0
VERTEX
  5
62E
  8
0
  6
CONTINUOUS
 62
     1
 10
-1662.195622360857
 20
199.9658020987988
 30
0.0
  0
VERTEX
  5
62F
  8
0
  6
CONTINUOUS
 62
     1
 10
-1661.631064106314
 20
197.9417951686414
 30
0.0
  0
VERTEX
  5
630
  8
0
  6
CONTINUOUS
 62
     1
 10
-1661.029463229435
 20
195.9285594929609
 30
0.0
  0
VERTEX
  5
631
  8
0
  6
CONTINUOUS
 62
     1
 10
-1660.389277440875
 20
193.9273828681637
 30
0.0
  0
VERTEX
  5
632
  8
0
  6
CONTINUOUS
 62
     1
 10
-1659.727484224881
 20
191.9330488048949
 30
0.0
  0
SEQEND
  5
633
  8
0
  6
CONTINUOUS
 62
     1
  0
POLYLINE
  5
3BE
  8
0
  6
CONTINUOUS
 62
     1
 66
     1
 10
0.0
 20
0.0
 30
0.0
  0
VERTEX
  5
634
  8
0
  6
CONTINUOUS
 62
     1
 10
-1659.72748422485
 20
191.9330488048
 30
0.0
  0
VERTEX
  5
635
  8
0
  6
CONTINUOUS
 62
     1
 10
-1659.62684211444
 20
191.8290642362217
 30
0.0
  0
VERTEX
  5
636
  8
0
  6
CONTINUOUS
 62
     1
 10
-1659.494645615363
 20
191.7700105732119
 30
0.0
  0
VERTEX
  5
637
  8
0
  6
CONTINUOUS
 62
     1
 10
-1659.437884095842
 20
191.7509733179292
 30
0.0
  0
VERTEX
  5
638
  8
0
  6
CONTINUOUS
 62
     1
 10
-1659.38084584113
 20
191.7335147355985
 30
0.0
  0
VERTEX
  5
639
  8
0
  6
CONTINUOUS
 62
     1
 10
-1659.32382758955
 20
191.7176176088424
 30
0.0
  0
VERTEX
  5
63A
  8
0
  6
CONTINUOUS
 62
     1
 10
-1659.266406431785
 20
191.7029920526983
 30
0.0
  0
VERTEX
  5
63B
  8
0
  6
CONTINUOUS
 62
     1
 10
-1659.180803003979
 20
191.6833884773693
 30
0.0
  0
VERTEX
  5
63C
  8
0
  6
CONTINUOUS
 62
     1
 10
-1659.09476415299
 20
191.6659137578426
 30
0.0
  0
VERTEX
  5
63D
  8
0
  6
CONTINUOUS
 62
     1
 10
-1659.008123369558
 20
191.6501270365495
 30
0.0
  0
VERTEX
  5
63E
  8
0
  6
CONTINUOUS
 62
     1
 10
-1658.921237601367
 20
191.6357056193473
 30
0.0
  0
VERTEX
  5
63F
  8
0
  6
CONTINUOUS
 62
     1
 10
-1658.826053286467
 20
191.6211241281213
 30
0.0
  0
VERTEX
  5
640
  8
0
  6
CONTINUOUS
 62
     1
 10
-1658.730711460451
 20
191.6076313413291
 30
0.0
  0
VERTEX
  5
641
  8
0
  6
CONTINUOUS
 62
     1
 10
-1658.635322021138
 20
191.5951412135347
 30
0.0
  0
VERTEX
  5
642
  8
0
  6
CONTINUOUS
 62
     1
 10
-1658.539819403259
 20
191.5835409283008
 30
0.0
  0
VERTEX
  5
643
  8
0
  6
CONTINUOUS
 62
     1
 10
-1658.438632408498
 20
191.5721266235921
 30
0.0
  0
VERTEX
  5
644
  8
0
  6
CONTINUOUS
 62
     1
 10
-1658.337358162591
 20
191.561516842502
 30
0.0
  0
VERTEX
  5
645
  8
0
  6
CONTINUOUS
 62
     1
 10
-1658.235984599731
 20
191.5516295945656
 30
0.0
  0
VERTEX
  5
646
  8
0
  6
CONTINUOUS
 62
     1
 10
-1658.134549928238
 20
191.5423885595875
 30
0.0
  0
VERTEX
  5
647
  8
0
  6
CONTINUOUS
 62
     1
 10
-1658.019457934713
 20
191.5326013899039
 30
0.0
  0
VERTEX
  5
648
  8
0
  6
CONTINUOUS
 62
     1
 10
-1657.904310387471
 20
191.5234915665145
 30
0.0
  0
VERTEX
  5
649
  8
0
  6
CONTINUOUS
 62
     1
 10
-1657.789123694434
 20
191.5150075860998
 30
0.0
  0
VERTEX
  5
64A
  8
0
  6
CONTINUOUS
 62
     1
 10
-1657.673896167374
 20
191.5070964103989
 30
0.0
  0
VERTEX
  5
64B
  8
0
  6
CONTINUOUS
 62
     1
 10
-1657.530086947059
 20
191.4979569165337
 30
0.0
  0
VERTEX
  5
64C
  8
0
  6
CONTINUOUS
 62
     1
 10
-1657.386231894221
 20
191.4895683983133
 30
0.0
  0
VERTEX
  5
64D
  8
0
  6
CONTINUOUS
 62
     1
 10
-1657.242334636119
 20
191.4818716001495
 30
0.0
  0
VERTEX
  5
64E
  8
0
  6
CONTINUOUS
 62
     1
 10
-1657.098404900961
 20
191.4748076492878
 30
0.0
  0
VERTEX
  5
64F
  8
0
  6
CONTINUOUS
 62
     1
 10
-1656.938766182161
 20
191.4676486977712
 30
0.0
  0
VERTEX
  5
650
  8
0
  6
CONTINUOUS
 62
     1
 10
-1656.779099167568
 20
191.4611510145963
 30
0.0
  0
VERTEX
  5
651
  8
0
  6
CONTINUOUS
 62
     1
 10
-1656.619409392627
 20
191.4552703569146
 30
0.0
  0
VERTEX
  5
652
  8
0
  6
CONTINUOUS
 62
     1
 10
-1656.459699549819
 20
191.4499623526958
 30
0.0
  0
VERTEX
  5
653
  8
0
  6
CONTINUOUS
 62
     1
 10
-1656.301845985103
 20
191.4452384811408
 30
0.0
  0
VERTEX
  5
654
  8
0
  6
CONTINUOUS
 62
     1
 10
-1656.143978558607
 20
191.4410037933232
 30
0.0
  0
VERTEX
  5
655
  8
0
  6
CONTINUOUS
 62
     1
 10
-1655.986099223789
 20
191.4372314685123
 30
0.0
  0
VERTEX
  5
656
  8
0
  6
CONTINUOUS
 62
     1
 10
-1655.828210065686
 20
191.4338946897022
 30
0.0
  0
VERTEX
  5
657
  8
0
  6
CONTINUOUS
 62
     1
 10
-1655.658414327647
 20
191.4307636443888
 30
0.0
  0
VERTEX
  5
658
  8
0
  6
CONTINUOUS
 62
     1
 10
-1655.488610883152
 20
191.4280829515716
 30
0.0
  0
VERTEX
  5
659
  8
0
  6
CONTINUOUS
 62
     1
 10
-1655.318801235011
 20
191.4258303232303
 30
0.0
  0
VERTEX
  5
65A
  8
0
  6
CONTINUOUS
 62
     1
 10
-1655.148986672143
 20
191.4239834670274
 30
0.0
  0
VERTEX
  5
65B
  8
0
  6
CONTINUOUS
 62
     1
 10
-1654.947439860704
 20
191.4222894535989
 30
0.0
  0
VERTEX
  5
65C
  8
0
  6
CONTINUOUS
 62
     1
 10
-1654.745889353978
 20
191.4211106953721
 30
0.0
  0
VERTEX
  5
65D
  8
0
  6
CONTINUOUS
 62
     1
 10
-1654.544336503971
 20
191.4204222875188
 30
0.0
  0
VERTEX
  5
65E
  8
0
  6
CONTINUOUS
 62
     1
 10
-1654.342782606766
 20
191.4201993249677
 30
0.0
  0
VERTEX
  5
65F
  8
0
  6
CONTINUOUS
 62
     1
 10
-1654.149888101843
 20
191.4203999595205
 30
0.0
  0
VERTEX
  5
660
  8
0
  6
CONTINUOUS
 62
     1
 10
-1653.956994402234
 20
191.420989032138
 30
0.0
  0
VERTEX
  5
661
  8
0
  6
CONTINUOUS
 62
     1
 10
-1653.764102258062
 20
191.4219514821647
 30
0.0
  0
VERTEX
  5
662
  8
0
  6
CONTINUOUS
 62
     1
 10
-1653.571212221299
 20
191.4232722489705
 30
0.0
  0
VERTEX
  5
663
  8
0
  6
CONTINUOUS
 62
     1
 10
-1653.344564313774
 20
191.4252628427837
 30
0.0
  0
VERTEX
  5
664
  8
0
  6
CONTINUOUS
 62
     1
 10
-1653.117920858769
 20
191.4277098000653
 30
0.0
  0
VERTEX
  5
665
  8
0
  6
CONTINUOUS
 62
     1
 10
-1652.891282495487
 20
191.43059555508
 30
0.0
  0
VERTEX
  5
666
  8
0
  6
CONTINUOUS
 62
     1
 10
-1652.664649892045
 20
191.4339025419531
 30
0.0
  0
VERTEX
  5
667
  8
0
  6
CONTINUOUS
 62
     1
 10
-1652.451096257375
 20
191.4373891932093
 30
0.0
  0
VERTEX
  5
668
  8
0
  6
CONTINUOUS
 62
     1
 10
-1652.23754859622
 20
191.4412238287213
 30
0.0
  0
VERTEX
  5
669
  8
0
  6
CONTINUOUS
 62
     1
 10
-1652.024007334565
 20
191.4453959920194
 30
0.0
  0
VERTEX
  5
66A
  8
0
  6
CONTINUOUS
 62
     1
 10
-1651.81047270166
 20
191.4498952301523
 30
0.0
  0
VERTEX
  5
66B
  8
0
  6
CONTINUOUS
 62
     1
 10
-1651.562523414521
 20
191.4555169535361
 30
0.0
  0
VERTEX
  5
66C
  8
0
  6
CONTINUOUS
 62
     1
 10
-1651.314583864136
 20
191.4615527368352
 30
0.0
  0
VERTEX
  5
66D
  8
0
  6
CONTINUOUS
 62
     1
 10
-1651.066654227834
 20
191.4679897141033
 30
0.0
  0
VERTEX
  5
66E
  8
0
  6
CONTINUOUS
 62
     1
 10
-1650.818734929371
 20
191.474815013461
 30
0.0
  0
VERTEX
  5
66F
  8
0
  6
CONTINUOUS
 62
     1
 10
-1650.321860608336
 20
191.4896189379681
 30
0.0
  0
VERTEX
  5
670
  8
0
  6
CONTINUOUS
 62
     1
 10
-1649.825031139362
 20
191.5058664685516
 30
0.0
  0
VERTEX
  5
671
  8
0
  6
CONTINUOUS
 62
     1
 10
-1649.328247531709
 20
191.5234929710816
 30
0.0
  0
VERTEX
  5
672
  8
0
  6
CONTINUOUS
 62
     1
 10
-1648.831512342003
 20
191.5424337617679
 30
0.0
  0
VERTEX
  5
673
  8
0
  6
CONTINUOUS
 62
     1
 10
-1648.307663534244
 20
191.5637689735623
 30
0.0
  0
VERTEX
  5
674
  8
0
  6
CONTINUOUS
 62
     1
 10
-1647.783871347765
 20
191.5864529600082
 30
0.0
  0
VERTEX
  5
675
  8
0
  6
CONTINUOUS
 62
     1
 10
-1647.260138128456
 20
191.6104443795253
 30
0.0
  0
VERTEX
  5
676
  8
0
  6
CONTINUOUS
 62
     1
 10
-1646.736464552804
 20
191.6357019613903
 30
0.0
  0
VERTEX
  5
677
  8
0
  6
CONTINUOUS
 62
     1
 10
-1646.413393624191
 20
191.6518999220022
 30
0.0
  0
VERTEX
  5
678
  8
0
  6
CONTINUOUS
 62
     1
 10
-1646.09034616565
 20
191.6685584069032
 30
0.0
  0
VERTEX
  5
679
  8
0
  6
CONTINUOUS
 62
     1
 10
-1645.767322691054
 20
191.6856716501917
 30
0.0
  0
VERTEX
  5
67A
  8
0
  6
CONTINUOUS
 62
     1
 10
-1645.444323305833
 20
191.7032339068101
 30
0.0
  0
VERTEX
  5
67B
  8
0
  6
CONTINUOUS
 62
     1
 10
-1645.154011582644
 20
191.7193986195552
 30
0.0
  0
VERTEX
  5
67C
  8
0
  6
CONTINUOUS
 62
     1
 10
-1644.863719867922
 20
191.7359183923428
 30
0.0
  0
VERTEX
  5
67D
  8
0
  6
CONTINUOUS
 62
     1
 10
-1644.573448364802
 20
191.7527901573764
 30
0.0
  0
VERTEX
  5
67E
  8
0
  6
CONTINUOUS
 62
     1
 10
-1644.283197307782
 20
191.7700108454324
 30
0.0
  0
VERTEX
  5
67F
  8
0
  6
CONTINUOUS
 62
     1
 10
-1643.029576254857
 20
191.8483601479537
 30
0.0
  0
VERTEX
  5
680
  8
0
  6
CONTINUOUS
 62
     1
 10
-1641.77636749949
 20
191.9330488292932
 30
0.0
  0
SEQEND
  5
681
  8
0
  6
CONTINUOUS
 62
     1
  0
POLYLINE
  5
3BF
  8
0
  6
CONTINUOUS
 62
     1
 66
     1
 10
0.0
 20
0.0
 30
0.0
  0
VERTEX
  5
682
  8
0
  6
CONTINUOUS
 62
     1
 10
-1641.77636749939
 20
191.9330488293
 30
0.0
  0
VERTEX
  5
683
  8
0
  6
CONTINUOUS
 62
     1
 10
-1607.23063039333
 20
194.267882119538
 30
0.0
  0
VERTEX
  5
684
  8
0
  6
CONTINUOUS
 62
     1
 10
-1572.672334055078
 20
196.4088054930471
 30
0.0
  0
VERTEX
  5
685
  8
0
  6
CONTINUOUS
 62
     1
 10
-1563.811922051735
 20
196.9222173534743
 30
0.0
  0
VERTEX
  5
686
  8
0
  6
CONTINUOUS
 62
     1
 10
-1554.950618100716
 20
197.4199864530484
 30
0.0
  0
VERTEX
  5
687
  8
0
  6
CONTINUOUS
 62
     1
 10
-1546.08841214492
 20
197.9014522715199
 30
0.0
  0
VERTEX
  5
688
  8
0
  6
CONTINUOUS
 62
     1
 10
-1537.225300852708
 20
198.3659538947103
 30
0.0
  0
VERTEX
  5
689
  8
0
  6
CONTINUOUS
 62
     1
 10
-1528.796565272372
 20
198.7913041700414
 30
0.0
  0
VERTEX
  5
68A
  8
0
  6
CONTINUOUS
 62
     1
 10
-1520.367012007202
 20
199.2001245108918
 30
0.0
  0
VERTEX
  5
68B
  8
0
  6
CONTINUOUS
 62
     1
 10
-1511.936645662825
 20
199.5918216383252
 30
0.0
  0
VERTEX
  5
68C
  8
0
  6
CONTINUOUS
 62
     1
 10
-1503.505474587651
 20
199.9658021034998
 30
0.0
  0
VERTEX
  5
68D
  8
0
  6
CONTINUOUS
 62
     1
 10
-1494.696012139345
 20
200.3369602802418
 30
0.0
  0
VERTEX
  5
68E
  8
0
  6
CONTINUOUS
 62
     1
 10
-1485.88570378675
 20
200.6874733823683
 30
0.0
  0
VERTEX
  5
68F
  8
0
  6
CONTINUOUS
 62
     1
 10
-1477.074569388347
 20
201.0166826986534
 30
0.0
  0
VERTEX
  5
690
  8
0
  6
CONTINUOUS
 62
     1
 10
-1468.262642413546
 20
201.3239290240881
 30
0.0
  0
VERTEX
  5
691
  8
0
  6
CONTINUOUS
 62
     1
 10
-1459.767838145466
 20
201.5987032182131
 30
0.0
  0
VERTEX
  5
692
  8
0
  6
CONTINUOUS
 62
     1
 10
-1451.27236434811
 20
201.8519602466031
 30
0.0
  0
VERTEX
  5
693
  8
0
  6
CONTINUOUS
 62
     1
 10
-1442.776275691814
 20
202.0832020821485
 30
0.0
  0
VERTEX
  5
694
  8
0
  6
CONTINUOUS
 62
     1
 10
-1434.279607531349
 20
202.2919311785457
 30
0.0
  0
VERTEX
  5
695
  8
0
  6
CONTINUOUS
 62
     1
 10
-1429.951346574094
 20
202.3894421998276
 30
0.0
  0
VERTEX
  5
696
  8
0
  6
CONTINUOUS
 62
     1
 10
-1425.622954926975
 20
202.480933033064
 30
0.0
  0
VERTEX
  5
697
  8
0
  6
CONTINUOUS
 62
     1
 10
-1421.294441528085
 20
202.5663540709384
 30
0.0
  0
VERTEX
  5
698
  8
0
  6
CONTINUOUS
 62
     1
 10
-1416.965811498034
 20
202.6456557868787
 30
0.0
  0
VERTEX
  5
699
  8
0
  6
CONTINUOUS
 62
     1
 10
-1412.637098126552
 20
202.7187899440965
 30
0.0
  0
VERTEX
  5
69A
  8
0
  6
CONTINUOUS
 62
     1
 10
-1408.308284371438
 20
202.7857162368996
 30
0.0
  0
VERTEX
  5
69B
  8
0
  6
CONTINUOUS
 62
     1
 10
-1403.979377860467
 20
202.8463956467962
 30
0.0
  0
VERTEX
  5
69C
  8
0
  6
CONTINUOUS
 62
     1
 10
-1399.650387803313
 20
202.9007891273889
 30
0.0
  0
VERTEX
  5
69D
  8
0
  6
CONTINUOUS
 62
     1
 10
-1395.363598854394
 20
202.9484213862561
 30
0.0
  0
VERTEX
  5
69E
  8
0
  6
CONTINUOUS
 62
     1
 10
-1391.076745266089
 20
202.9898284222157
 30
0.0
  0
VERTEX
  5
69F
  8
0
  6
CONTINUOUS
 62
     1
 10
-1386.789836013918
 20
203.0249870488251
 30
0.0
  0
VERTEX
  5
6A0
  8
0
  6
CONTINUOUS
 62
     1
 10
-1382.502879898397
 20
203.0538740818624
 30
0.0
  0
VERTEX
  5
6A1
  8
0
  6
CONTINUOUS
 62
     1
 10
-1378.131176423226
 20
203.076851849208
 30
0.0
  0
VERTEX
  5
6A2
  8
0
  6
CONTINUOUS
 62
     1
 10
-1373.759443383916
 20
203.0932750925238
 30
0.0
  0
VERTEX
  5
6A3
  8
0
  6
CONTINUOUS
 62
     1
 10
-1369.387690443846
 20
203.1031352894938
 30
0.0
  0
VERTEX
  5
6A4
  8
0
  6
CONTINUOUS
 62
     1
 10
-1365.015927635971
 20
203.1064239160528
 30
0.0
  0
VERTEX
  5
6A5
  8
0
  6
CONTINUOUS
 62
     1
 10
-1360.644260296493
 20
203.1031354334596
 30
0.0
  0
VERTEX
  5
6A6
  8
0
  6
CONTINUOUS
 62
     1
 10
-1356.272602824227
 20
203.0932756671261
 30
0.0
  0
VERTEX
  5
6A7
  8
0
  6
CONTINUOUS
 62
     1
 10
-1351.900965251498
 20
203.0768531404064
 30
0.0
  0
VERTEX
  5
6A8
  8
0
  6
CONTINUOUS
 62
     1
 10
-1347.529357240923
 20
203.0538763749054
 30
0.0
  0
VERTEX
  5
6A9
  8
0
  6
CONTINUOUS
 62
     1
 10
-1343.242305656141
 20
203.0249891878763
 30
0.0
  0
VERTEX
  5
6AA
  8
0
  6
CONTINUOUS
 62
     1
 10
-1338.955300936148
 20
202.9898301268678
 30
0.0
  0
VERTEX
  5
6AB
  8
0
  6
CONTINUOUS
 62
     1
 10
-1334.668351881812
 20
202.9484223773532
 30
0.0
  0
VERTEX
  5
6AC
  8
0
  6
CONTINUOUS
 62
     1
 10
-1330.381467469553
 20
202.9007891270313
 30
0.0
  0
VERTEX
  5
6AD
  8
0
  6
CONTINUOUS
 62
     1
 10
-1326.052350743298
 20
202.8463939623912
 30
0.0
  0
VERTEX
  5
6AE
  8
0
  6
CONTINUOUS
 62
     1
 10
-1321.723317568342
 20
202.7857125015892
 30
0.0
  0
VERTEX
  5
6AF
  8
0
  6
CONTINUOUS
 62
     1
 10
-1317.39437715538
 20
202.7187837947489
 30
0.0
  0
VERTEX
  5
6B0
  8
0
  6
CONTINUOUS
 62
     1
 10
-1313.065537132696
 20
202.6456468640795
 30
0.0
  0
VERTEX
  5
6B1
  8
0
  6
CONTINUOUS
 62
     1
 10
-1308.737033773149
 20
202.566346839549
 30
0.0
  0
VERTEX
  5
6B2
  8
0
  6
CONTINUOUS
 62
     1
 10
-1304.408647038685
 20
202.4809278552024
 30
0.0
  0
VERTEX
  5
6B3
  8
0
  6
CONTINUOUS
 62
     1
 10
-1300.080382049434
 20
202.3894394334054
 30
0.0
  0
VERTEX
  5
6B4
  8
0
  6
CONTINUOUS
 62
     1
 10
-1295.752247742573
 20
202.2919311772598
 30
0.0
  0
VERTEX
  5
6B5
  8
0
  6
CONTINUOUS
 62
     1
 10
-1287.255578261272
 20
202.0832020462773
 30
0.0
  0
VERTEX
  5
6B6
  8
0
  6
CONTINUOUS
 62
     1
 10
-1278.759488284234
 20
201.8519601694499
 30
0.0
  0
VERTEX
  5
6B7
  8
0
  6
CONTINUOUS
 62
     1
 10
-1270.264013165836
 20
201.598703093204
 30
0.0
  0
VERTEX
  5
6B8
  8
0
  6
CONTINUOUS
 62
     1
 10
-1261.769207576968
 20
201.3239288447952
 30
0.0
  0
VERTEX
  5
6B9
  8
0
  6
CONTINUOUS
 62
     1
 10
-1252.957281925273
 20
201.0166825537209
 30
0.0
  0
VERTEX
  5
6BA
  8
0
  6
CONTINUOUS
 62
     1
 10
-1244.146148849753
 20
200.6874732786013
 30
0.0
  0
VERTEX
  5
6BB
  8
0
  6
CONTINUOUS
 62
     1
 10
-1235.33584181997
 20
200.3369602242066
 30
0.0
  0
VERTEX
  5
6BC
  8
0
  6
CONTINUOUS
 62
     1
 10
-1226.526380694229
 20
199.9658021015125
 30
0.0
  0
VERTEX
  5
6BD
  8
0
  6
CONTINUOUS
 62
     1
 10
-1218.095216709834
 20
199.591821958333
 30
0.0
  0
VERTEX
  5
6BE
  8
0
  6
CONTINUOUS
 62
     1
 10
-1209.664857454874
 20
199.2001251822397
 30
0.0
  0
VERTEX
  5
6BF
  8
0
  6
CONTINUOUS
 62
     1
 10
-1201.235311277716
 20
198.791305220553
 30
0.0
  0
VERTEX
  5
6C0
  8
0
  6
CONTINUOUS
 62
     1
 10
-1192.806582784004
 20
198.3659553506909
 30
0.0
  0
VERTEX
  5
6C1
  8
0
  6
CONTINUOUS
 62
     1
 10
-1183.94346440534
 20
197.9014534046248
 30
0.0
  0
VERTEX
  5
6C2
  8
0
  6
CONTINUOUS
 62
     1
 10
-1175.081251364543
 20
197.4199872345268
 30
0.0
  0
VERTEX
  5
6C3
  8
0
  6
CONTINUOUS
 62
     1
 10
-1166.219940329907
 20
196.9222177562308
 30
0.0
  0
VERTEX
  5
6C4
  8
0
  6
CONTINUOUS
 62
     1
 10
-1157.359521244377
 20
196.4088054916479
 30
0.0
  0
VERTEX
  5
6C5
  8
0
  6
CONTINUOUS
 62
     1
 10
-1122.801224917941
 20
194.2678821198527
 30
0.0
  0
VERTEX
  5
6C6
  8
0
  6
CONTINUOUS
 62
     1
 10
-1088.25548782394
 20
191.9330488293068
 30
0.0
  0
SEQEND
  5
6C7
  8
0
  6
CONTINUOUS
 62
     1
  0
POLYLINE
  5
3C0
  8
0
  6
CONTINUOUS
 62
     1
 66
     1
 10
0.0
 20
0.0
 30
0.0
  0
VERTEX
  5
6C8
  8
0
  6
CONTINUOUS
 62
     1
 10
-1070.30437109978
 20
191.9330488048
 30
0.0
  0
VERTEX
  5
6C9
  8
0
  6
CONTINUOUS
 62
     1
 10
-1069.642577882959
 20
193.9273828676802
 30
0.0
  0
VERTEX
  5
6CA
  8
0
  6
CONTINUOUS
 62
     1
 10
-1069.002392095294
 20
195.9285594927597
 30
0.0
  0
VERTEX
  5
6CB
  8
0
  6
CONTINUOUS
 62
     1
 10
-1068.400791221038
 20
197.9417951693428
 30
0.0
  0
VERTEX
  5
6CC
  8
0
  6
CONTINUOUS
 62
     1
 10
-1067.836232963893
 20
199.9658020983725
 30
0.0
  0
VERTEX
  5
6CD
  8
0
  6
CONTINUOUS
 62
     1
 10
-1067.755816954532
 20
200.2648180725873
 30
0.0
  0
VERTEX
  5
6CE
  8
0
  6
CONTINUOUS
 62
     1
 10
-1067.676166900081
 20
200.5640380026789
 30
0.0
  0
VERTEX
  5
6CF
  8
0
  6
CONTINUOUS
 62
     1
 10
-1067.597284315658
 20
200.8634601470697
 30
0.0
  0
VERTEX
  5
6D0
  8
0
  6
CONTINUOUS
 62
     1
 10
-1067.51917040033
 20
201.1630839817663
 30
0.0
  0
VERTEX
  5
6D1
  8
0
  6
CONTINUOUS
 62
     1
 10
-1067.44641431992
 20
201.4450344660552
 30
0.0
  0
VERTEX
  5
6D2
  8
0
  6
CONTINUOUS
 62
     1
 10
-1067.374340791275
 20
201.7271601594241
 30
0.0
  0
VERTEX
  5
6D3
  8
0
  6
CONTINUOUS
 62
     1
 10
-1067.302951210405
 20
202.0094595161889
 30
0.0
  0
VERTEX
  5
6D4
  8
0
  6
CONTINUOUS
 62
     1
 10
-1067.232246933435
 20
202.2919311768507
 30
0.0
  0
VERTEX
  5
6D5
  8
0
  6
CONTINUOUS
 62
     1
 10
-1067.211596479732
 20
202.3749860555049
 30
0.0
  0
VERTEX
  5
6D6
  8
0
  6
CONTINUOUS
 62
     1
 10
-1067.19100537719
 20
202.4580556567139
 30
0.0
  0
VERTEX
  5
6D7
  8
0
  6
CONTINUOUS
 62
     1
 10
-1067.17047366642
 20
202.5411399064404
 30
0.0
  0
VERTEX
  5
6D8
  8
0
  6
CONTINUOUS
 62
     1
 10
-1067.150001366497
 20
202.6242388174689
 30
0.0
  0
VERTEX
  5
6D9
  8
0
  6
CONTINUOUS
 62
     1
 10
-1067.133020329956
 20
202.6933612834794
 30
0.0
  0
VERTEX
  5
6DA
  8
0
  6
CONTINUOUS
 62
     1
 10
-1067.116080418182
 20
202.762493838451
 30
0.0
  0
VERTEX
  5
6DB
  8
0
  6
CONTINUOUS
 62
     1
 10
-1067.099181639281
 20
202.8316364615935
 30
0.0
  0
VERTEX
  5
6DC
  8
0
  6
CONTINUOUS
 62
     1
 10
-1067.082324002694
 20
202.9007891268045
 30
0.0
  0
VERTEX
  5
6DD
  8
0
  6
CONTINUOUS
 62
     1
 10
-1067.05734306845
 20
203.0035954632694
 30
0.0
  0
VERTEX
  5
6DE
  8
0
  6
CONTINUOUS
 62
     1
 10
-1067.032453327993
 20
203.1064239160028
 30
0.0
  0
SEQEND
  5
6DF
  8
0
  6
CONTINUOUS
 62
     1
  0
POLYLINE
  5
3C1
  8
0
  6
CONTINUOUS
 62
     1
 66
     1
 10
0.0
 20
0.0
 30
0.0
  0
VERTEX
  5
6E0
  8
0
  6
CONTINUOUS
 62
     1
 10
-1088.25548782384
 20
191.9330488293
 30
0.0
  0
VERTEX
  5
6E1
  8
0
  6
CONTINUOUS
 62
     1
 10
-1085.776195925981
 20
191.7716637959034
 30
0.0
  0
VERTEX
  5
6E2
  8
0
  6
CONTINUOUS
 62
     1
 10
-1083.295379995987
 20
191.6357014288734
 30
0.0
  0
VERTEX
  5
6E3
  8
0
  6
CONTINUOUS
 62
     1
 10
-1082.771579489672
 20
191.6104413799617
 30
0.0
  0
VERTEX
  5
6E4
  8
0
  6
CONTINUOUS
 62
     1
 10
-1082.247719862143
 20
191.5864443404091
 30
0.0
  0
VERTEX
  5
6E5
  8
0
  6
CONTINUOUS
 62
     1
 10
-1081.723801940215
 20
191.5637537626356
 30
0.0
  0
VERTEX
  5
6E6
  8
0
  6
CONTINUOUS
 62
     1
 10
-1081.199827233083
 20
191.5424131314396
 30
0.0
  0
VERTEX
  5
6E7
  8
0
  6
CONTINUOUS
 62
     1
 10
-1080.704504322514
 20
191.5235261156346
 30
0.0
  0
VERTEX
  5
6E8
  8
0
  6
CONTINUOUS
 62
     1
 10
-1080.209133329751
 20
191.5059466106358
 30
0.0
  0
VERTEX
  5
6E9
  8
0
  6
CONTINUOUS
 62
     1
 10
-1079.71371588494
 20
191.4897371811663
 30
0.0
  0
VERTEX
  5
6EA
  8
0
  6
CONTINUOUS
 62
     1
 10
-1079.218253639764
 20
191.4749603924863
 30
0.0
  0
VERTEX
  5
6EB
  8
0
  6
CONTINUOUS
 62
     1
 10
-1078.757157420694
 20
191.4625578032978
 30
0.0
  0
VERTEX
  5
6EC
  8
0
  6
CONTINUOUS
 62
     1
 10
-1078.29602611138
 20
191.4515383886384
 30
0.0
  0
VERTEX
  5
6ED
  8
0
  6
CONTINUOUS
 62
     1
 10
-1077.834861005167
 20
191.4419905275982
 30
0.0
  0
VERTEX
  5
6EE
  8
0
  6
CONTINUOUS
 62
     1
 10
-1077.373666279071
 20
191.4340026457539
 30
0.0
  0
VERTEX
  5
6EF
  8
0
  6
CONTINUOUS
 62
     1
 10
-1076.952538756944
 20
191.4281575387635
 30
0.0
  0
VERTEX
  5
6F0
  8
0
  6
CONTINUOUS
 62
     1
 10
-1076.531392942972
 20
191.4238198406963
 30
0.0
  0
VERTEX
  5
6F1
  8
0
  6
CONTINUOUS
 62
     1
 10
-1076.110236111055
 20
191.4211227182208
 30
0.0
  0
VERTEX
  5
6F2
  8
0
  6
CONTINUOUS
 62
     1
 10
-1075.689072214078
 20
191.4201993249441
 30
0.0
  0
VERTEX
  5
6F3
  8
0
  6
CONTINUOUS
 62
     1
 10
-1075.507386806863
 20
191.4203832942042
 30
0.0
  0
VERTEX
  5
6F4
  8
0
  6
CONTINUOUS
 62
     1
 10
-1075.325702238154
 20
191.4209409582378
 30
0.0
  0
VERTEX
  5
6F5
  8
0
  6
CONTINUOUS
 62
     1
 10
-1075.144019222176
 20
191.4218911393024
 30
0.0
  0
VERTEX
  5
6F6
  8
0
  6
CONTINUOUS
 62
     1
 10
-1074.962338794481
 20
191.4232526578162
 30
0.0
  0
VERTEX
  5
6F7
  8
0
  6
CONTINUOUS
 62
     1
 10
-1074.772655337395
 20
191.4251349110016
 30
0.0
  0
VERTEX
  5
6F8
  8
0
  6
CONTINUOUS
 62
     1
 10
-1074.58297748549
 20
191.4275160289596
 30
0.0
  0
VERTEX
  5
6F9
  8
0
  6
CONTINUOUS
 62
     1
 10
-1074.393307352462
 20
191.430425960343
 30
0.0
  0
VERTEX
  5
6FA
  8
0
  6
CONTINUOUS
 62
     1
 10
-1074.203646642043
 20
191.4338946622864
 30
0.0
  0
VERTEX
  5
6FB
  8
0
  6
CONTINUOUS
 62
     1
 10
-1074.045756258492
 20
191.4372319237163
 30
0.0
  0
VERTEX
  5
6FC
  8
0
  6
CONTINUOUS
 62
     1
 10
-1073.887875702084
 20
191.4410042866724
 30
0.0
  0
VERTEX
  5
6FD
  8
0
  6
CONTINUOUS
 62
     1
 10
-1073.730006053912
 20
191.4452388176463
 30
0.0
  0
VERTEX
  5
6FE
  8
0
  6
CONTINUOUS
 62
     1
 10
-1073.57215025491
 20
191.4499625267628
 30
0.0
  0
VERTEX
  5
6FF
  8
0
  6
CONTINUOUS
 62
     1
 10
-1073.412440440986
 20
191.4552704443003
 30
0.0
  0
VERTEX
  5
700
  8
0
  6
CONTINUOUS
 62
     1
 10
-1073.252750733596
 20
191.4611511231105
 30
0.0
  0
VERTEX
  5
701
  8
0
  6
CONTINUOUS
 62
     1
 10
-1073.093087729299
 20
191.4676486981145
 30
0.0
  0
VERTEX
  5
702
  8
0
  6
CONTINUOUS
 62
     1
 10
-1072.933452891637
 20
191.4748075332829
 30
0.0
  0
VERTEX
  5
703
  8
0
  6
CONTINUOUS
 62
     1
 10
-1072.7544508962
 20
191.4836868587013
 30
0.0
  0
VERTEX
  5
704
  8
0
  6
CONTINUOUS
 62
     1
 10
-1072.575501438319
 20
191.493568017895
 30
0.0
  0
VERTEX
  5
705
  8
0
  6
CONTINUOUS
 62
     1
 10
-1072.396601690849
 20
191.5045661851777
 30
0.0
  0
VERTEX
  5
706
  8
0
  6
CONTINUOUS
 62
     1
 10
-1072.217781756044
 20
191.5167942548087
 30
0.0
  0
VERTEX
  5
707
  8
0
  6
CONTINUOUS
 62
     1
 10
-1072.065349717578
 20
191.52829850111
 30
0.0
  0
VERTEX
  5
708
  8
0
  6
CONTINUOUS
 62
     1
 10
-1071.913009738113
 20
191.5409600716919
 30
0.0
  0
VERTEX
  5
709
  8
0
  6
CONTINUOUS
 62
     1
 10
-1071.76083139237
 20
191.5549548769605
 30
0.0
  0
VERTEX
  5
70A
  8
0
  6
CONTINUOUS
 62
     1
 10
-1071.608800011107
 20
191.5704673340982
 30
0.0
  0
VERTEX
  5
70B
  8
0
  6
CONTINUOUS
 62
     1
 10
-1071.484027580283
 20
191.5844956953246
 30
0.0
  0
VERTEX
  5
70C
  8
0
  6
CONTINUOUS
 62
     1
 10
-1071.359417898841
 20
191.5998925089446
 30
0.0
  0
VERTEX
  5
70D
  8
0
  6
CONTINUOUS
 62
     1
 10
-1071.234890911534
 20
191.6168957104769
 30
0.0
  0
VERTEX
  5
70E
  8
0
  6
CONTINUOUS
 62
     1
 10
-1071.110620736158
 20
191.6357051348032
 30
0.0
  0
VERTEX
  5
70F
  8
0
  6
CONTINUOUS
 62
     1
 10
-1071.02372934735
 20
191.6501269556419
 30
0.0
  0
VERTEX
  5
710
  8
0
  6
CONTINUOUS
 62
     1
 10
-1070.937083595694
 20
191.6659145558841
 30
0.0
  0
VERTEX
  5
711
  8
0
  6
CONTINUOUS
 62
     1
 10
-1070.85104932882
 20
191.6833887331026
 30
0.0
  0
VERTEX
  5
712
  8
0
  6
CONTINUOUS
 62
     1
 10
-1070.76545033459
 20
191.7029917070384
 30
0.0
  0
VERTEX
  5
713
  8
0
  6
CONTINUOUS
 62
     1
 10
-1070.708029772502
 20
191.7176172626161
 30
0.0
  0
VERTEX
  5
714
  8
0
  6
CONTINUOUS
 62
     1
 10
-1070.651012095684
 20
191.7335142263785
 30
0.0
  0
VERTEX
  5
715
  8
0
  6
CONTINUOUS
 62
     1
 10
-1070.593972955394
 20
191.7509729129045
 30
0.0
  0
VERTEX
  5
716
  8
0
  6
CONTINUOUS
 62
     1
 10
-1070.537210534943
 20
191.770010268664
 30
0.0
  0
VERTEX
  5
717
  8
0
  6
CONTINUOUS
 62
     1
 10
-1070.405013546726
 20
191.8290639448405
 30
0.0
  0
VERTEX
  5
718
  8
0
  6
CONTINUOUS
 62
     1
 10
-1070.304371099844
 20
191.9330488047204
 30
0.0
  0
SEQEND
  5
719
  8
0
  6
CONTINUOUS
 62
     1
  0
POLYLINE
  5
3C2
  8
0
  6
CONTINUOUS
 62
     7
 66
     1
 10
0.0
 20
0.0
 30
0.0
  0
VERTEX
  5
71A
  8
0
  6
CONTINUOUS
 62
     7
 10
-2700.61994831374
 20
-547.3617052726747
 30
0.0
  0
VERTEX
  5
71B
  8
0
  6
CONTINUOUS
 62
     7
 10
-2703.442129494298
 20
-547.3373607778045
 30
0.0
  0
VERTEX
  5
71C
  8
0
  6
CONTINUOUS
 62
     7
 10
-2706.264403964312
 20
-547.3292456711329
 30
0.0
  0
VERTEX
  5
71D
  8
0
  6
CONTINUOUS
 62
     7
 10
-2727.337170685831
 20
-547.7818370160578
 30
0.0
  0
VERTEX
  5
71E
  8
0
  6
CONTINUOUS
 62
     7
 10
-2748.37106878879
 20
-549.1390908443576
 30
0.0
  0
VERTEX
  5
71F
  8
0
  6
CONTINUOUS
 62
     7
 10
-2769.291110555534
 20
-551.3544913415017
 30
0.0
  0
VERTEX
  5
720
  8
0
  6
CONTINUOUS
 62
     7
 10
-2779.705881335116
 20
-552.8179902302361
 30
0.0
  0
VERTEX
  5
721
  8
0
  6
CONTINUOUS
 62
     7
 10
-2790.076211906536
 20
-554.5455164281461
 30
0.0
  0
VERTEX
  5
722
  8
0
  6
CONTINUOUS
 62
     7
 10
-2810.673359490269
 20
-558.7515846904748
 30
0.0
  0
VERTEX
  5
723
  8
0
  6
CONTINUOUS
 62
     7
 10
-2831.160216747853
 20
-563.5259483559938
 30
0.0
  0
SEQEND
  5
724
  8
0
  6
CONTINUOUS
 62
     7
  0
POLYLINE
  5
3C3
  8
0
  6
CONTINUOUS
 62
     7
 66
     1
 10
0.0
 20
0.0
 30
0.0
  0
VERTEX
  5
725
  8
0
  6
CONTINUOUS
 62
     7
 10
-2700.619941855627
 20
-519.9328157686668
 30
0.0
  0
VERTEX
  5
726
  8
0
  6
CONTINUOUS
 62
     7
 10
-2703.349584419011
 20
-519.9138773496178
 30
0.0
  0
VERTEX
  5
727
  8
0
  6
CONTINUOUS
 62
     7
 10
-2706.079285349411
 20
-519.9075641699319
 30
0.0
  0
VERTEX
  5
728
  8
0
  6
CONTINUOUS
 62
     7
 10
-2729.930700123432
 20
-520.3896439512373
 30
0.0
  0
VERTEX
  5
729
  8
0
  6
CONTINUOUS
 62
     7
 10
-2753.743146084656
 20
-521.8350523096755
 30
0.0
  0
VERTEX
  5
72A
  8
0
  6
CONTINUOUS
 62
     7
 10
-2777.479046928586
 20
-524.1990905401508
 30
0.0
  0
VERTEX
  5
72B
  8
0
  6
CONTINUOUS
 62
     7
 10
-2801.079862207364
 20
-527.6033263156999
 30
0.0
  0
VERTEX
  5
72C
  8
0
  6
CONTINUOUS
 62
     7
 10
-2824.492881208681
 20
-532.0880641950838
 30
0.0
  0
VERTEX
  5
72D
  8
0
  6
CONTINUOUS
 62
     7
 10
-2847.795715061562
 20
-537.1775596895602
 30
0.0
  0
SEQEND
  5
72E
  8
0
  6
CONTINUOUS
 62
     7
  0
POLYLINE
  5
3C4
  8
1
  6
CONTINUOUS
 62
     7
 66
     1
 10
0.0
 20
0.0
 30
0.0
  0
VERTEX
  5
72F
  8
1
  6
CONTINUOUS
 62
     7
 10
-2991.77826240012
 20
899.269731281343
 30
0.0
  0
VERTEX
  5
730
  8
1
  6
CONTINUOUS
 62
     7
 10
-2995.170815521638
 20
916.642864282822
 30
0.0
  0
VERTEX
  5
731
  8
1
  6
CONTINUOUS
 62
     7
 10
-2996.603975556524
 20
925.2769737867926
 30
0.0
  0
VERTEX
  5
732
  8
1
  6
CONTINUOUS
 62
     7
 10
-2997.721395760362
 20
933.8481348946408
 30
0.0
  0
VERTEX
  5
733
  8
1
  6
CONTINUOUS
 62
     7
 10
-2998.417829522802
 20
942.3353648076588
 30
0.0
  0
VERTEX
  5
734
  8
1
  6
CONTINUOUS
 62
     7
 10
-2998.588030233497
 20
950.7176807271394
 30
0.0
  0
VERTEX
  5
735
  8
1
  6
CONTINUOUS
 62
     7
 10
-2998.126751282095
 20
958.9740998543748
 30
0.0
  0
VERTEX
  5
736
  8
1
  6
CONTINUOUS
 62
     7
 10
-2996.928746058248
 20
967.0836393906577
 30
0.0
  0
VERTEX
  5
737
  8
1
  6
CONTINUOUS
 62
     7
 10
-2994.925303439974
 20
975.0275622997881
 30
0.0
  0
VERTEX
  5
738
  8
1
  6
CONTINUOUS
 62
     7
 10
-2992.186023508266
 20
982.8247828478827
 30
0.0
  0
VERTEX
  5
739
  8
1
  6
CONTINUOUS
 62
     7
 10
-2988.81602587933
 20
990.4962585150894
 30
0.0
  0
VERTEX
  5
73A
  8
1
  6
CONTINUOUS
 62
     7
 10
-2984.920430169369
 20
998.0629467815563
 30
0.0
  0
VERTEX
  5
73B
  8
1
  6
CONTINUOUS
 62
     7
 10
-2980.60435599459
 20
1005.545805127431
 30
0.0
  0
VERTEX
  5
73C
  8
1
  6
CONTINUOUS
 62
     7
 10
-2975.972922971195
 20
1012.965791032862
 30
0.0
  0
VERTEX
  5
73D
  8
1
  6
CONTINUOUS
 62
     7
 10
-2966.184458843379
 20
1027.700975442984
 30
0.0
  0
SEQEND
  5
73E
  8
1
  6
CONTINUOUS
 62
     7
  0
POLYLINE
  5
3C5
  8
1
  6
CONTINUOUS
 62
     7
 66
     1
 10
0.0
 20
0.0
 30
0.0
  0
VERTEX
  5
73F
  8
1
  6
CONTINUOUS
 62
     7
 10
-2966.18445884332
 20
1027.70097544307
 30
0.0
  0
VERTEX
  5
740
  8
1
  6
CONTINUOUS
 62
     7
 10
-2959.655289083902
 20
1031.686424482891
 30
0.0
  0
VERTEX
  5
741
  8
1
  6
CONTINUOUS
 62
     7
 10
-2956.310552375371
 20
1033.495369417186
 30
0.0
  0
VERTEX
  5
742
  8
1
  6
CONTINUOUS
 62
     7
 10
-2952.869633472256
 20
1035.083778848742
 30
0.0
  0
VERTEX
  5
743
  8
1
  6
CONTINUOUS
 62
     7
 10
-2949.311257444007
 20
1036.399924022801
 30
0.0
  0
VERTEX
  5
744
  8
1
  6
CONTINUOUS
 62
     7
 10
-2945.657843233515
 20
1037.479015340298
 30
0.0
  0
VERTEX
  5
745
  8
1
  6
CONTINUOUS
 62
     7
 10
-2941.942602150577
 20
1038.378061336631
 30
0.0
  0
VERTEX
  5
746
  8
1
  6
CONTINUOUS
 62
     7
 10
-2938.198745504991
 20
1039.154070547197
 30
0.0
  0
VERTEX
  5
747
  8
1
  6
CONTINUOUS
 62
     7
 10
-2934.117954116334
 20
1039.910264452582
 30
0.0
  0
VERTEX
  5
748
  8
1
  6
CONTINUOUS
 62
     7
 10
-2930.028714748607
 20
1040.566907320492
 30
0.0
  0
VERTEX
  5
749
  8
1
  6
CONTINUOUS
 62
     7
 10
-2921.802736983369
 20
1041.605459704259
 30
0.0
  0
SEQEND
  5
74A
  8
1
  6
CONTINUOUS
 62
     7
  0
POLYLINE
  5
3C6
  8
0
  6
CONTINUOUS
 62
     1
 66
     1
 10
0.0
 20
0.0
 30
0.0
  0
VERTEX
  5
74B
  8
0
  6
CONTINUOUS
 62
     1
 10
-2977.39943742899
 20
191.9330488293
 30
0.0
  0
VERTEX
  5
74C
  8
0
  6
CONTINUOUS
 62
     1
 10
-2965.885515511457
 20
192.7307674660943
 30
0.0
  0
VERTEX
  5
74D
  8
0
  6
CONTINUOUS
 62
     1
 10
-2954.370291584752
 20
193.5094656517857
 30
0.0
  0
VERTEX
  5
74E
  8
0
  6
CONTINUOUS
 62
     1
 10
-2948.612167172129
 20
193.8912881864729
 30
0.0
  0
VERTEX
  5
74F
  8
0
  6
CONTINUOUS
 62
     1
 10
-2942.853698412832
 20
194.2678822435663
 30
0.0
  0
VERTEX
  5
750
  8
0
  6
CONTINUOUS
 62
     1
 10
-2937.094881641361
 20
194.6390898591605
 30
0.0
  0
VERTEX
  5
751
  8
0
  6
CONTINUOUS
 62
     1
 10
-2931.335710195138
 20
195.0047532614824
 30
0.0
  0
VERTEX
  5
752
  8
0
  6
CONTINUOUS
 62
     1
 10
-2925.576182134857
 20
195.3647143778435
 30
0.0
  0
VERTEX
  5
753
  8
0
  6
CONTINUOUS
 62
     1
 10
-2919.816290772228
 20
195.7188154348652
 30
0.0
  0
VERTEX
  5
754
  8
0
  6
CONTINUOUS
 62
     1
 10
-2914.056032229307
 20
196.0668984815343
 30
0.0
  0
VERTEX
  5
755
  8
0
  6
CONTINUOUS
 62
     1
 10
-2908.295403984681
 20
196.4088054930473
 30
0.0
  0
VERTEX
  5
756
  8
0
  6
CONTINUOUS
 62
     1
 10
-2903.86530953643
 20
196.6674254378653
 30
0.0
  0
VERTEX
  5
757
  8
0
  6
CONTINUOUS
 62
     1
 10
-2899.434993361186
 20
196.9222172637659
 30
0.0
  0
VERTEX
  5
758
  8
0
  6
CONTINUOUS
 62
     1
 10
-2895.004452864228
 20
197.1730984820537
 30
0.0
  0
VERTEX
  5
759
  8
0
  6
CONTINUOUS
 62
     1
 10
-2890.573688030318
 20
197.4199864530491
 30
0.0
  0
VERTEX
  5
75A
  8
0
  6
CONTINUOUS
 62
     1
 10
-2886.142698162842
 20
197.6627985766161
 30
0.0
  0
VERTEX
  5
75B
  8
0
  6
CONTINUOUS
 62
     1
 10
-2881.711482376038
 20
197.9014522627471
 30
0.0
  0
VERTEX
  5
75C
  8
0
  6
CONTINUOUS
 62
     1
 10
-2877.280039866656
 20
198.1358649165254
 30
0.0
  0
VERTEX
  5
75D
  8
0
  6
CONTINUOUS
 62
     1
 10
-2872.848370782311
 20
198.3659538947106
 30
0.0
  0
VERTEX
  5
75E
  8
0
  6
CONTINUOUS
 62
     1
 10
-2868.634105507853
 20
198.5806581887105
 30
0.0
  0
VERTEX
  5
75F
  8
0
  6
CONTINUOUS
 62
     1
 10
-2864.41963545301
 20
198.7913041513457
 30
0.0
  0
VERTEX
  5
760
  8
0
  6
CONTINUOUS
 62
     1
 10
-2860.204960706077
 20
198.9978176475308
 30
0.0
  0
VERTEX
  5
761
  8
0
  6
CONTINUOUS
 62
     1
 10
-2855.990081936803
 20
199.2001245108918
 30
0.0
  0
VERTEX
  5
762
  8
0
  6
CONTINUOUS
 62
     1
 10
-2851.775000274905
 20
199.3981505533705
 30
0.0
  0
VERTEX
  5
763
  8
0
  6
CONTINUOUS
 62
     1
 10
-2847.559716277089
 20
199.5918216145445
 30
0.0
  0
VERTEX
  5
764
  8
0
  6
CONTINUOUS
 62
     1
 10
-2843.344230287337
 20
199.7810635423328
 30
0.0
  0
VERTEX
  5
765
  8
0
  6
CONTINUOUS
 62
     1
 10
-2839.128544517249
 20
199.9658021034997
 30
0.0
  0
VERTEX
  5
766
  8
0
  6
CONTINUOUS
 62
     1
 10
-2834.723920813457
 20
200.1539206284358
 30
0.0
  0
VERTEX
  5
767
  8
0
  6
CONTINUOUS
 62
     1
 10
-2830.319083100664
 20
200.3369602285784
 30
0.0
  0
VERTEX
  5
768
  8
0
  6
CONTINUOUS
 62
     1
 10
-2825.914032711252
 20
200.5148386148406
 30
0.0
  0
VERTEX
  5
769
  8
0
  6
CONTINUOUS
 62
     1
 10
-2821.508773716347
 20
200.6874733823683
 30
0.0
  0
VERTEX
  5
76A
  8
0
  6
CONTINUOUS
 62
     1
 10
-2817.10330874392
 20
200.8547821847028
 30
0.0
  0
VERTEX
  5
76B
  8
0
  6
CONTINUOUS
 62
     1
 10
-2812.69764168896
 20
201.0166826268708
 30
0.0
  0
VERTEX
  5
76C
  8
0
  6
CONTINUOUS
 62
     1
 10
-2808.29177415889
 20
201.1730923970119
 30
0.0
  0
VERTEX
  5
76D
  8
0
  6
CONTINUOUS
 62
     1
 10
-2803.885712343149
 20
201.3239290240884
 30
0.0
  0
VERTEX
  5
76E
  8
0
  6
CONTINUOUS
 62
     1
 10
-2799.63839593447
 20
201.4639746684699
 30
0.0
  0
VERTEX
  5
76F
  8
0
  6
CONTINUOUS
 62
     1
 10
-2795.390907558809
 20
201.5987032178195
 30
0.0
  0
VERTEX
  5
770
  8
0
  6
CONTINUOUS
 62
     1
 10
-2791.143252029059
 20
201.7280524792836
 30
0.0
  0
VERTEX
  5
771
  8
0
  6
CONTINUOUS
 62
     1
 10
-2786.895434277704
 20
201.8519602466037
 30
0.0
  0
VERTEX
  5
772
  8
0
  6
CONTINUOUS
 62
     1
 10
-2782.647463536368
 20
201.9703641918486
 30
0.0
  0
VERTEX
  5
773
  8
0
  6
CONTINUOUS
 62
     1
 10
-2778.399341308775
 20
202.0832022027446
 30
0.0
  0
VERTEX
  5
774
  8
0
  6
CONTINUOUS
 62
     1
 10
-2774.151079285507
 20
202.1904118933897
 30
0.0
  0
VERTEX
  5
775
  8
0
  6
CONTINUOUS
 62
     1
 10
-2769.902677460946
 20
202.2919311785458
 30
0.0
  0
VERTEX
  5
776
  8
0
  6
CONTINUOUS
 62
     1
 10
-2765.574416889435
 20
202.3894421894991
 30
0.0
  0
VERTEX
  5
777
  8
0
  6
CONTINUOUS
 62
     1
 10
-2761.246024856576
 20
202.4809330330638
 30
0.0
  0
VERTEX
  5
778
  8
0
  6
CONTINUOUS
 62
     1
 10
-2756.917511353548
 20
202.5663540737095
 30
0.0
  0
VERTEX
  5
779
  8
0
  6
CONTINUOUS
 62
     1
 10
-2752.588881427637
 20
202.6456557868782
 30
0.0
  0
VERTEX
  5
77A
  8
0
  6
CONTINUOUS
 62
     1
 10
-2748.260168086965
 20
202.7187899433385
 30
0.0
  0
VERTEX
  5
77B
  8
0
  6
CONTINUOUS
 62
     1
 10
-2743.931354301036
 20
202.7857162368992
 30
0.0
  0
VERTEX
  5
77C
  8
0
  6
CONTINUOUS
 62
     1
 10
-2739.602447770946
 20
202.8463956470546
 30
0.0
  0
VERTEX
  5
77D
  8
0
  6
CONTINUOUS
 62
     1
 10
-2735.273457732908
 20
202.9007891273886
 30
0.0
  0
VERTEX
  5
77E
  8
0
  6
CONTINUOUS
 62
     1
 10
-2730.986668829065
 20
202.9484213859817
 30
0.0
  0
VERTEX
  5
77F
  8
0
  6
CONTINUOUS
 62
     1
 10
-2726.699815195687
 20
202.9898284222155
 30
0.0
  0
VERTEX
  5
780
  8
0
  6
CONTINUOUS
 62
     1
 10
-2722.41290578227
 20
203.0249870496652
 30
0.0
  0
VERTEX
  5
781
  8
0
  6
CONTINUOUS
 62
     1
 10
-2718.125949827993
 20
203.0538740818624
 30
0.0
  0
VERTEX
  5
782
  8
0
  6
CONTINUOUS
 62
     1
 10
-2715.211484554789
 20
203.0699204534067
 30
0.0
  0
VERTEX
  5
783
  8
0
  6
CONTINUOUS
 62
     1
 10
-2712.297004868194
 20
203.0830549646413
 30
0.0
  0
VERTEX
  5
784
  8
0
  6
CONTINUOUS
 62
     1
 10
-2709.382513356235
 20
203.0932750924308
 30
0.0
  0
VERTEX
  5
785
  8
0
  6
CONTINUOUS
 62
     1
 10
-2706.468012955119
 20
203.1005783107252
 30
0.0
  0
VERTEX
  5
786
  8
0
  6
CONTINUOUS
 62
     1
 10
-2703.553506567008
 20
203.1049620937614
 30
0.0
  0
VERTEX
  5
787
  8
0
  6
CONTINUOUS
 62
     1
 10
-2700.638997565565
 20
203.1064239160524
 30
0.0
  0
VERTEX
  5
788
  8
0
  6
CONTINUOUS
 62
     1
 10
-2700.629384591092
 20
203.1064239001455
 30
0.0
  0
VERTEX
  5
789
  8
0
  6
CONTINUOUS
 62
     1
 10
-2700.619771616719
 20
203.106423852424
 30
0.0
  0
SEQEND
  5
78A
  8
0
  6
CONTINUOUS
 62
     1
  0
POLYLINE
  5
3C7
  8
1
  6
CONTINUOUS
 62
     1
 66
     1
 10
0.0
 20
0.0
 30
0.0
  0
VERTEX
  5
78B
  8
1
  6
CONTINUOUS
 62
     1
 10
-2987.00122175774
 20
900.746173864397
 30
0.0
  0
VERTEX
  5
78C
  8
1
  6
CONTINUOUS
 62
     1
 10
-2989.216648336366
 20
908.6853408505723
 30
0.0
  0
VERTEX
  5
78D
  8
1
  6
CONTINUOUS
 62
     1
 10
-2990.994942560565
 20
916.7337242334151
 30
0.0
  0
VERTEX
  5
78E
  8
1
  6
CONTINUOUS
 62
     1
 10
-2991.726737478909
 20
920.8357370360423
 30
0.0
  0
VERTEX
  5
78F
  8
1
  6
CONTINUOUS
 62
     1
 10
-2992.345386906007
 20
924.9563305381462
 30
0.0
  0
VERTEX
  5
790
  8
1
  6
CONTINUOUS
 62
     1
 10
-2992.851451824356
 20
929.1071421940407
 30
0.0
  0
VERTEX
  5
791
  8
1
  6
CONTINUOUS
 62
     1
 10
-2993.241133693841
 20
933.2704943641343
 30
0.0
  0
VERTEX
  5
792
  8
1
  6
CONTINUOUS
 62
     1
 10
-2993.513075410142
 20
937.4474792823334
 30
0.0
  0
VERTEX
  5
793
  8
1
  6
CONTINUOUS
 62
     1
 10
-2993.664945957773
 20
941.630551946266
 30
0.0
  0
VERTEX
  5
794
  8
1
  6
CONTINUOUS
 62
     1
 10
-2993.694747811861
 20
945.8113023143375
 30
0.0
  0
VERTEX
  5
795
  8
1
  6
CONTINUOUS
 62
     1
 10
-2993.600359364676
 20
949.9910905673856
 30
0.0
  0
VERTEX
  5
796
  8
1
  6
CONTINUOUS
 62
     1
 10
-2993.380139379793
 20
954.1533909465298
 30
0.0
  0
VERTEX
  5
797
  8
1
  6
CONTINUOUS
 62
     1
 10
-2993.031300523549
 20
958.3068890363272
 30
0.0
  0
VERTEX
  5
798
  8
1
  6
CONTINUOUS
 62
     1
 10
-2992.553481599243
 20
962.4289260742024
 30
0.0
  0
VERTEX
  5
799
  8
1
  6
CONTINUOUS
 62
     1
 10
-2991.942455607993
 20
966.5333247995917
 30
0.0
  0
VERTEX
  5
79A
  8
1
  6
CONTINUOUS
 62
     1
 10
-2991.199539306424
 20
970.5935764752268
 30
0.0
  0
VERTEX
  5
79B
  8
1
  6
CONTINUOUS
 62
     1
 10
-2990.318871109692
 20
974.6261959211081
 30
0.0
  0
VERTEX
  5
79C
  8
1
  6
CONTINUOUS
 62
     1
 10
-2989.303475344369
 20
978.6038289045588
 30
0.0
  0
VERTEX
  5
79D
  8
1
  6
CONTINUOUS
 62
     1
 10
-2988.146139157766
 20
982.5424701919535
 30
0.0
  0
VERTEX
  5
79E
  8
1
  6
CONTINUOUS
 62
     1
 10
-2986.850852415109
 20
986.4169916336316
 30
0.0
  0
VERTEX
  5
79F
  8
1
  6
CONTINUOUS
 62
     1
 10
-2985.41001102094
 20
990.2398748614668
 30
0.0
  0
VERTEX
  5
7A0
  8
1
  6
CONTINUOUS
 62
     1
 10
-2983.82692706901
 20
993.9920480041304
 30
0.0
  0
VERTEX
  5
7A1
  8
1
  6
CONTINUOUS
 62
     1
 10
-2982.096066257177
 20
997.677965609672
 30
0.0
  0
VERTEX
  5
7A2
  8
1
  6
CONTINUOUS
 62
     1
 10
-2981.175540262845
 20
999.4924003039841
 30
0.0
  0
VERTEX
  5
7A3
  8
1
  6
CONTINUOUS
 62
     1
 10
-2980.217815416763
 20
1001.287388898821
 30
0.0
  0
VERTEX
  5
7A4
  8
1
  6
CONTINUOUS
 62
     1
 10
-2979.222244180017
 20
1003.063082049836
 30
0.0
  0
VERTEX
  5
7A5
  8
1
  6
CONTINUOUS
 62
     1
 10
-2978.18943608528
 20
1004.81740292053
 30
0.0
  0
VERTEX
  5
7A6
  8
1
  6
CONTINUOUS
 62
     1
 10
-2977.117717250174
 20
1006.552115046364
 30
0.0
  0
VERTEX
  5
7A7
  8
1
  6
CONTINUOUS
 62
     1
 10
-2976.008891600883
 20
1008.263340184177
 30
0.0
  0
VERTEX
  5
7A8
  8
1
  6
CONTINUOUS
 62
     1
 10
-2974.859866598143
 20
1009.95480193347
 30
0.0
  0
VERTEX
  5
7A9
  8
1
  6
CONTINUOUS
 62
     1
 10
-2973.673996901995
 20
1011.620641694456
 30
0.0
  0
VERTEX
  5
7AA
  8
1
  6
CONTINUOUS
 62
     1
 10
-2972.446452290001
 20
1013.266619285838
 30
0.0
  0
VERTEX
  5
7AB
  8
1
  6
CONTINUOUS
 62
     1
 10
-2971.182480290085
 20
1014.884793413314
 30
0.0
  0
VERTEX
  5
7AC
  8
1
  6
CONTINUOUS
 62
     1
 10
-2969.875104794706
 20
1016.483073785154
 30
0.0
  0
VERTEX
  5
7AD
  8
1
  6
CONTINUOUS
 62
     1
 10
-2968.531878273822
 20
1018.051342122464
 30
0.0
  0
VERTEX
  5
7AE
  8
1
  6
CONTINUOUS
 62
     1
 10
-2965.788053625284
 20
1021.044551315495
 30
0.0
  0
VERTEX
  5
7AF
  8
1
  6
CONTINUOUS
 62
     1
 10
-2962.913068442711
 20
1023.91202109843
 30
0.0
  0
SEQEND
  5
7B0
  8
1
  6
CONTINUOUS
 62
     1
  0
POLYLINE
  5
3C8
  8
1
  6
CONTINUOUS
 62
     1
 66
     1
 10
0.0
 20
0.0
 30
0.0
  0
VERTEX
  5
7B1
  8
1
  6
CONTINUOUS
 62
     1
 10
-2962.91306844264
 20
1023.9120210985
 30
0.0
  0
VERTEX
  5
7B2
  8
1
  6
CONTINUOUS
 62
     1
 10
-2960.871711677318
 20
1025.396055830156
 30
0.0
  0
VERTEX
  5
7B3
  8
1
  6
CONTINUOUS
 62
     1
 10
-2958.741584377432
 20
1026.749586888648
 30
0.0
  0
VERTEX
  5
7B4
  8
1
  6
CONTINUOUS
 62
     1
 10
-2957.595194958567
 20
1027.407385640723
 30
0.0
  0
VERTEX
  5
7B5
  8
1
  6
CONTINUOUS
 62
     1
 10
-2956.429936482542
 20
1028.031151222391
 30
0.0
  0
VERTEX
  5
7B6
  8
1
  6
CONTINUOUS
 62
     1
 10
-2955.239190632149
 20
1028.62591219067
 30
0.0
  0
VERTEX
  5
7B7
  8
1
  6
CONTINUOUS
 62
     1
 10
-2954.032821679392
 20
1029.188312558013
 30
0.0
  0
VERTEX
  5
7B8
  8
1
  6
CONTINUOUS
 62
     1
 10
-2952.80056348931
 20
1029.72460307816
 30
0.0
  0
VERTEX
  5
7B9
  8
1
  6
CONTINUOUS
 62
     1
 10
-2951.555556267195
 20
1030.23059753268
 30
0.0
  0
VERTEX
  5
7BA
  8
1
  6
CONTINUOUS
 62
     1
 10
-2950.285326244851
 20
1030.712866061194
 30
0.0
  0
VERTEX
  5
7BB
  8
1
  6
CONTINUOUS
 62
     1
 10
-2949.004840694932
 20
1031.167207188276
 30
0.0
  0
VERTEX
  5
7BC
  8
1
  6
CONTINUOUS
 62
     1
 10
-2947.700465368198
 20
1031.599951720274
 30
0.0
  0
VERTEX
  5
7BD
  8
1
  6
CONTINUOUS
 62
     1
 10
-2946.387960241623
 20
1032.007380335738
 30
0.0
  0
VERTEX
  5
7BE
  8
1
  6
CONTINUOUS
 62
     1
 10
-2945.053692201675
 20
1032.395276405482
 30
0.0
  0
VERTEX
  5
7BF
  8
1
  6
CONTINUOUS
 62
     1
 10
-2943.713079750879
 20
1032.760640463878
 30
0.0
  0
VERTEX
  5
7C0
  8
1
  6
CONTINUOUS
 62
     1
 10
-2942.353308390641
 20
1033.108501202088
 30
0.0
  0
VERTEX
  5
7C1
  8
1
  6
CONTINUOUS
 62
     1
 10
-2940.988662506196
 20
1033.436735785717
 30
0.0
  0
VERTEX
  5
7C2
  8
1
  6
CONTINUOUS
 62
     1
 10
-2939.60792331776
 20
1033.749635452663
 30
0.0
  0
VERTEX
  5
7C3
  8
1
  6
CONTINUOUS
 62
     1
 10
-2938.223532885498
 20
1034.045906508311
 30
0.0
  0
VERTEX
  5
7C4
  8
1
  6
CONTINUOUS
 62
     1
 10
-2937.875295793855
 20
1034.117902412415
 30
0.0
  0
VERTEX
  5
7C5
  8
1
  6
CONTINUOUS
 62
     1
 10
-2937.526870906748
 20
1034.188977593141
 30
0.0
  0
VERTEX
  5
7C6
  8
1
  6
CONTINUOUS
 62
     1
 10
-2937.177837931342
 20
1034.259241822704
 30
0.0
  0
VERTEX
  5
7C7
  8
1
  6
CONTINUOUS
 62
     1
 10
-2936.828628672127
 20
1034.328626467182
 30
0.0
  0
VERTEX
  5
7C8
  8
1
  6
CONTINUOUS
 62
     1
 10
-2936.479120839001
 20
1034.39717155112
 30
0.0
  0
VERTEX
  5
7C9
  8
1
  6
CONTINUOUS
 62
     1
 10
-2936.129445816343
 20
1034.464857720836
 30
0.0
  0
VERTEX
  5
7CA
  8
1
  6
CONTINUOUS
 62
     1
 10
-2935.779545600168
 20
1034.531701185758
 30
0.0
  0
VERTEX
  5
7CB
  8
1
  6
CONTINUOUS
 62
     1
 10
-2935.429484298407
 20
1034.597697235925
 30
0.0
  0
VERTEX
  5
7CC
  8
1
  6
CONTINUOUS
 62
     1
 10
-2934.728660726131
 20
1034.727219490899
 30
0.0
  0
VERTEX
  5
7CD
  8
1
  6
CONTINUOUS
 62
     1
 10
-2934.027233998046
 20
1034.853437951952
 30
0.0
  0
VERTEX
  5
7CE
  8
1
  6
CONTINUOUS
 62
     1
 10
-2933.324842369273
 20
1034.976476901871
 30
0.0
  0
VERTEX
  5
7CF
  8
1
  6
CONTINUOUS
 62
     1
 10
-2932.621897976851
 20
1035.096322857161
 30
0.0
  0
VERTEX
  5
7D0
  8
1
  6
CONTINUOUS
 62
     1
 10
-2927.089541383595
 20
1035.93269910137
 30
0.0
  0
VERTEX
  5
7D1
  8
1
  6
CONTINUOUS
 62
     1
 10
-2921.5349130917
 20
1036.605459704259
 30
0.0
  0
SEQEND
  5
7D2
  8
1
  6
CONTINUOUS
 62
     1
  0
POLYLINE
  5
3C9
  8
1
  6
CONTINUOUS
 62
     7
 66
     1
 10
0.0
 20
0.0
 30
0.0
  0
VERTEX
  5
7D3
  8
1
  6
CONTINUOUS
 62
     7
 10
-1646.98277642133
 20
1085.40896110467
 30
0.0
  0
VERTEX
  5
7D4
  8
1
  6
CONTINUOUS
 62
     7
 10
-1647.152859313879
 20
1087.858213093888
 30
0.0
  0
VERTEX
  5
7D5
  8
1
  6
CONTINUOUS
 62
     7
 10
-1647.31280244159
 20
1090.308148132282
 30
0.0
  0
VERTEX
  5
7D6
  8
1
  6
CONTINUOUS
 62
     7
 10
-1647.912950311813
 20
1101.360555875041
 30
0.0
  0
VERTEX
  5
7D7
  8
1
  6
CONTINUOUS
 62
     7
 10
-1648.345521639455
 20
1112.421227700001
 30
0.0
  0
VERTEX
  5
7D8
  8
1
  6
CONTINUOUS
 62
     7
 10
-1648.652652173618
 20
1123.488557984801
 30
0.0
  0
VERTEX
  5
7D9
  8
1
  6
CONTINUOUS
 62
     7
 10
-1648.876359038113
 20
1134.557755496948
 30
0.0
  0
VERTEX
  5
7DA
  8
1
  6
CONTINUOUS
 62
     7
 10
-1649.058463940333
 20
1145.606037699691
 30
0.0
  0
VERTEX
  5
7DB
  8
1
  6
CONTINUOUS
 62
     7
 10
-1649.241409132239
 20
1156.654400716954
 30
0.0
  0
VERTEX
  5
7DC
  8
1
  6
CONTINUOUS
 62
     7
 10
-1649.467090064496
 20
1167.700148065084
 30
0.0
  0
VERTEX
  5
7DD
  8
1
  6
CONTINUOUS
 62
     7
 10
-1649.777456024603
 20
1178.743593659969
 30
0.0
  0
VERTEX
  5
7DE
  8
1
  6
CONTINUOUS
 62
     7
 10
-1650.234663474392
 20
1190.556491454238
 30
0.0
  0
VERTEX
  5
7DF
  8
1
  6
CONTINUOUS
 62
     7
 10
-1650.790984075481
 20
1202.365431873094
 30
0.0
  0
VERTEX
  5
7E0
  8
1
  6
CONTINUOUS
 62
     7
 10
-1651.400579624489
 20
1214.171429939362
 30
0.0
  0
VERTEX
  5
7E1
  8
1
  6
CONTINUOUS
 62
     7
 10
-1652.017693745577
 20
1225.976898082771
 30
0.0
  0
VERTEX
  5
7E2
  8
1
  6
CONTINUOUS
 62
     7
 10
-1652.602164761284
 20
1237.913576415246
 30
0.0
  0
VERTEX
  5
7E3
  8
1
  6
CONTINUOUS
 62
     7
 10
-1653.098077826716
 20
1249.854543264129
 30
0.0
  0
VERTEX
  5
7E4
  8
1
  6
CONTINUOUS
 62
     7
 10
-1653.45617567905
 20
1261.810146164401
 30
0.0
  0
VERTEX
  5
7E5
  8
1
  6
CONTINUOUS
 62
     7
 10
-1653.626570910874
 20
1273.768910964898
 30
0.0
  0
VERTEX
  5
7E6
  8
1
  6
CONTINUOUS
 62
     7
 10
-1653.639713467014
 20
1281.926144278544
 30
0.0
  0
VERTEX
  5
7E7
  8
1
  6
CONTINUOUS
 62
     7
 10
-1653.706565197069
 20
1290.084165066908
 30
0.0
  0
VERTEX
  5
7E8
  8
1
  6
CONTINUOUS
 62
     7
 10
-1653.989793536012
 20
1298.218754637511
 30
0.0
  0
VERTEX
  5
7E9
  8
1
  6
CONTINUOUS
 62
     7
 10
-1654.651084877691
 20
1306.330477693667
 30
0.0
  0
VERTEX
  5
7EA
  8
1
  6
CONTINUOUS
 62
     7
 10
-1655.824159808444
 20
1314.251710506369
 30
0.0
  0
VERTEX
  5
7EB
  8
1
  6
CONTINUOUS
 62
     7
 10
-1657.65792832452
 20
1322.048097708514
 30
0.0
  0
VERTEX
  5
7EC
  8
1
  6
CONTINUOUS
 62
     7
 10
-1660.310836951916
 20
1329.71195278653
 30
0.0
  0
VERTEX
  5
7ED
  8
1
  6
CONTINUOUS
 62
     7
 10
-1663.832693890446
 20
1337.00738076076
 30
0.0
  0
VERTEX
  5
7EE
  8
1
  6
CONTINUOUS
 62
     7
 10
-1666.123247392094
 20
1340.729961848773
 30
0.0
  0
VERTEX
  5
7EF
  8
1
  6
CONTINUOUS
 62
     7
 10
-1668.748710025468
 20
1344.231354129537
 30
0.0
  0
VERTEX
  5
7F0
  8
1
  6
CONTINUOUS
 62
     7
 10
-1671.642654187046
 20
1347.285650217797
 30
0.0
  0
VERTEX
  5
7F1
  8
1
  6
CONTINUOUS
 62
     7
 10
-1674.976669029137
 20
1349.828280702653
 30
0.0
  0
VERTEX
  5
7F2
  8
1
  6
CONTINUOUS
 62
     7
 10
-1678.961296957081
 20
1351.750061848006
 30
0.0
  0
VERTEX
  5
7F3
  8
1
  6
CONTINUOUS
 62
     7
 10
-1683.234484977522
 20
1352.615295804399
 30
0.0
  0
VERTEX
  5
7F4
  8
1
  6
CONTINUOUS
 62
     7
 10
-1687.550560185296
 20
1352.237633146548
 30
0.0
  0
VERTEX
  5
7F5
  8
1
  6
CONTINUOUS
 62
     7
 10
-1691.853828180242
 20
1351.146258172988
 30
0.0
  0
SEQEND
  5
7F6
  8
1
  6
CONTINUOUS
 62
     7
  0
POLYLINE
  5
3CA
  8
1
  6
CONTINUOUS
 62
     1
 66
     1
 10
0.0
 20
0.0
 30
0.0
  0
VERTEX
  5
7F7
  8
1
  6
CONTINUOUS
 62
     1
 10
-1633.7742647619
 20
766.054081895062
 30
0.0
  0
VERTEX
  5
7F8
  8
1
  6
CONTINUOUS
 62
     1
 10
-1636.31996581978
 20
776.5731631007178
 30
0.0
  0
VERTEX
  5
7F9
  8
1
  6
CONTINUOUS
 62
     1
 10
-1638.9201494876
 20
787.0789095368782
 30
0.0
  0
VERTEX
  5
7FA
  8
1
  6
CONTINUOUS
 62
     1
 10
-1643.971586436463
 20
806.924708430332
 30
0.0
  0
VERTEX
  5
7FB
  8
1
  6
CONTINUOUS
 62
     1
 10
-1649.144203900383
 20
826.739502482503
 30
0.0
  0
VERTEX
  5
7FC
  8
1
  6
CONTINUOUS
 62
     1
 10
-1654.375151477959
 20
846.5406549745104
 30
0.0
  0
VERTEX
  5
7FD
  8
1
  6
CONTINUOUS
 62
     1
 10
-1659.600941893258
 20
866.3430869029596
 30
0.0
  0
VERTEX
  5
7FE
  8
1
  6
CONTINUOUS
 62
     1
 10
-1664.761770908549
 20
886.1754903439179
 30
0.0
  0
VERTEX
  5
7FF
  8
1
  6
CONTINUOUS
 62
     1
 10
-1669.791728678855
 20
906.0415802011634
 30
0.0
  0
VERTEX
  5
800
  8
1
  6
CONTINUOUS
 62
     1
 10
-1674.627428378331
 20
925.9537906272456
 30
0.0
  0
VERTEX
  5
801
  8
1
  6
CONTINUOUS
 62
     1
 10
-1679.205979808104
 20
945.9264160685785
 30
0.0
  0
VERTEX
  5
802
  8
1
  6
CONTINUOUS
 62
     1
 10
-1682.141818960612
 20
959.5622912105804
 30
0.0
  0
VERTEX
  5
803
  8
1
  6
CONTINUOUS
 62
     1
 10
-1684.901784844084
 20
973.2348229695375
 30
0.0
  0
VERTEX
  5
804
  8
1
  6
CONTINUOUS
 62
     1
 10
-1687.458843884331
 20
986.9483948356608
 30
0.0
  0
VERTEX
  5
805
  8
1
  6
CONTINUOUS
 62
     1
 10
-1689.785205691105
 20
1000.702958052539
 30
0.0
  0
VERTEX
  5
806
  8
1
  6
CONTINUOUS
 62
     1
 10
-1691.848935688125
 20
1014.469518764776
 30
0.0
  0
VERTEX
  5
807
  8
1
  6
CONTINUOUS
 62
     1
 10
-1693.62656220899
 20
1028.276066735975
 30
0.0
  0
VERTEX
  5
808
  8
1
  6
CONTINUOUS
 62
     1
 10
-1695.088541811075
 20
1042.115472348721
 30
0.0
  0
VERTEX
  5
809
  8
1
  6
CONTINUOUS
 62
     1
 10
-1696.205747438302
 20
1055.986470935824
 30
0.0
  0
VERTEX
  5
80A
  8
1
  6
CONTINUOUS
 62
     1
 10
-1697.049267555642
 20
1072.065074013318
 30
0.0
  0
VERTEX
  5
80B
  8
1
  6
CONTINUOUS
 62
     1
 10
-1697.467435839684
 20
1088.161397035729
 30
0.0
  0
VERTEX
  5
80C
  8
1
  6
CONTINUOUS
 62
     1
 10
-1697.536442383407
 20
1104.269805528752
 30
0.0
  0
VERTEX
  5
80D
  8
1
  6
CONTINUOUS
 62
     1
 10
-1697.3322169894
 20
1120.376764186833
 30
0.0
  0
VERTEX
  5
80E
  8
1
  6
CONTINUOUS
 62
     1
 10
-1696.929688853216
 20
1136.516241563839
 30
0.0
  0
VERTEX
  5
80F
  8
1
  6
CONTINUOUS
 62
     1
 10
-1696.404762750696
 20
1152.652374030884
 30
0.0
  0
VERTEX
  5
810
  8
1
  6
CONTINUOUS
 62
     1
 10
-1695.833138614079
 20
1168.782949477003
 30
0.0
  0
VERTEX
  5
811
  8
1
  6
CONTINUOUS
 62
     1
 10
-1695.290358737139
 20
1184.914130361233
 30
0.0
  0
VERTEX
  5
812
  8
1
  6
CONTINUOUS
 62
     1
 10
-1693.610584665556
 20
1268.03098999904
 30
0.0
  0
VERTEX
  5
813
  8
1
  6
CONTINUOUS
 62
     1
 10
-1691.853828180342
 20
1351.14625817286
 30
0.0
  0
SEQEND
  5
814
  8
1
  6
CONTINUOUS
 62
     1
  0
POLYLINE
  5
3CB
  8
1
  6
CONTINUOUS
 62
     7
 66
     1
 10
0.0
 20
0.0
 30
0.0
  0
VERTEX
  5
815
  8
1
  6
CONTINUOUS
 62
     7
 10
-1563.97637546466
 20
766.054081895062
 30
0.0
  0
VERTEX
  5
816
  8
1
  6
CONTINUOUS
 62
     7
 10
-1574.366256229747
 20
786.9420112456128
 30
0.0
  0
VERTEX
  5
817
  8
1
  6
CONTINUOUS
 62
     7
 10
-1584.271239139317
 20
808.0558273172338
 30
0.0
  0
VERTEX
  5
818
  8
1
  6
CONTINUOUS
 62
     7
 10
-1593.285738461012
 20
829.5728452475869
 30
0.0
  0
VERTEX
  5
819
  8
1
  6
CONTINUOUS
 62
     7
 10
-1601.321416959873
 20
851.4760938523295
 30
0.0
  0
VERTEX
  5
81A
  8
1
  6
CONTINUOUS
 62
     7
 10
-1606.015631912219
 20
865.8844122203286
 30
0.0
  0
VERTEX
  5
81B
  8
1
  6
CONTINUOUS
 62
     7
 10
-1610.311339294035
 20
880.4174429424126
 30
0.0
  0
VERTEX
  5
81C
  8
1
  6
CONTINUOUS
 62
     7
 10
-1614.254769597998
 20
895.0551952546564
 30
0.0
  0
VERTEX
  5
81D
  8
1
  6
CONTINUOUS
 62
     7
 10
-1617.890394320118
 20
909.7720654012826
 30
0.0
  0
VERTEX
  5
81E
  8
1
  6
CONTINUOUS
 62
     7
 10
-1621.924923833212
 20
927.5698335078778
 30
0.0
  0
VERTEX
  5
81F
  8
1
  6
CONTINUOUS
 62
     7
 10
-1625.66206414755
 20
945.4324133265042
 30
0.0
  0
SEQEND
  5
820
  8
1
  6
CONTINUOUS
 62
     7
  0
POLYLINE
  5
3CC
  8
1
  6
CONTINUOUS
 62
     7
 66
     1
 10
0.0
 20
0.0
 30
0.0
  0
VERTEX
  5
821
  8
1
  6
CONTINUOUS
 62
     7
 10
-1695.92186358422
 20
1051.99913052733
 30
0.0
  0
VERTEX
  5
822
  8
1
  6
CONTINUOUS
 62
     7
 10
-1690.014222109385
 20
1051.670574117347
 30
0.0
  0
VERTEX
  5
823
  8
1
  6
CONTINUOUS
 62
     7
 10
-1684.269257734301
 20
1051.043948884128
 30
0.0
  0
VERTEX
  5
824
  8
1
  6
CONTINUOUS
 62
     7
 10
-1681.508616052839
 20
1050.525713951544
 30
0.0
  0
VERTEX
  5
825
  8
1
  6
CONTINUOUS
 62
     7
 10
-1678.84964755872
 20
1049.821186004437
 30
0.0
  0
VERTEX
  5
826
  8
1
  6
CONTINUOUS
 62
     7
 10
-1676.312686889414
 20
1048.893106439904
 30
0.0
  0
VERTEX
  5
827
  8
1
  6
CONTINUOUS
 62
     7
 10
-1673.918068682391
 20
1047.704216655039
 30
0.0
  0
VERTEX
  5
828
  8
1
  6
CONTINUOUS
 62
     7
 10
-1671.66717934064
 20
1046.220549786919
 30
0.0
  0
VERTEX
  5
829
  8
1
  6
CONTINUOUS
 62
     7
 10
-1669.563418383854
 20
1044.475258534216
 30
0.0
  0
VERTEX
  5
82A
  8
1
  6
CONTINUOUS
 62
     7
 10
-1667.589320579322
 20
1042.508298919225
 30
0.0
  0
VERTEX
  5
82B
  8
1
  6
CONTINUOUS
 62
     7
 10
-1665.727420694333
 20
1040.359626964242
 30
0.0
  0
VERTEX
  5
82C
  8
1
  6
CONTINUOUS
 62
     7
 10
-1662.270353752145
 20
1035.676970123473
 30
0.0
  0
VERTEX
  5
82D
  8
1
  6
CONTINUOUS
 62
     7
 10
-1659.052495695609
 20
1030.746936190267
 30
0.0
  0
VERTEX
  5
82E
  8
1
  6
CONTINUOUS
 62
     7
 10
-1654.309647432254
 20
1023.158901276527
 30
0.0
  0
VERTEX
  5
82F
  8
1
  6
CONTINUOUS
 62
     7
 10
-1649.837916431456
 20
1015.63898764815
 30
0.0
  0
VERTEX
  5
830
  8
1
  6
CONTINUOUS
 62
     7
 10
-1645.670088814885
 20
1008.082183957996
 30
0.0
  0
VERTEX
  5
831
  8
1
  6
CONTINUOUS
 62
     7
 10
-1641.838950704216
 20
1000.383478858927
 30
0.0
  0
VERTEX
  5
832
  8
1
  6
CONTINUOUS
 62
     7
 10
-1638.356918237587
 20
992.4668366845622
 30
0.0
  0
VERTEX
  5
833
  8
1
  6
CONTINUOUS
 62
     7
 10
-1635.151910669174
 20
984.3650646233812
 30
0.0
  0
VERTEX
  5
834
  8
1
  6
CONTINUOUS
 62
     7
 10
-1629.203603696044
 20
967.8529706896582
 30
0.0
  0
SEQEND
  5
835
  8
1
  6
CONTINUOUS
 62
     7
  0
POLYLINE
  5
3CD
  8
1
  6
CONTINUOUS
 62
     7
 66
     1
 10
0.0
 20
0.0
 30
0.0
  0
VERTEX
  5
836
  8
1
  6
CONTINUOUS
 62
     7
 10
-1629.20360369601
 20
967.852970689563
 30
0.0
  0
VERTEX
  5
837
  8
1
  6
CONTINUOUS
 62
     7
 10
-1627.896907261599
 20
958.7227217206651
 30
0.0
  0
VERTEX
  5
838
  8
1
  6
CONTINUOUS
 62
     7
 10
-1626.427033067511
 20
949.6213402784168
 30
0.0
  0
VERTEX
  5
839
  8
1
  6
CONTINUOUS
 62
     7
 10
-1624.685196226443
 20
940.5680727548836
 30
0.0
  0
VERTEX
  5
83A
  8
1
  6
CONTINUOUS
 62
     7
 10
-1622.780181675371
 20
931.5436727492129
 30
0.0
  0
SEQEND
  5
83B
  8
1
  6
CONTINUOUS
 62
     7
  0
POLYLINE
  5
3CE
  8
1
  6
CONTINUOUS
 62
     7
 66
     1
 10
0.0
 20
0.0
 30
0.0
  0
VERTEX
  5
83C
  8
1
  6
CONTINUOUS
 62
     7
 10
-1720.67692672257
 20
983.4573331089789
 30
0.0
  0
VERTEX
  5
83D
  8
1
  6
CONTINUOUS
 62
     7
 10
-1711.25385592565
 20
876.1222770518277
 30
0.0
  0
VERTEX
  5
83E
  8
1
  6
CONTINUOUS
 62
     7
 10
-1705.343856959421
 20
822.6403523436333
 30
0.0
  0
VERTEX
  5
83F
  8
1
  6
CONTINUOUS
 62
     7
 10
-1697.995701711867
 20
769.3811516198963
 30
0.0
  0
VERTEX
  5
840
  8
1
  6
CONTINUOUS
 62
     7
 10
-1688.889620233075
 20
716.3932181069148
 30
0.0
  0
VERTEX
  5
841
  8
1
  6
CONTINUOUS
 62
     7
 10
-1678.345330716457
 20
663.6280165938023
 30
0.0
  0
VERTEX
  5
842
  8
1
  6
CONTINUOUS
 62
     7
 10
-1654.859738286843
 20
558.4688335673585
 30
0.0
  0
SEQEND
  5
843
  8
1
  6
CONTINUOUS
 62
     7
  0
POLYLINE
  5
3CF
  8
1
  6
CONTINUOUS
 62
     7
 66
     1
 10
0.0
 20
0.0
 30
0.0
  0
VERTEX
  5
844
  8
1
  6
CONTINUOUS
 62
     7
 10
-1716.74983354414
 20
1293.42408883574
 30
0.0
  0
VERTEX
  5
845
  8
1
  6
CONTINUOUS
 62
     7
 10
-1719.039867240406
 20
1262.060508026955
 30
0.0
  0
VERTEX
  5
846
  8
1
  6
CONTINUOUS
 62
     7
 10
-1721.003180858951
 20
1230.67932937855
 30
0.0
  0
VERTEX
  5
847
  8
1
  6
CONTINUOUS
 62
     7
 10
-1722.42196023554
 20
1199.268842351691
 30
0.0
  0
VERTEX
  5
848
  8
1
  6
CONTINUOUS
 62
     7
 10
-1723.514019978437
 20
1167.84075750913
 30
0.0
  0
SEQEND
  5
849
  8
1
  6
CONTINUOUS
 62
     7
  0
POLYLINE
  5
3D0
  8
1
  6
CONTINUOUS
 62
     7
 66
     1
 10
0.0
 20
0.0
 30
0.0
  0
VERTEX
  5
84A
  8
1
  6
CONTINUOUS
 62
     7
 10
-1666.40929484862
 20
1040.51650584273
 30
0.0
  0
VERTEX
  5
84B
  8
1
  6
CONTINUOUS
 62
     7
 10
-1664.357216534058
 20
1037.582880990864
 30
0.0
  0
VERTEX
  5
84C
  8
1
  6
CONTINUOUS
 62
     7
 10
-1663.256011851966
 20
1036.169956431467
 30
0.0
  0
VERTEX
  5
84D
  8
1
  6
CONTINUOUS
 62
     7
 10
-1662.064608540099
 20
1034.821697311911
 30
0.0
  0
VERTEX
  5
84E
  8
1
  6
CONTINUOUS
 62
     7
 10
-1660.758765348203
 20
1033.563349661356
 30
0.0
  0
VERTEX
  5
84F
  8
1
  6
CONTINUOUS
 62
     7
 10
-1659.338001136165
 20
1032.435357136832
 30
0.0
  0
VERTEX
  5
850
  8
1
  6
CONTINUOUS
 62
     7
 10
-1657.807673631716
 20
1031.481844306823
 30
0.0
  0
VERTEX
  5
851
  8
1
  6
CONTINUOUS
 62
     7
 10
-1656.173140562587
 20
1030.74693573982
 30
0.0
  0
VERTEX
  5
852
  8
1
  6
CONTINUOUS
 62
     7
 10
-1654.779591904415
 20
1030.348739616563
 30
0.0
  0
VERTEX
  5
853
  8
1
  6
CONTINUOUS
 62
     7
 10
-1653.325313139963
 20
1030.179861535863
 30
0.0
  0
VERTEX
  5
854
  8
1
  6
CONTINUOUS
 62
     7
 10
-1651.970693975826
 20
1030.288020386569
 30
0.0
  0
VERTEX
  5
855
  8
1
  6
CONTINUOUS
 62
     7
 10
-1650.724953529779
 20
1030.7469348875
 30
0.0
  0
VERTEX
  5
856
  8
1
  6
CONTINUOUS
 62
     7
 10
-1649.958500063783
 20
1031.344361389373
 30
0.0
  0
VERTEX
  5
857
  8
1
  6
CONTINUOUS
 62
     7
 10
-1649.319072615166
 20
1032.093997964684
 30
0.0
  0
VERTEX
  5
858
  8
1
  6
CONTINUOUS
 62
     7
 10
-1648.757818942016
 20
1032.971429191045
 30
0.0
  0
VERTEX
  5
859
  8
1
  6
CONTINUOUS
 62
     7
 10
-1648.2826624578
 20
1033.89351805395
 30
0.0
  0
VERTEX
  5
85A
  8
1
  6
CONTINUOUS
 62
     7
 10
-1647.736327669986
 20
1035.135763250894
 30
0.0
  0
VERTEX
  5
85B
  8
1
  6
CONTINUOUS
 62
     7
 10
-1647.268860663682
 20
1036.410552040448
 30
0.0
  0
VERTEX
  5
85C
  8
1
  6
CONTINUOUS
 62
     7
 10
-1646.89326520914
 20
1037.678536274807
 30
0.0
  0
VERTEX
  5
85D
  8
1
  6
CONTINUOUS
 62
     7
 10
-1646.59184571948
 20
1038.965968268921
 30
0.0
  0
VERTEX
  5
85E
  8
1
  6
CONTINUOUS
 62
     7
 10
-1646.348428122509
 20
1040.313156987578
 30
0.0
  0
VERTEX
  5
85F
  8
1
  6
CONTINUOUS
 62
     7
 10
-1646.156285353353
 20
1041.668892324869
 30
0.0
  0
VERTEX
  5
860
  8
1
  6
CONTINUOUS
 62
     7
 10
-1645.993129963299
 20
1043.041063845767
 30
0.0
  0
VERTEX
  5
861
  8
1
  6
CONTINUOUS
 62
     7
 10
-1645.840371613563
 20
1044.414155536843
 30
0.0
  0
VERTEX
  5
862
  8
1
  6
CONTINUOUS
 62
     7
 10
-1645.488379985955
 20
1047.422237839858
 30
0.0
  0
VERTEX
  5
863
  8
1
  6
CONTINUOUS
 62
     7
 10
-1645.150998850325
 20
1050.433612319378
 30
0.0
  0
VERTEX
  5
864
  8
1
  6
CONTINUOUS
 62
     7
 10
-1644.892627378613
 20
1053.433348115974
 30
0.0
  0
VERTEX
  5
865
  8
1
  6
CONTINUOUS
 62
     7
 10
-1644.773655499313
 20
1056.436882661906
 30
0.0
  0
VERTEX
  5
866
  8
1
  6
CONTINUOUS
 62
     7
 10
-1644.89917310485
 20
1060.06035851446
 30
0.0
  0
VERTEX
  5
867
  8
1
  6
CONTINUOUS
 62
     7
 10
-1645.245524080444
 20
1063.676100550426
 30
0.0
  0
VERTEX
  5
868
  8
1
  6
CONTINUOUS
 62
     7
 10
-1646.130426285568
 20
1070.903689486364
 30
0.0
  0
VERTEX
  5
869
  8
1
  6
CONTINUOUS
 62
     7
 10
-1646.688492924799
 20
1078.149579374209
 30
0.0
  0
VERTEX
  5
86A
  8
1
  6
CONTINUOUS
 62
     7
 10
-1646.982776421327
 20
1085.40896110457
 30
0.0
  0
SEQEND
  5
86B
  8
1
  6
CONTINUOUS
 62
     7
  0
POLYLINE
  5
3D1
  8
1
  6
CONTINUOUS
 62
     3
 66
     1
 10
0.0
 20
0.0
 30
0.0
  0
VERTEX
  5
86C
  8
1
  6
CONTINUOUS
 62
     3
 10
-1865.84443015631
 20
908.346771548926
 30
0.0
  0
VERTEX
  5
86D
  8
1
  6
CONTINUOUS
 62
     3
 10
-1849.99326064896
 20
862.4397137676261
 30
0.0
  0
VERTEX
  5
86E
  8
1
  6
CONTINUOUS
 62
     3
 10
-1833.395928905882
 20
816.8157317611756
 30
0.0
  0
VERTEX
  5
86F
  8
1
  6
CONTINUOUS
 62
     3
 10
-1815.554982534598
 20
771.6635161903512
 30
0.0
  0
VERTEX
  5
870
  8
1
  6
CONTINUOUS
 62
     3
 10
-1796.967873046388
 20
726.7943767286814
 30
0.0
  0
SEQEND
  5
871
  8
1
  6
CONTINUOUS
 62
     3
  0
POLYLINE
  5
3D2
  8
1
  6
CONTINUOUS
 62
     3
 66
     1
 10
0.0
 20
0.0
 30
0.0
  0
VERTEX
  5
872
  8
1
  6
CONTINUOUS
 62
     3
 10
-1859.67279789698
 20
980.9601456585081
 30
0.0
  0
VERTEX
  5
873
  8
1
  6
CONTINUOUS
 62
     3
 10
-1853.881417767688
 20
982.1717946620349
 30
0.0
  0
VERTEX
  5
874
  8
1
  6
CONTINUOUS
 62
     3
 10
-1848.170025762187
 20
983.0534273595695
 30
0.0
  0
VERTEX
  5
875
  8
1
  6
CONTINUOUS
 62
     3
 10
-1845.369321594542
 20
983.2673574979671
 30
0.0
  0
VERTEX
  5
876
  8
1
  6
CONTINUOUS
 62
     3
 10
-1842.618610004267
 20
983.2750274451195
 30
0.0
  0
VERTEX
  5
877
  8
1
  6
CONTINUOUS
 62
     3
 10
-1839.927889506834
 20
983.0351851627777
 30
0.0
  0
VERTEX
  5
878
  8
1
  6
CONTINUOUS
 62
     3
 10
-1837.307158617718
 20
982.5065786126926
 30
0.0
  0
VERTEX
  5
879
  8
1
  6
CONTINUOUS
 62
     3
 10
-1834.748965228345
 20
981.6560394972283
 30
0.0
  0
VERTEX
  5
87A
  8
1
  6
CONTINUOUS
 62
     3
 10
-1832.265173572396
 20
980.5147110038056
 30
0.0
  0
VERTEX
  5
87B
  8
1
  6
CONTINUOUS
 62
     3
 10
-1829.849254910071
 20
979.1257080211267
 30
0.0
  0
VERTEX
  5
87C
  8
1
  6
CONTINUOUS
 62
     3
 10
-1827.494680501568
 20
977.5321454378947
 30
0.0
  0
VERTEX
  5
87D
  8
1
  6
CONTINUOUS
 62
     3
 10
-1822.943449486829
 20
973.9038010245804
 30
0.0
  0
VERTEX
  5
87E
  8
1
  6
CONTINUOUS
 62
     3
 10
-1818.559250609772
 20
969.9745968734832
 30
0.0
  0
VERTEX
  5
87F
  8
1
  6
CONTINUOUS
 62
     3
 10
-1812.014083031449
 20
963.872657438107
 30
0.0
  0
VERTEX
  5
880
  8
1
  6
CONTINUOUS
 62
     3
 10
-1805.748425705009
 20
957.7663478005768
 30
0.0
  0
VERTEX
  5
881
  8
1
  6
CONTINUOUS
 62
     3
 10
-1799.766768655529
 20
951.5457491159338
 30
0.0
  0
VERTEX
  5
882
  8
1
  6
CONTINUOUS
 62
     3
 10
-1794.073601908086
 20
945.1009425392189
 30
0.0
  0
VERTEX
  5
883
  8
1
  6
CONTINUOUS
 62
     3
 10
-1788.661239052604
 20
938.3552697235399
 30
0.0
  0
VERTEX
  5
884
  8
1
  6
CONTINUOUS
 62
     3
 10
-1783.468546560309
 20
931.3590758493411
 30
0.0
  0
VERTEX
  5
885
  8
1
  6
CONTINUOUS
 62
     3
 10
-1773.449278847697
 20
916.9491530034093
 30
0.0
  0
SEQEND
  5
886
  8
1
  6
CONTINUOUS
 62
     3
  0
POLYLINE
  5
3D3
  8
1
  6
CONTINUOUS
 62
     3
 66
     1
 10
0.0
 20
0.0
 30
0.0
  0
VERTEX
  5
887
  8
1
  6
CONTINUOUS
 62
     3
 10
-1859.67279789698
 20
980.9601456585081
 30
0.0
  0
VERTEX
  5
888
  8
1
  6
CONTINUOUS
 62
     3
 10
-1853.881417767688
 20
982.1717946620349
 30
0.0
  0
VERTEX
  5
889
  8
1
  6
CONTINUOUS
 62
     3
 10
-1848.170025762187
 20
983.0534273595695
 30
0.0
  0
VERTEX
  5
88A
  8
1
  6
CONTINUOUS
 62
     3
 10
-1845.369321594542
 20
983.2673574979671
 30
0.0
  0
VERTEX
  5
88B
  8
1
  6
CONTINUOUS
 62
     3
 10
-1842.618610004267
 20
983.2750274451195
 30
0.0
  0
VERTEX
  5
88C
  8
1
  6
CONTINUOUS
 62
     3
 10
-1839.927889506834
 20
983.0351851627777
 30
0.0
  0
VERTEX
  5
88D
  8
1
  6
CONTINUOUS
 62
     3
 10
-1837.307158617718
 20
982.5065786126926
 30
0.0
  0
VERTEX
  5
88E
  8
1
  6
CONTINUOUS
 62
     3
 10
-1834.748965228345
 20
981.6560394972283
 30
0.0
  0
VERTEX
  5
88F
  8
1
  6
CONTINUOUS
 62
     3
 10
-1832.265173572396
 20
980.5147110038056
 30
0.0
  0
VERTEX
  5
890
  8
1
  6
CONTINUOUS
 62
     3
 10
-1829.849254910071
 20
979.1257080211267
 30
0.0
  0
VERTEX
  5
891
  8
1
  6
CONTINUOUS
 62
     3
 10
-1827.494680501568
 20
977.5321454378947
 30
0.0
  0
VERTEX
  5
892
  8
1
  6
CONTINUOUS
 62
     3
 10
-1822.943449486829
 20
973.9038010245804
 30
0.0
  0
VERTEX
  5
893
  8
1
  6
CONTINUOUS
 62
     3
 10
-1818.559250609772
 20
969.9745968734832
 30
0.0
  0
VERTEX
  5
894
  8
1
  6
CONTINUOUS
 62
     3
 10
-1812.014083031449
 20
963.872657438107
 30
0.0
  0
VERTEX
  5
895
  8
1
  6
CONTINUOUS
 62
     3
 10
-1805.748425705009
 20
957.7663478005768
 30
0.0
  0
VERTEX
  5
896
  8
1
  6
CONTINUOUS
 62
     3
 10
-1799.766768655529
 20
951.5457491159338
 30
0.0
  0
VERTEX
  5
897
  8
1
  6
CONTINUOUS
 62
     3
 10
-1794.073601908086
 20
945.1009425392189
 30
0.0
  0
VERTEX
  5
898
  8
1
  6
CONTINUOUS
 62
     3
 10
-1788.661239052604
 20
938.3552697235399
 30
0.0
  0
VERTEX
  5
899
  8
1
  6
CONTINUOUS
 62
     3
 10
-1783.468546560309
 20
931.3590758493411
 30
0.0
  0
VERTEX
  5
89A
  8
1
  6
CONTINUOUS
 62
     3
 10
-1773.449278847697
 20
916.9491530034093
 30
0.0
  0
SEQEND
  5
89B
  8
1
  6
CONTINUOUS
 62
     3
  0
POLYLINE
  5
3D4
  8
1
  6
CONTINUOUS
 62
     3
 66
     1
 10
0.0
 20
0.0
 30
0.0
  0
VERTEX
  5
89C
  8
1
  6
CONTINUOUS
 62
     3
 10
-1773.44927884764
 20
916.9491530033261
 30
0.0
  0
VERTEX
  5
89D
  8
1
  6
CONTINUOUS
 62
     3
 10
-1769.824024694848
 20
908.4682076472105
 30
0.0
  0
VERTEX
  5
89E
  8
1
  6
CONTINUOUS
 62
     3
 10
-1766.048624395389
 20
900.0573796925693
 30
0.0
  0
VERTEX
  5
89F
  8
1
  6
CONTINUOUS
 62
     3
 10
-1762.022981149923
 20
891.7634153272138
 30
0.0
  0
VERTEX
  5
8A0
  8
1
  6
CONTINUOUS
 62
     3
 10
-1757.847191803496
 20
883.539568341988
 30
0.0
  0
SEQEND
  5
8A1
  8
1
  6
CONTINUOUS
 62
     3
  0
POLYLINE
  5
3D5
  8
1
  6
CONTINUOUS
 62
     3
 66
     1
 10
0.0
 20
0.0
 30
0.0
  0
VERTEX
  5
8A2
  8
1
  6
CONTINUOUS
 62
     3
 10
-1701.13649884766
 20
790.264621386234
 30
0.0
  0
VERTEX
  5
8A3
  8
1
  6
CONTINUOUS
 62
     3
 10
-1708.902571650967
 20
800.9128013582556
 30
0.0
  0
VERTEX
  5
8A4
  8
1
  6
CONTINUOUS
 62
     3
 10
-1716.396602450768
 20
811.7541630297949
 30
0.0
  0
VERTEX
  5
8A5
  8
1
  6
CONTINUOUS
 62
     3
 10
-1724.659941599637
 20
824.4564496463021
 30
0.0
  0
VERTEX
  5
8A6
  8
1
  6
CONTINUOUS
 62
     3
 10
-1732.570772945141
 20
837.3825964494818
 30
0.0
  0
VERTEX
  5
8A7
  8
1
  6
CONTINUOUS
 62
     3
 10
-1740.16838150631
 20
850.5009773504983
 30
0.0
  0
VERTEX
  5
8A8
  8
1
  6
CONTINUOUS
 62
     3
 10
-1747.489113287855
 20
863.7753806188384
 30
0.0
  0
VERTEX
  5
8A9
  8
1
  6
CONTINUOUS
 62
     3
 10
-1755.992570887114
 20
879.9224914060906
 30
0.0
  0
VERTEX
  5
8AA
  8
1
  6
CONTINUOUS
 62
     3
 10
-1764.225547085585
 20
896.2091754906767
 30
0.0
  0
SEQEND
  5
8AB
  8
1
  6
CONTINUOUS
 62
     3
  0
POLYLINE
  5
3D6
  8
1
  6
CONTINUOUS
 62
     3
 66
     1
 10
0.0
 20
0.0
 30
0.0
  0
VERTEX
  5
8AC
  8
1
  6
CONTINUOUS
 62
     3
 10
-1828.193923599
 20
977.507196780737
 30
0.0
  0
VERTEX
  5
8AD
  8
1
  6
CONTINUOUS
 62
     3
 10
-1825.452490174548
 20
975.2046497215256
 30
0.0
  0
VERTEX
  5
8AE
  8
1
  6
CONTINUOUS
 62
     3
 10
-1824.023116346819
 20
974.1248821432858
 30
0.0
  0
VERTEX
  5
8AF
  8
1
  6
CONTINUOUS
 62
     3
 10
-1822.523353980485
 20
973.1309217066854
 30
0.0
  0
VERTEX
  5
8B0
  8
1
  6
CONTINUOUS
 62
     3
 10
-1820.936321979027
 20
972.2534283005451
 30
0.0
  0
VERTEX
  5
8B1
  8
1
  6
CONTINUOUS
 62
     3
 10
-1819.272023185472
 20
971.5315920259204
 30
0.0
  0
VERTEX
  5
8B2
  8
1
  6
CONTINUOUS
 62
     3
 10
-1817.547053046089
 20
971.0066472611129
 30
0.0
  0
VERTEX
  5
8B3
  8
1
  6
CONTINUOUS
 62
     3
 10
-1815.778007007146
 20
970.7198283844233
 30
0.0
  0
VERTEX
  5
8B4
  8
1
  6
CONTINUOUS
 62
     3
 10
-1814.328881627643
 20
970.6958773980538
 30
0.0
  0
VERTEX
  5
8B5
  8
1
  6
CONTINUOUS
 62
     3
 10
-1812.88044734685
 20
970.9091487395401
 30
0.0
  0
VERTEX
  5
8B6
  8
1
  6
CONTINUOUS
 62
     3
 10
-1811.599979281881
 20
971.3642234053208
 30
0.0
  0
VERTEX
  5
8B7
  8
1
  6
CONTINUOUS
 62
     3
 10
-1810.515462225106
 20
972.1299221265196
 30
0.0
  0
VERTEX
  5
8B8
  8
1
  6
CONTINUOUS
 62
     3
 10
-1809.929750384384
 20
972.9053645681705
 30
0.0
  0
VERTEX
  5
8B9
  8
1
  6
CONTINUOUS
 62
     3
 10
-1809.506131120324
 20
973.794953898257
 30
0.0
  0
VERTEX
  5
8BA
  8
1
  6
CONTINUOUS
 62
     3
 10
-1809.191097614477
 20
974.7877505203369
 30
0.0
  0
VERTEX
  5
8BB
  8
1
  6
CONTINUOUS
 62
     3
 10
-1808.97078585384
 20
975.8013995146715
 30
0.0
  0
VERTEX
  5
8BC
  8
1
  6
CONTINUOUS
 62
     3
 10
-1808.764583688146
 20
977.1427180810734
 30
0.0
  0
VERTEX
  5
8BD
  8
1
  6
CONTINUOUS
 62
     3
 10
-1808.64298485104
 20
978.4950588601562
 30
0.0
  0
VERTEX
  5
8BE
  8
1
  6
CONTINUOUS
 62
     3
 10
-1808.608365970003
 20
979.8170488363389
 30
0.0
  0
VERTEX
  5
8BF
  8
1
  6
CONTINUOUS
 62
     3
 10
-1808.650429019746
 20
981.1386257535322
 30
0.0
  0
VERTEX
  5
8C0
  8
1
  6
CONTINUOUS
 62
     3
 10
-1808.763983773994
 20
982.5029112397779
 30
0.0
  0
VERTEX
  5
8C1
  8
1
  6
CONTINUOUS
 62
     3
 10
-1808.929278236341
 20
983.8621812237162
 30
0.0
  0
VERTEX
  5
8C2
  8
1
  6
CONTINUOUS
 62
     3
 10
-1809.126826354145
 20
985.229824856106
 30
0.0
  0
VERTEX
  5
8C3
  8
1
  6
CONTINUOUS
 62
     3
 10
-1809.334655399275
 20
986.5956663525888
 30
0.0
  0
VERTEX
  5
8C4
  8
1
  6
CONTINUOUS
 62
     3
 10
-1809.773206584789
 20
989.5923528736167
 30
0.0
  0
VERTEX
  5
8C5
  8
1
  6
CONTINUOUS
 62
     3
 10
-1810.226722499819
 20
992.588437919373
 30
0.0
  0
VERTEX
  5
8C6
  8
1
  6
CONTINUOUS
 62
     3
 10
-1810.75354357695
 20
995.5528316549384
 30
0.0
  0
VERTEX
  5
8C7
  8
1
  6
CONTINUOUS
 62
     3
 10
-1811.415997509241
 20
998.4848154311995
 30
0.0
  0
VERTEX
  5
8C8
  8
1
  6
CONTINUOUS
 62
     3
 10
-1812.475062766192
 20
1001.952337991309
 30
0.0
  0
VERTEX
  5
8C9
  8
1
  6
CONTINUOUS
 62
     3
 10
-1813.745435019564
 20
1005.355234376274
 30
0.0
  0
VERTEX
  5
8CA
  8
1
  6
CONTINUOUS
 62
     3
 10
-1816.470822580025
 20
1012.107519647558
 30
0.0
  0
VERTEX
  5
8CB
  8
1
  6
CONTINUOUS
 62
     3
 10
-1818.885247861338
 20
1018.962073550012
 30
0.0
  0
VERTEX
  5
8CC
  8
1
  6
CONTINUOUS
 62
     3
 10
-1821.048370138371
 20
1025.897931672705
 30
0.0
  0
SEQEND
  5
8CD
  8
1
  6
CONTINUOUS
 62
     3
  0
POLYLINE
  5
3D7
  8
1
  6
CONTINUOUS
 62
     3
 66
     1
 10
0.0
 20
0.0
 30
0.0
  0
VERTEX
  5
8CE
  8
1
  6
CONTINUOUS
 62
     3
 10
-1821.0483701384
 20
1025.8979316728
 30
0.0
  0
VERTEX
  5
8CF
  8
1
  6
CONTINUOUS
 62
     3
 10
-1821.846570657993
 20
1028.219706732426
 30
0.0
  0
VERTEX
  5
8D0
  8
1
  6
CONTINUOUS
 62
     3
 10
-1822.635153702986
 20
1030.544765931155
 30
0.0
  0
VERTEX
  5
8D1
  8
1
  6
CONTINUOUS
 62
     3
 10
-1826.075425648487
 20
1041.065242313871
 30
0.0
  0
VERTEX
  5
8D2
  8
1
  6
CONTINUOUS
 62
     3
 10
-1829.355969985497
 20
1051.637073187749
 30
0.0
  0
VERTEX
  5
8D3
  8
1
  6
CONTINUOUS
 62
     3
 10
-1832.517071156635
 20
1062.247802106334
 30
0.0
  0
VERTEX
  5
8D4
  8
1
  6
CONTINUOUS
 62
     3
 10
-1835.598074524716
 20
1072.881926262561
 30
0.0
  0
VERTEX
  5
8D5
  8
1
  6
CONTINUOUS
 62
     3
 10
-1838.6334802026
 20
1083.506615161417
 30
0.0
  0
VERTEX
  5
8D6
  8
1
  6
CONTINUOUS
 62
     3
 10
-1841.669718454331
 20
1094.131164638132
 30
0.0
  0
VERTEX
  5
8D7
  8
1
  6
CONTINUOUS
 62
     3
 10
-1844.746559276388
 20
1104.742126748972
 30
0.0
  0
VERTEX
  5
8D8
  8
1
  6
CONTINUOUS
 62
     3
 10
-1847.904603816368
 20
1115.328947438865
 30
0.0
  0
VERTEX
  5
8D9
  8
1
  6
CONTINUOUS
 62
     3
 10
-1851.403635227101
 20
1126.620996506096
 30
0.0
  0
VERTEX
  5
8DA
  8
1
  6
CONTINUOUS
 62
     3
 10
-1854.997378346271
 20
1137.883570671032
 30
0.0
  0
VERTEX
  5
8DB
  8
1
  6
CONTINUOUS
 62
     3
 10
-1858.641819576642
 20
1149.129514170466
 30
0.0
  0
VERTEX
  5
8DC
  8
1
  6
CONTINUOUS
 62
     3
 10
-1862.293386035831
 20
1160.372999854077
 30
0.0
  0
VERTEX
  5
8DD
  8
1
  6
CONTINUOUS
 62
     3
 10
-1865.947381372325
 20
1171.751673505345
 30
0.0
  0
VERTEX
  5
8DE
  8
1
  6
CONTINUOUS
 62
     3
 10
-1869.516946247247
 20
1183.157410029495
 30
0.0
  0
VERTEX
  5
8DF
  8
1
  6
CONTINUOUS
 62
     3
 10
-1872.957179937424
 20
1194.61295309553
 30
0.0
  0
VERTEX
  5
8E0
  8
1
  6
CONTINUOUS
 62
     3
 10
-1876.216925178787
 20
1206.120131335655
 30
0.0
  0
VERTEX
  5
8E1
  8
1
  6
CONTINUOUS
 62
     3
 10
-1878.340867250102
 20
1213.99601212054
 30
0.0
  0
VERTEX
  5
8E2
  8
1
  6
CONTINUOUS
 62
     3
 10
-1880.516892213067
 20
1221.858752590486
 30
0.0
  0
VERTEX
  5
8E3
  8
1
  6
CONTINUOUS
 62
     3
 10
-1882.895856485357
 20
1229.642857854762
 30
0.0
  0
VERTEX
  5
8E4
  8
1
  6
CONTINUOUS
 62
     3
 10
-1885.634083286519
 20
1237.307025856821
 30
0.0
  0
VERTEX
  5
8E5
  8
1
  6
CONTINUOUS
 62
     3
 10
-1888.817352570924
 20
1244.654735073246
 30
0.0
  0
VERTEX
  5
8E6
  8
1
  6
CONTINUOUS
 62
     3
 10
-1892.606490430945
 20
1251.710852607277
 30
0.0
  0
VERTEX
  5
8E7
  8
1
  6
CONTINUOUS
 62
     3
 10
-1897.152555042027
 20
1258.426944878381
 30
0.0
  0
VERTEX
  5
8E8
  8
1
  6
CONTINUOUS
 62
     3
 10
-1902.442603317355
 20
1264.562263522704
 30
0.0
  0
VERTEX
  5
8E9
  8
1
  6
CONTINUOUS
 62
     3
 10
-1905.61858298361
 20
1267.565161866017
 30
0.0
  0
VERTEX
  5
8EA
  8
1
  6
CONTINUOUS
 62
     3
 10
-1909.060812153779
 20
1270.267727366257
 30
0.0
  0
VERTEX
  5
8EB
  8
1
  6
CONTINUOUS
 62
     3
 10
-1912.64665755631
 20
1272.468942974563
 30
0.0
  0
VERTEX
  5
8EC
  8
1
  6
CONTINUOUS
 62
     3
 10
-1916.525149791657
 20
1274.06202888881
 30
0.0
  0
VERTEX
  5
8ED
  8
1
  6
CONTINUOUS
 62
     3
 10
-1920.871398376345
 20
1274.887029334182
 30
0.0
  0
VERTEX
  5
8EE
  8
1
  6
CONTINUOUS
 62
     3
 10
-1925.222920072261
 20
1274.61679871545
 30
0.0
  0
VERTEX
  5
8EF
  8
1
  6
CONTINUOUS
 62
     3
 10
-1929.294182295184
 20
1273.134922136741
 30
0.0
  0
VERTEX
  5
8F0
  8
1
  6
CONTINUOUS
 62
     3
 10
-1933.168351360442
 20
1270.966967150343
 30
0.0
  0
SEQEND
  5
8F1
  8
1
  6
CONTINUOUS
 62
     3
  0
POLYLINE
  5
3D8
  8
1
  6
CONTINUOUS
 62
     3
 66
     1
 10
0.0
 20
0.0
 30
0.0
  0
VERTEX
  5
8F2
  8
1
  6
CONTINUOUS
 62
     3
 10
-1942.27644916375
 20
1208.76807270291
 30
0.0
  0
VERTEX
  5
8F3
  8
1
  6
CONTINUOUS
 62
     3
 10
-1936.370959818118
 20
1177.880475660282
 30
0.0
  0
VERTEX
  5
8F4
  8
1
  6
CONTINUOUS
 62
     3
 10
-1930.145328455403
 20
1147.06044178841
 30
0.0
  0
VERTEX
  5
8F5
  8
1
  6
CONTINUOUS
 62
     3
 10
-1923.38613183856
 20
1116.353034029386
 30
0.0
  0
VERTEX
  5
8F6
  8
1
  6
CONTINUOUS
 62
     3
 10
-1916.306793639722
 20
1085.713189349298
 30
0.0
  0
SEQEND
  5
8F7
  8
1
  6
CONTINUOUS
 62
     3
  0
POLYLINE
  5
3D9
  8
1
  6
CONTINUOUS
 62
     3
 66
     1
 10
0.0
 20
0.0
 30
0.0
  0
VERTEX
  5
8F8
  8
1
  6
CONTINUOUS
 62
     3
 10
-1726.11445984219
 20
721.7281166084171
 30
0.0
  0
VERTEX
  5
8F9
  8
1
  6
CONTINUOUS
 62
     3
 10
-1731.058419020266
 20
730.7862950047223
 30
0.0
  0
VERTEX
  5
8FA
  8
1
  6
CONTINUOUS
 62
     3
 10
-1736.04697148322
 20
739.8199915093127
 30
0.0
  0
VERTEX
  5
8FB
  8
1
  6
CONTINUOUS
 62
     3
 10
-1746.062755447454
 20
757.6821529530303
 30
0.0
  0
VERTEX
  5
8FC
  8
1
  6
CONTINUOUS
 62
     3
 10
-1756.187566484298
 20
775.4830025212368
 30
0.0
  0
VERTEX
  5
8FD
  8
1
  6
CONTINUOUS
 62
     3
 10
-1766.365189269142
 20
793.2555782903023
 30
0.0
  0
VERTEX
  5
8FE
  8
1
  6
CONTINUOUS
 62
     3
 10
-1776.538161672688
 20
811.0307245843734
 30
0.0
  0
VERTEX
  5
8FF
  8
1
  6
CONTINUOUS
 62
     3
 10
-1786.656143412592
 20
828.85163441601
 30
0.0
  0
VERTEX
  5
900
  8
1
  6
CONTINUOUS
 62
     3
 10
-1796.656431946552
 20
846.7389548211794
 30
0.0
  0
VERTEX
  5
901
  8
1
  6
CONTINUOUS
 62
     3
 10
-1806.481018465801
 20
864.7211019545979
 30
0.0
  0
VERTEX
  5
902
  8
1
  6
CONTINUOUS
 62
     3
 10
-1816.072855380743
 20
882.8281603751885
 30
0.0
  0
VERTEX
  5
903
  8
1
  6
CONTINUOUS
 62
     3
 10
-1822.437882422907
 20
895.2395532524104
 30
0.0
  0
VERTEX
  5
904
  8
1
  6
CONTINUOUS
 62
     3
 10
-1828.642516363883
 20
907.731873055134
 30
0.0
  0
VERTEX
  5
905
  8
1
  6
CONTINUOUS
 62
     3
 10
-1834.661779305665
 20
920.3163507123509
 30
0.0
  0
VERTEX
  5
906
  8
1
  6
CONTINUOUS
 62
     3
 10
-1840.468815173593
 20
933.0001318113427
 30
0.0
  0
VERTEX
  5
907
  8
1
  6
CONTINUOUS
 62
     3
 10
-1846.025273374054
 20
945.7634757152582
 30
0.0
  0
VERTEX
  5
908
  8
1
  6
CONTINUOUS
 62
     3
 10
-1851.315726302151
 20
958.639493373893
 30
0.0
  0
VERTEX
  5
909
  8
1
  6
CONTINUOUS
 62
     3
 10
-1856.309791902798
 20
971.6289445111722
 30
0.0
  0
VERTEX
  5
90A
  8
1
  6
CONTINUOUS
 62
     3
 10
-1860.979008280335
 20
984.7381461892427
 30
0.0
  0
VERTEX
  5
90B
  8
1
  6
CONTINUOUS
 62
     3
 10
-1865.955234841767
 20
1000.050565081147
 30
0.0
  0
VERTEX
  5
90C
  8
1
  6
CONTINUOUS
 62
     3
 10
-1870.525189341385
 20
1015.49018928082
 30
0.0
  0
VERTEX
  5
90D
  8
1
  6
CONTINUOUS
 62
     3
 10
-1874.761007448435
 20
1031.031856856895
 30
0.0
  0
VERTEX
  5
90E
  8
1
  6
CONTINUOUS
 62
     3
 10
-1878.732528525367
 20
1046.642841629168
 30
0.0
  0
VERTEX
  5
90F
  8
1
  6
CONTINUOUS
 62
     3
 10
-1882.520920325988
 20
1062.336561598262
 30
0.0
  0
VERTEX
  5
910
  8
1
  6
CONTINUOUS
 62
     3
 10
-1886.190219043442
 20
1078.058729557206
 30
0.0
  0
VERTEX
  5
911
  8
1
  6
CONTINUOUS
 62
     3
 10
-1889.812972660873
 20
1093.787616186713
 30
0.0
  0
VERTEX
  5
912
  8
1
  6
CONTINUOUS
 62
     3
 10
-1893.463744392581
 20
1109.509622180781
 30
0.0
  0
VERTEX
  5
913
  8
1
  6
CONTINUOUS
 62
     3
 10
-1913.353433477882
 20
1190.229101026175
 30
0.0
  0
VERTEX
  5
914
  8
1
  6
CONTINUOUS
 62
     3
 10
-1933.168351360506
 20
1270.966967150192
 30
0.0
  0
SEQEND
  5
915
  8
1
  6
CONTINUOUS
 62
     3
  0
POLYLINE
  5
3DA
  8
1
  6
CONTINUOUS
 62
     3
 66
     1
 10
0.0
 20
0.0
 30
0.0
  0
VERTEX
  5
916
  8
1
  6
CONTINUOUS
 62
     3
 10
-1742.21714325744
 20
688.296962904729
 30
0.0
  0
VERTEX
  5
917
  8
1
  6
CONTINUOUS
 62
     3
 10
-1761.659008617573
 20
701.1914999722159
 30
0.0
  0
VERTEX
  5
918
  8
1
  6
CONTINUOUS
 62
     3
 10
-1780.793883477124
 20
714.5241096062865
 30
0.0
  0
VERTEX
  5
919
  8
1
  6
CONTINUOUS
 62
     3
 10
-1799.359177857287
 20
728.6511440868106
 30
0.0
  0
VERTEX
  5
91A
  8
1
  6
CONTINUOUS
 62
     3
 10
-1817.269903876317
 20
743.6020745544936
 30
0.0
  0
VERTEX
  5
91B
  8
1
  6
CONTINUOUS
 62
     3
 10
-1828.539372459872
 20
753.7329368108226
 30
0.0
  0
VERTEX
  5
91C
  8
1
  6
CONTINUOUS
 62
     3
 10
-1839.526079540791
 20
764.1710569192196
 30
0.0
  0
VERTEX
  5
91D
  8
1
  6
CONTINUOUS
 62
     3
 10
-1850.260066518195
 20
774.8760071239453
 30
0.0
  0
VERTEX
  5
91E
  8
1
  6
CONTINUOUS
 62
     3
 10
-1860.767044959492
 20
785.8033781740597
 30
0.0
  0
VERTEX
  5
91F
  8
1
  6
CONTINUOUS
 62
     3
 10
-1873.159934063449
 20
799.1994327284887
 30
0.0
  0
VERTEX
  5
920
  8
1
  6
CONTINUOUS
 62
     3
 10
-1885.327682422484
 20
812.8003104713803
 30
0.0
  0
SEQEND
  5
921
  8
1
  6
CONTINUOUS
 62
     3
  0
POLYLINE
  5
3DB
  8
1
  6
CONTINUOUS
 62
     7
 66
     1
 10
0.0
 20
0.0
 30
0.0
  0
VERTEX
  5
922
  8
1
  6
CONTINUOUS
 62
     7
 10
-1742.21714325744
 20
688.296962904729
 30
0.0
  0
VERTEX
  5
923
  8
1
  6
CONTINUOUS
 62
     7
 10
-1761.659008617573
 20
701.1914999722159
 30
0.0
  0
VERTEX
  5
924
  8
1
  6
CONTINUOUS
 62
     7
 10
-1780.793883477124
 20
714.5241096062865
 30
0.0
  0
VERTEX
  5
925
  8
1
  6
CONTINUOUS
 62
     7
 10
-1799.359177857287
 20
728.6511440868106
 30
0.0
  0
VERTEX
  5
926
  8
1
  6
CONTINUOUS
 62
     7
 10
-1817.269903876317
 20
743.6020745544936
 30
0.0
  0
VERTEX
  5
927
  8
1
  6
CONTINUOUS
 62
     7
 10
-1828.539372459872
 20
753.7329368108226
 30
0.0
  0
VERTEX
  5
928
  8
1
  6
CONTINUOUS
 62
     7
 10
-1839.526079540791
 20
764.1710569192196
 30
0.0
  0
VERTEX
  5
929
  8
1
  6
CONTINUOUS
 62
     7
 10
-1850.260066518195
 20
774.8760071239453
 30
0.0
  0
VERTEX
  5
92A
  8
1
  6
CONTINUOUS
 62
     7
 10
-1860.767044959492
 20
785.8033781740597
 30
0.0
  0
VERTEX
  5
92B
  8
1
  6
CONTINUOUS
 62
     7
 10
-1873.159934063449
 20
799.1994327284887
 30
0.0
  0
VERTEX
  5
92C
  8
1
  6
CONTINUOUS
 62
     7
 10
-1885.327682422484
 20
812.8003104713803
 30
0.0
  0
SEQEND
  5
92D
  8
1
  6
CONTINUOUS
 62
     7
  0
POLYLINE
  5
3DC
  8
1
  6
CONTINUOUS
 62
     3
 66
     1
 10
0.0
 20
0.0
 30
0.0
  0
VERTEX
  5
92E
  8
1
  6
CONTINUOUS
 62
     3
 10
-1742.21714325744
 20
688.296962904729
 30
0.0
  0
VERTEX
  5
92F
  8
1
  6
CONTINUOUS
 62
     3
 10
-1761.659008617573
 20
701.1914999722159
 30
0.0
  0
VERTEX
  5
930
  8
1
  6
CONTINUOUS
 62
     3
 10
-1780.793883477124
 20
714.5241096062865
 30
0.0
  0
VERTEX
  5
931
  8
1
  6
CONTINUOUS
 62
     3
 10
-1799.359177857287
 20
728.6511440868106
 30
0.0
  0
VERTEX
  5
932
  8
1
  6
CONTINUOUS
 62
     3
 10
-1817.269903876317
 20
743.6020745544936
 30
0.0
  0
VERTEX
  5
933
  8
1
  6
CONTINUOUS
 62
     3
 10
-1828.539372459872
 20
753.7329368108226
 30
0.0
  0
VERTEX
  5
934
  8
1
  6
CONTINUOUS
 62
     3
 10
-1839.526079540791
 20
764.1710569192196
 30
0.0
  0
VERTEX
  5
935
  8
1
  6
CONTINUOUS
 62
     3
 10
-1850.260066518195
 20
774.8760071239453
 30
0.0
  0
VERTEX
  5
936
  8
1
  6
CONTINUOUS
 62
     3
 10
-1860.767044959492
 20
785.8033781740597
 30
0.0
  0
VERTEX
  5
937
  8
1
  6
CONTINUOUS
 62
     3
 10
-1873.159934063449
 20
799.1994327284887
 30
0.0
  0
VERTEX
  5
938
  8
1
  6
CONTINUOUS
 62
     3
 10
-1885.327682422484
 20
812.8003104713803
 30
0.0
  0
SEQEND
  5
939
  8
1
  6
CONTINUOUS
 62
     3
  0
POLYLINE
  5
3DD
  8
1
  6
CONTINUOUS
 62
     3
 66
     1
 10
0.0
 20
0.0
 30
0.0
  0
VERTEX
  5
93A
  8
1
  6
CONTINUOUS
 62
     3
 10
-1999.45781219985
 20
869.959895046874
 30
0.0
  0
VERTEX
  5
93B
  8
1
  6
CONTINUOUS
 62
     3
 10
-1994.177366401201
 20
872.6291775866678
 30
0.0
  0
VERTEX
  5
93C
  8
1
  6
CONTINUOUS
 62
     3
 10
-1988.888768691933
 20
874.9589864035881
 30
0.0
  0
VERTEX
  5
93D
  8
1
  6
CONTINUOUS
 62
     3
 10
-1986.238865398748
 20
875.8905026275728
 30
0.0
  0
VERTEX
  5
93E
  8
1
  6
CONTINUOUS
 62
     3
 10
-1983.583867161425
 20
876.6098477747614
 30
0.0
  0
VERTEX
  5
93F
  8
1
  6
CONTINUOUS
 62
     3
 10
-1980.922754991139
 20
877.0745876297948
 30
0.0
  0
VERTEX
  5
940
  8
1
  6
CONTINUOUS
 62
     3
 10
-1978.25450989906
 20
877.2422879773137
 30
0.0
  0
VERTEX
  5
941
  8
1
  6
CONTINUOUS
 62
     3
 10
-1975.563349113936
 20
877.0828394496427
 30
0.0
  0
VERTEX
  5
942
  8
1
  6
CONTINUOUS
 62
     3
 10
-1972.868793055518
 20
876.6232533661922
 30
0.0
  0
VERTEX
  5
943
  8
1
  6
CONTINUOUS
 62
     3
 10
-1970.175694399743
 20
875.9068652736586
 30
0.0
  0
VERTEX
  5
944
  8
1
  6
CONTINUOUS
 62
     3
 10
-1967.488905822548
 20
874.9770107187383
 30
0.0
  0
VERTEX
  5
945
  8
1
  6
CONTINUOUS
 62
     3
 10
-1962.153669607647
 20
872.6502444085221
 30
0.0
  0
VERTEX
  5
946
  8
1
  6
CONTINUOUS
 62
     3
 10
-1956.901905818311
 20
869.9896388091145
 30
0.0
  0
VERTEX
  5
947
  8
1
  6
CONTINUOUS
 62
     3
 10
-1941.367871819311
 20
861.5130612046503
 30
0.0
  0
VERTEX
  5
948
  8
1
  6
CONTINUOUS
 62
     3
 10
-1933.98002537969
 20
857.0525910458509
 30
0.0
  0
VERTEX
  5
949
  8
1
  6
CONTINUOUS
 62
     3
 10
-1926.812809900909
 20
852.3008859091472
 30
0.0
  0
VERTEX
  5
94A
  8
1
  6
CONTINUOUS
 62
     3
 10
-1919.838960240822
 20
847.1858889067908
 30
0.0
  0
VERTEX
  5
94B
  8
1
  6
CONTINUOUS
 62
     3
 10
-1913.012456236662
 20
841.7720522703438
 30
0.0
  0
VERTEX
  5
94C
  8
1
  6
CONTINUOUS
 62
     3
 10
-1899.605024321556
 20
830.4463129406308
 30
0.0
  0
SEQEND
  5
94D
  8
1
  6
CONTINUOUS
 62
     3
  0
POLYLINE
  5
3DE
  8
1
  6
CONTINUOUS
 62
     3
 66
     1
 10
0.0
 20
0.0
 30
0.0
  0
VERTEX
  5
94E
  8
1
  6
CONTINUOUS
 62
     3
 10
-1999.45781219985
 20
869.959895046874
 30
0.0
  0
VERTEX
  5
94F
  8
1
  6
CONTINUOUS
 62
     3
 10
-1994.177366401201
 20
872.6291775866678
 30
0.0
  0
VERTEX
  5
950
  8
1
  6
CONTINUOUS
 62
     3
 10
-1988.888768691933
 20
874.9589864035881
 30
0.0
  0
VERTEX
  5
951
  8
1
  6
CONTINUOUS
 62
     3
 10
-1986.238865398748
 20
875.8905026275728
 30
0.0
  0
VERTEX
  5
952
  8
1
  6
CONTINUOUS
 62
     3
 10
-1983.583867161425
 20
876.6098477747614
 30
0.0
  0
VERTEX
  5
953
  8
1
  6
CONTINUOUS
 62
     3
 10
-1980.922754991139
 20
877.0745876297948
 30
0.0
  0
VERTEX
  5
954
  8
1
  6
CONTINUOUS
 62
     3
 10
-1978.25450989906
 20
877.2422879773137
 30
0.0
  0
VERTEX
  5
955
  8
1
  6
CONTINUOUS
 62
     3
 10
-1975.563349113936
 20
877.0828394496427
 30
0.0
  0
VERTEX
  5
956
  8
1
  6
CONTINUOUS
 62
     3
 10
-1972.868793055518
 20
876.6232533661922
 30
0.0
  0
VERTEX
  5
957
  8
1
  6
CONTINUOUS
 62
     3
 10
-1970.175694399743
 20
875.9068652736586
 30
0.0
  0
VERTEX
  5
958
  8
1
  6
CONTINUOUS
 62
     3
 10
-1967.488905822548
 20
874.9770107187383
 30
0.0
  0
VERTEX
  5
959
  8
1
  6
CONTINUOUS
 62
     3
 10
-1962.153669607647
 20
872.6502444085221
 30
0.0
  0
VERTEX
  5
95A
  8
1
  6
CONTINUOUS
 62
     3
 10
-1956.901905818311
 20
869.9896388091145
 30
0.0
  0
VERTEX
  5
95B
  8
1
  6
CONTINUOUS
 62
     3
 10
-1941.367871819311
 20
861.5130612046503
 30
0.0
  0
VERTEX
  5
95C
  8
1
  6
CONTINUOUS
 62
     3
 10
-1933.98002537969
 20
857.0525910458509
 30
0.0
  0
VERTEX
  5
95D
  8
1
  6
CONTINUOUS
 62
     3
 10
-1926.812809900909
 20
852.3008859091472
 30
0.0
  0
VERTEX
  5
95E
  8
1
  6
CONTINUOUS
 62
     3
 10
-1919.838960240822
 20
847.1858889067908
 30
0.0
  0
VERTEX
  5
95F
  8
1
  6
CONTINUOUS
 62
     3
 10
-1913.012456236662
 20
841.7720522703438
 30
0.0
  0
VERTEX
  5
960
  8
1
  6
CONTINUOUS
 62
     3
 10
-1899.605024321556
 20
830.4463129406308
 30
0.0
  0
SEQEND
  5
961
  8
1
  6
CONTINUOUS
 62
     3
  0
POLYLINE
  5
3DF
  8
1
  6
CONTINUOUS
 62
     3
 66
     1
 10
0.0
 20
0.0
 30
0.0
  0
VERTEX
  5
962
  8
1
  6
CONTINUOUS
 62
     3
 10
-1999.45781219985
 20
869.959895046874
 30
0.0
  0
VERTEX
  5
963
  8
1
  6
CONTINUOUS
 62
     3
 10
-1994.177366401201
 20
872.6291775866678
 30
0.0
  0
VERTEX
  5
964
  8
1
  6
CONTINUOUS
 62
     3
 10
-1988.888768691933
 20
874.9589864035881
 30
0.0
  0
VERTEX
  5
965
  8
1
  6
CONTINUOUS
 62
     3
 10
-1986.238865398748
 20
875.8905026275728
 30
0.0
  0
VERTEX
  5
966
  8
1
  6
CONTINUOUS
 62
     3
 10
-1983.583867161425
 20
876.6098477747614
 30
0.0
  0
VERTEX
  5
967
  8
1
  6
CONTINUOUS
 62
     3
 10
-1980.922754991139
 20
877.0745876297948
 30
0.0
  0
VERTEX
  5
968
  8
1
  6
CONTINUOUS
 62
     3
 10
-1978.25450989906
 20
877.2422879773137
 30
0.0
  0
VERTEX
  5
969
  8
1
  6
CONTINUOUS
 62
     3
 10
-1975.563349113936
 20
877.0828394496427
 30
0.0
  0
VERTEX
  5
96A
  8
1
  6
CONTINUOUS
 62
     3
 10
-1972.868793055518
 20
876.6232533661922
 30
0.0
  0
VERTEX
  5
96B
  8
1
  6
CONTINUOUS
 62
     3
 10
-1970.175694399743
 20
875.9068652736586
 30
0.0
  0
VERTEX
  5
96C
  8
1
  6
CONTINUOUS
 62
     3
 10
-1967.488905822548
 20
874.9770107187383
 30
0.0
  0
VERTEX
  5
96D
  8
1
  6
CONTINUOUS
 62
     3
 10
-1962.153669607647
 20
872.6502444085221
 30
0.0
  0
VERTEX
  5
96E
  8
1
  6
CONTINUOUS
 62
     3
 10
-1956.901905818311
 20
869.9896388091145
 30
0.0
  0
VERTEX
  5
96F
  8
1
  6
CONTINUOUS
 62
     3
 10
-1941.367871819311
 20
861.5130612046503
 30
0.0
  0
VERTEX
  5
970
  8
1
  6
CONTINUOUS
 62
     3
 10
-1933.98002537969
 20
857.0525910458509
 30
0.0
  0
VERTEX
  5
971
  8
1
  6
CONTINUOUS
 62
     3
 10
-1926.812809900909
 20
852.3008859091472
 30
0.0
  0
VERTEX
  5
972
  8
1
  6
CONTINUOUS
 62
     3
 10
-1919.838960240822
 20
847.1858889067908
 30
0.0
  0
VERTEX
  5
973
  8
1
  6
CONTINUOUS
 62
     3
 10
-1913.012456236662
 20
841.7720522703438
 30
0.0
  0
VERTEX
  5
974
  8
1
  6
CONTINUOUS
 62
     3
 10
-1899.605024321556
 20
830.4463129406308
 30
0.0
  0
SEQEND
  5
975
  8
1
  6
CONTINUOUS
 62
     3
  0
POLYLINE
  5
3E0
  8
1
  6
CONTINUOUS
 62
     3
 66
     1
 10
0.0
 20
0.0
 30
0.0
  0
VERTEX
  5
976
  8
1
  6
CONTINUOUS
 62
     3
 10
-1899.60502432148
 20
830.446312940565
 30
0.0
  0
VERTEX
  5
977
  8
1
  6
CONTINUOUS
 62
     3
 10
-1893.908267529801
 20
823.1926336078262
 30
0.0
  0
VERTEX
  5
978
  8
1
  6
CONTINUOUS
 62
     3
 10
-1891.020238408372
 20
819.5991029699767
 30
0.0
  0
VERTEX
  5
979
  8
1
  6
CONTINUOUS
 62
     3
 10
-1888.084628416234
 20
816.0455431663506
 30
0.0
  0
VERTEX
  5
97A
  8
1
  6
CONTINUOUS
 62
     3
 10
-1885.090864486656
 20
812.5408371342708
 30
0.0
  0
VERTEX
  5
97B
  8
1
  6
CONTINUOUS
 62
     3
 10
-1882.049519700853
 20
809.076101924247
 30
0.0
  0
VERTEX
  5
97C
  8
1
  6
CONTINUOUS
 62
     3
 10
-1875.887528702207
 20
802.2132495409603
 30
0.0
  0
SEQEND
  5
97D
  8
1
  6
CONTINUOUS
 62
     3
  0
POLYLINE
  5
3E1
  8
1
  6
CONTINUOUS
 62
     3
 66
     1
 10
0.0
 20
0.0
 30
0.0
  0
VERTEX
  5
97E
  8
1
  6
CONTINUOUS
 62
     3
 10
-1999.45781219985
 20
869.959895046874
 30
0.0
  0
VERTEX
  5
97F
  8
1
  6
CONTINUOUS
 62
     3
 10
-1994.177366401201
 20
872.6291775866678
 30
0.0
  0
VERTEX
  5
980
  8
1
  6
CONTINUOUS
 62
     3
 10
-1988.888768691933
 20
874.9589864035881
 30
0.0
  0
VERTEX
  5
981
  8
1
  6
CONTINUOUS
 62
     3
 10
-1986.238865398748
 20
875.8905026275728
 30
0.0
  0
VERTEX
  5
982
  8
1
  6
CONTINUOUS
 62
     3
 10
-1983.583867161425
 20
876.6098477747614
 30
0.0
  0
VERTEX
  5
983
  8
1
  6
CONTINUOUS
 62
     3
 10
-1980.922754991139
 20
877.0745876297948
 30
0.0
  0
VERTEX
  5
984
  8
1
  6
CONTINUOUS
 62
     3
 10
-1978.25450989906
 20
877.2422879773137
 30
0.0
  0
VERTEX
  5
985
  8
1
  6
CONTINUOUS
 62
     3
 10
-1975.563349113936
 20
877.0828394496427
 30
0.0
  0
VERTEX
  5
986
  8
1
  6
CONTINUOUS
 62
     3
 10
-1972.868793055518
 20
876.6232533661922
 30
0.0
  0
VERTEX
  5
987
  8
1
  6
CONTINUOUS
 62
     3
 10
-1970.175694399743
 20
875.9068652736586
 30
0.0
  0
VERTEX
  5
988
  8
1
  6
CONTINUOUS
 62
     3
 10
-1967.488905822548
 20
874.9770107187383
 30
0.0
  0
VERTEX
  5
989
  8
1
  6
CONTINUOUS
 62
     3
 10
-1962.153669607647
 20
872.6502444085221
 30
0.0
  0
VERTEX
  5
98A
  8
1
  6
CONTINUOUS
 62
     3
 10
-1956.901905818311
 20
869.9896388091145
 30
0.0
  0
VERTEX
  5
98B
  8
1
  6
CONTINUOUS
 62
     3
 10
-1941.367871819311
 20
861.5130612046503
 30
0.0
  0
VERTEX
  5
98C
  8
1
  6
CONTINUOUS
 62
     3
 10
-1933.98002537969
 20
857.0525910458509
 30
0.0
  0
VERTEX
  5
98D
  8
1
  6
CONTINUOUS
 62
     3
 10
-1926.812809900909
 20
852.3008859091472
 30
0.0
  0
VERTEX
  5
98E
  8
1
  6
CONTINUOUS
 62
     3
 10
-1919.838960240822
 20
847.1858889067908
 30
0.0
  0
VERTEX
  5
98F
  8
1
  6
CONTINUOUS
 62
     3
 10
-1913.012456236662
 20
841.7720522703438
 30
0.0
  0
VERTEX
  5
990
  8
1
  6
CONTINUOUS
 62
     3
 10
-1899.605024321556
 20
830.4463129406308
 30
0.0
  0
SEQEND
  5
991
  8
1
  6
CONTINUOUS
 62
     3
  0
POLYLINE
  5
3E2
  8
1
  6
CONTINUOUS
 62
     3
 66
     1
 10
0.0
 20
0.0
 30
0.0
  0
VERTEX
  5
992
  8
1
  6
CONTINUOUS
 62
     3
 10
-1968.15786560159
 20
874.771934735687
 30
0.0
  0
VERTEX
  5
993
  8
1
  6
CONTINUOUS
 62
     3
 10
-1964.913901224691
 20
873.2573802460763
 30
0.0
  0
VERTEX
  5
994
  8
1
  6
CONTINUOUS
 62
     3
 10
-1963.253767715532
 20
872.5843540250522
 30
0.0
  0
VERTEX
  5
995
  8
1
  6
CONTINUOUS
 62
     3
 10
-1961.547852621524
 20
872.0124290325654
 30
0.0
  0
VERTEX
  5
996
  8
1
  6
CONTINUOUS
 62
     3
 10
-1959.787785418706
 20
871.5755895963409
 30
0.0
  0
VERTEX
  5
997
  8
1
  6
CONTINUOUS
 62
     3
 10
-1957.993371256031
 20
871.3091015208422
 30
0.0
  0
VERTEX
  5
998
  8
1
  6
CONTINUOUS
 62
     3
 10
-1956.191312346063
 20
871.248498939445
 30
0.0
  0
VERTEX
  5
999
  8
1
  6
CONTINUOUS
 62
     3
 10
-1954.40831090137
 20
871.4293159855253
 30
0.0
  0
VERTEX
  5
99A
  8
1
  6
CONTINUOUS
 62
     3
 10
-1953.002364300356
 20
871.7812423561823
 30
0.0
  0
VERTEX
  5
99B
  8
1
  6
CONTINUOUS
 62
     3
 10
-1951.658482905808
 20
872.3621290303793
 30
0.0
  0
VERTEX
  5
99C
  8
1
  6
CONTINUOUS
 62
     3
 10
-1950.539427722566
 20
873.1331069248065
 30
0.0
  0
VERTEX
  5
99D
  8
1
  6
CONTINUOUS
 62
     3
 10
-1950.071710571393
 20
873.6091936744253
 30
0.0
  0
VERTEX
  5
99E
  8
1
  6
CONTINUOUS
 62
     3
 10
-1949.690042100236
 20
874.1534087638011
 30
0.0
  0
VERTEX
  5
99F
  8
1
  6
CONTINUOUS
 62
     3
 10
-1949.3249871788
 20
875.0540220243136
 30
0.0
  0
VERTEX
  5
9A0
  8
1
  6
CONTINUOUS
 62
     3
 10
-1949.146045052077
 20
876.0229400664462
 30
0.0
  0
VERTEX
  5
9A1
  8
1
  6
CONTINUOUS
 62
     3
 10
-1949.09870072634
 20
877.0634446351241
 30
0.0
  0
VERTEX
  5
9A2
  8
1
  6
CONTINUOUS
 62
     3
 10
-1949.148247571687
 20
878.0995752570564
 30
0.0
  0
VERTEX
  5
9A3
  8
1
  6
CONTINUOUS
 62
     3
 10
-1949.29623036494
 20
879.4485585492479
 30
0.0
  0
VERTEX
  5
9A4
  8
1
  6
CONTINUOUS
 62
     3
 10
-1949.528786456826
 20
880.7862915286135
 30
0.0
  0
VERTEX
  5
9A5
  8
1
  6
CONTINUOUS
 62
     3
 10
-1949.837503368824
 20
882.0721958144364
 30
0.0
  0
VERTEX
  5
9A6
  8
1
  6
CONTINUOUS
 62
     3
 10
-1950.220182430638
 20
883.3378543718123
 30
0.0
  0
VERTEX
  5
9A7
  8
1
  6
CONTINUOUS
 62
     3
 10
-1950.682970967263
 20
884.6262628243475
 30
0.0
  0
VERTEX
  5
9A8
  8
1
  6
CONTINUOUS
 62
     3
 10
-1951.194438116667
 20
885.8964354518284
 30
0.0
  0
VERTEX
  5
9A9
  8
1
  6
CONTINUOUS
 62
     3
 10
-1951.739227164564
 20
887.1663485423015
 30
0.0
  0
VERTEX
  5
9AA
  8
1
  6
CONTINUOUS
 62
     3
 10
-1952.29348039859
 20
888.4318600033662
 30
0.0
  0
VERTEX
  5
9AB
  8
1
  6
CONTINUOUS
 62
     3
 10
-1953.49268785867
 20
891.212931508256
 30
0.0
  0
VERTEX
  5
9AC
  8
1
  6
CONTINUOUS
 62
     3
 10
-1954.706194464217
 20
893.9895488756434
 30
0.0
  0
VERTEX
  5
9AD
  8
1
  6
CONTINUOUS
 62
     3
 10
-1955.982306104401
 20
896.7165820159926
 30
0.0
  0
VERTEX
  5
9AE
  8
1
  6
CONTINUOUS
 62
     3
 10
-1957.381040707556
 20
899.3772051735639
 30
0.0
  0
VERTEX
  5
9AF
  8
1
  6
CONTINUOUS
 62
     3
 10
-1959.301480068851
 20
902.4524685091075
 30
0.0
  0
VERTEX
  5
9B0
  8
1
  6
CONTINUOUS
 62
     3
 10
-1961.409299830325
 20
905.4106174779886
 30
0.0
  0
VERTEX
  5
9B1
  8
1
  6
CONTINUOUS
 62
     3
 10
-1965.789442087798
 20
911.2274420020603
 30
0.0
  0
VERTEX
  5
9B2
  8
1
  6
CONTINUOUS
 62
     3
 10
-1969.8956869183
 20
917.2235333983471
 30
0.0
  0
VERTEX
  5
9B3
  8
1
  6
CONTINUOUS
 62
     3
 10
-1973.780234767387
 20
923.3632006443481
 30
0.0
  0
SEQEND
  5
9B4
  8
1
  6
CONTINUOUS
 62
     3
  0
POLYLINE
  5
3E3
  8
1
  6
CONTINUOUS
 62
     3
 66
     1
 10
0.0
 20
0.0
 30
0.0
  0
VERTEX
  5
9B5
  8
1
  6
CONTINUOUS
 62
     3
 10
-2138.20784244861
 20
1068.62605706959
 30
0.0
  0
VERTEX
  5
9B6
  8
1
  6
CONTINUOUS
 62
     3
 10
-2124.509279400703
 20
1040.319382487406
 30
0.0
  0
VERTEX
  5
9B7
  8
1
  6
CONTINUOUS
 62
     3
 10
-2110.518969545754
 20
1012.16082776792
 30
0.0
  0
VERTEX
  5
9B8
  8
1
  6
CONTINUOUS
 62
     3
 10
-2096.042425014817
 20
984.249158369124
 30
0.0
  0
VERTEX
  5
9B9
  8
1
  6
CONTINUOUS
 62
     3
 10
-2081.274134073338
 20
956.4856086317234
 30
0.0
  0
SEQEND
  5
9BA
  8
1
  6
CONTINUOUS
 62
     3
  0
POLYLINE
  5
3E4
  8
1
  6
CONTINUOUS
 62
     3
 66
     1
 10
0.0
 20
0.0
 30
0.0
  0
VERTEX
  5
9BB
  8
1
  6
CONTINUOUS
 62
     3
 10
-1973.78023476744
 20
923.3632006444331
 30
0.0
  0
VERTEX
  5
9BC
  8
1
  6
CONTINUOUS
 62
     3
 10
-1975.152156867743
 20
925.3992736410828
 30
0.0
  0
VERTEX
  5
9BD
  8
1
  6
CONTINUOUS
 62
     3
 10
-1976.515639198697
 20
927.4410080580979
 30
0.0
  0
VERTEX
  5
9BE
  8
1
  6
CONTINUOUS
 62
     3
 10
-1982.561586371715
 20
936.7126000012012
 30
0.0
  0
VERTEX
  5
9BF
  8
1
  6
CONTINUOUS
 62
     3
 10
-1988.466540042881
 20
946.0751371207159
 30
0.0
  0
VERTEX
  5
9C0
  8
1
  6
CONTINUOUS
 62
     3
 10
-1994.266188030147
 20
955.5061610323425
 30
0.0
  0
VERTEX
  5
9C1
  8
1
  6
CONTINUOUS
 62
     3
 10
-1999.994522613876
 20
964.980513845122
 30
0.0
  0
VERTEX
  5
9C2
  8
1
  6
CONTINUOUS
 62
     3
 10
-2005.676371186721
 20
974.4575544497668
 30
0.0
  0
VERTEX
  5
9C3
  8
1
  6
CONTINUOUS
 62
     3
 10
-2011.358987879042
 20
983.9342448969958
 30
0.0
  0
VERTEX
  5
9C4
  8
1
  6
CONTINUOUS
 62
     3
 10
-2017.077306973592
 20
993.387302238131
 30
0.0
  0
VERTEX
  5
9C5
  8
1
  6
CONTINUOUS
 62
     3
 10
-2022.86781457696
 20
1002.796023688559
 30
0.0
  0
VERTEX
  5
9C6
  8
1
  6
CONTINUOUS
 62
     3
 10
-2029.170216740416
 20
1012.797689545812
 30
0.0
  0
VERTEX
  5
9C7
  8
1
  6
CONTINUOUS
 62
     3
 10
-2035.556474723038
 20
1022.746371639774
 30
0.0
  0
VERTEX
  5
9C8
  8
1
  6
CONTINUOUS
 62
     3
 10
-2041.987398987646
 20
1032.665868107686
 30
0.0
  0
VERTEX
  5
9C9
  8
1
  6
CONTINUOUS
 62
     3
 10
-2048.424569565243
 20
1042.5811463629
 30
0.0
  0
VERTEX
  5
9CA
  8
1
  6
CONTINUOUS
 62
     3
 10
-2054.899075478855
 20
1052.626377527774
 30
0.0
  0
VERTEX
  5
9CB
  8
1
  6
CONTINUOUS
 62
     3
 10
-2061.299032216027
 20
1062.719601631943
 30
0.0
  0
VERTEX
  5
9CC
  8
1
  6
CONTINUOUS
 62
     3
 10
-2067.586955503326
 20
1072.894408534973
 30
0.0
  0
VERTEX
  5
9CD
  8
1
  6
CONTINUOUS
 62
     3
 10
-2073.713904503018
 20
1083.165805034176
 30
0.0
  0
VERTEX
  5
9CE
  8
1
  6
CONTINUOUS
 62
     3
 10
-2077.803902947328
 20
1090.223605030319
 30
0.0
  0
VERTEX
  5
9CF
  8
1
  6
CONTINUOUS
 62
     3
 10
-2081.940808638023
 20
1097.255232412615
 30
0.0
  0
VERTEX
  5
9D0
  8
1
  6
CONTINUOUS
 62
     3
 10
-2086.253386359923
 20
1104.158379460642
 30
0.0
  0
VERTEX
  5
9D1
  8
1
  6
CONTINUOUS
 62
     3
 10
-2090.8819429892
 20
1110.852692024897
 30
0.0
  0
VERTEX
  5
9D2
  8
1
  6
CONTINUOUS
 62
     3
 10
-2095.858472086125
 20
1117.126143404612
 30
0.0
  0
VERTEX
  5
9D3
  8
1
  6
CONTINUOUS
 62
     3
 10
-2101.344755806779
 20
1122.961128521373
 30
0.0
  0
VERTEX
  5
9D4
  8
1
  6
CONTINUOUS
 62
     3
 10
-2107.474169611033
 20
1128.27176739616
 30
0.0
  0
VERTEX
  5
9D5
  8
1
  6
CONTINUOUS
 62
     3
 10
-2114.171901175412
 20
1132.828864884056
 30
0.0
  0
VERTEX
  5
9D6
  8
1
  6
CONTINUOUS
 62
     3
 10
-2118.016869240572
 20
1134.907437923098
 30
0.0
  0
VERTEX
  5
9D7
  8
1
  6
CONTINUOUS
 62
     3
 10
-2122.041282718143
 20
1136.627001270169
 30
0.0
  0
VERTEX
  5
9D8
  8
1
  6
CONTINUOUS
 62
     3
 10
-2126.074659923332
 20
1137.825127192493
 30
0.0
  0
VERTEX
  5
9D9
  8
1
  6
CONTINUOUS
 62
     3
 10
-2130.233316715605
 20
1138.360102363771
 30
0.0
  0
VERTEX
  5
9DA
  8
1
  6
CONTINUOUS
 62
     3
 10
-2134.644996298508
 20
1138.032099692189
 30
0.0
  0
VERTEX
  5
9DB
  8
1
  6
CONTINUOUS
 62
     3
 10
-2138.778302657552
 20
1136.64482026842
 30
0.0
  0
VERTEX
  5
9DC
  8
1
  6
CONTINUOUS
 62
     3
 10
-2142.327302103203
 20
1134.159717208774
 30
0.0
  0
VERTEX
  5
9DD
  8
1
  6
CONTINUOUS
 62
     3
 10
-2145.508354019339
 20
1131.062924759143
 30
0.0
  0
SEQEND
  5
9DE
  8
1
  6
CONTINUOUS
 62
     3
  0
POLYLINE
  5
3E5
  8
1
  6
CONTINUOUS
 62
     3
 66
     1
 10
0.0
 20
0.0
 30
0.0
  0
VERTEX
  5
9DF
  8
1
  6
CONTINUOUS
 62
     3
 10
-1803.35617793775
 20
654.128424706895
 30
0.0
  0
VERTEX
  5
9E0
  8
1
  6
CONTINUOUS
 62
     3
 10
-1810.476104874863
 20
661.5983623655188
 30
0.0
  0
VERTEX
  5
9E1
  8
1
  6
CONTINUOUS
 62
     3
 10
-1817.632769237693
 20
669.0331107412609
 30
0.0
  0
VERTEX
  5
9E2
  8
1
  6
CONTINUOUS
 62
     3
 10
-1831.930341207607
 20
683.6943581515171
 30
0.0
  0
VERTEX
  5
9E3
  8
1
  6
CONTINUOUS
 62
     3
 10
-1846.31735656165
 20
698.2681645549344
 30
0.0
  0
VERTEX
  5
9E4
  8
1
  6
CONTINUOUS
 62
     3
 10
-1860.748066349321
 20
712.8009918793662
 30
0.0
  0
VERTEX
  5
9E5
  8
1
  6
CONTINUOUS
 62
     3
 10
-1875.174949514421
 20
727.3375057475359
 30
0.0
  0
VERTEX
  5
9E6
  8
1
  6
CONTINUOUS
 62
     3
 10
-1889.560560252399
 20
741.9324564295954
 30
0.0
  0
VERTEX
  5
9E7
  8
1
  6
CONTINUOUS
 62
     3
 10
-1903.849676404404
 20
756.6220160429466
 30
0.0
  0
VERTEX
  5
9E8
  8
1
  6
CONTINUOUS
 62
     3
 10
-1917.993620405923
 20
771.4486462698069
 30
0.0
  0
VERTEX
  5
9E9
  8
1
  6
CONTINUOUS
 62
     3
 10
-1931.945074973651
 20
786.4561715652765
 30
0.0
  0
VERTEX
  5
9EA
  8
1
  6
CONTINUOUS
 62
     3
 10
-1941.305523831577
 20
796.7972662645009
 30
0.0
  0
VERTEX
  5
9EB
  8
1
  6
CONTINUOUS
 62
     3
 10
-1950.531990280289
 20
807.2580431604002
 30
0.0
  0
VERTEX
  5
9EC
  8
1
  6
CONTINUOUS
 62
     3
 10
-1959.603254301334
 20
817.8558152530508
 30
0.0
  0
VERTEX
  5
9ED
  8
1
  6
CONTINUOUS
 62
     3
 10
-1968.495224332684
 20
828.6044355133514
 30
0.0
  0
VERTEX
  5
9EE
  8
1
  6
CONTINUOUS
 62
     3
 10
-1977.165747292734
 20
839.4947618143564
 30
0.0
  0
VERTEX
  5
9EF
  8
1
  6
CONTINUOUS
 62
     3
 10
-1985.608491003885
 20
850.5627698355759
 30
0.0
  0
VERTEX
  5
9F0
  8
1
  6
CONTINUOUS
 62
     3
 10
-1993.794305285489
 20
861.817056868455
 30
0.0
  0
VERTEX
  5
9F1
  8
1
  6
CONTINUOUS
 62
     3
 10
-2001.69733303346
 20
873.2710912071228
 30
0.0
  0
VERTEX
  5
9F2
  8
1
  6
CONTINUOUS
 62
     3
 10
-2010.467144422422
 20
886.7738098709256
 30
0.0
  0
VERTEX
  5
9F3
  8
1
  6
CONTINUOUS
 62
     3
 10
-2018.877450290667
 20
900.5045503738338
 30
0.0
  0
VERTEX
  5
9F4
  8
1
  6
CONTINUOUS
 62
     3
 10
-2026.991415957069
 20
914.4203380714682
 30
0.0
  0
VERTEX
  5
9F5
  8
1
  6
CONTINUOUS
 62
     3
 10
-2034.868030906801
 20
928.4714861440759
 30
0.0
  0
VERTEX
  5
9F6
  8
1
  6
CONTINUOUS
 62
     3
 10
-2042.589170003632
 20
942.6499476244599
 30
0.0
  0
VERTEX
  5
9F7
  8
1
  6
CONTINUOUS
 62
     3
 10
-2050.202636897265
 20
956.886711311011
 30
0.0
  0
VERTEX
  5
9F8
  8
1
  6
CONTINUOUS
 62
     3
 10
-2057.772883596598
 20
971.1420114933206
 30
0.0
  0
VERTEX
  5
9F9
  8
1
  6
CONTINUOUS
 62
     3
 10
-2065.36841287662
 20
985.3834138705756
 30
0.0
  0
VERTEX
  5
9FA
  8
1
  6
CONTINUOUS
 62
     3
 10
-2105.472115676912
 20
1058.204612835493
 30
0.0
  0
VERTEX
  5
9FB
  8
1
  6
CONTINUOUS
 62
     3
 10
-2145.508354019362
 20
1131.062924758982
 30
0.0
  0
SEQEND
  5
9FC
  8
1
  6
CONTINUOUS
 62
     3
  0
POLYLINE
  5
3E6
  8
1
  6
CONTINUOUS
 62
     3
 66
     1
 10
0.0
 20
0.0
 30
0.0
  0
VERTEX
  5
9FD
  8
1
  6
CONTINUOUS
 62
     3
 10
-1986.62542704077
 20
798.223425692358
 30
0.0
  0
VERTEX
  5
9FE
  8
1
  6
CONTINUOUS
 62
     3
 10
-1924.797280320405
 20
709.980075828697
 30
0.0
  0
VERTEX
  5
9FF
  8
1
  6
CONTINUOUS
 62
     3
 10
-1892.938108725214
 20
666.6183698712285
 30
0.0
  0
VERTEX
  5
A00
  8
1
  6
CONTINUOUS
 62
     3
 10
-1859.944819248013
 20
624.1686266829945
 30
0.0
  0
VERTEX
  5
A01
  8
1
  6
CONTINUOUS
 62
     3
 10
-1825.564754601958
 20
582.8327709061074
 30
0.0
  0
VERTEX
  5
A02
  8
1
  6
CONTINUOUS
 62
     3
 10
-1790.050531259153
 20
542.4089107182557
 30
0.0
  0
VERTEX
  5
A03
  8
1
  6
CONTINUOUS
 62
     3
 10
-1717.131820078958
 20
463.0811829909453
 30
0.0
  0
SEQEND
  5
A04
  8
1
  6
CONTINUOUS
 62
     3
  0
POLYLINE
  5
3E7
  8
1
  6
CONTINUOUS
 62
     7
 66
     1
 10
0.0
 20
0.0
 30
0.0
  0
VERTEX
  5
A05
  8
1
  6
CONTINUOUS
 62
     7
 10
-1986.62542704077
 20
798.223425692358
 30
0.0
  0
VERTEX
  5
A06
  8
1
  6
CONTINUOUS
 62
     7
 10
-1924.797280320405
 20
709.980075828697
 30
0.0
  0
VERTEX
  5
A07
  8
1
  6
CONTINUOUS
 62
     7
 10
-1892.938108725214
 20
666.6183698712285
 30
0.0
  0
VERTEX
  5
A08
  8
1
  6
CONTINUOUS
 62
     7
 10
-1859.944819248013
 20
624.1686266829945
 30
0.0
  0
VERTEX
  5
A09
  8
1
  6
CONTINUOUS
 62
     7
 10
-1825.564754601958
 20
582.8327709061074
 30
0.0
  0
VERTEX
  5
A0A
  8
1
  6
CONTINUOUS
 62
     7
 10
-1790.050531259153
 20
542.4089107182557
 30
0.0
  0
VERTEX
  5
A0B
  8
1
  6
CONTINUOUS
 62
     7
 10
-1717.131820078958
 20
463.0811829909453
 30
0.0
  0
SEQEND
  5
A0C
  8
1
  6
CONTINUOUS
 62
     7
  0
POLYLINE
  5
3E8
  8
1
  6
CONTINUOUS
 62
     3
 66
     1
 10
0.0
 20
0.0
 30
0.0
  0
VERTEX
  5
A0D
  8
1
  6
CONTINUOUS
 62
     3
 10
-1986.62542704077
 20
798.223425692358
 30
0.0
  0
VERTEX
  5
A0E
  8
1
  6
CONTINUOUS
 62
     3
 10
-1924.797280320405
 20
709.980075828697
 30
0.0
  0
VERTEX
  5
A0F
  8
1
  6
CONTINUOUS
 62
     3
 10
-1892.938108725214
 20
666.6183698712285
 30
0.0
  0
VERTEX
  5
A10
  8
1
  6
CONTINUOUS
 62
     3
 10
-1859.944819248013
 20
624.1686266829945
 30
0.0
  0
VERTEX
  5
A11
  8
1
  6
CONTINUOUS
 62
     3
 10
-1825.564754601958
 20
582.8327709061074
 30
0.0
  0
VERTEX
  5
A12
  8
1
  6
CONTINUOUS
 62
     3
 10
-1790.050531259153
 20
542.4089107182557
 30
0.0
  0
VERTEX
  5
A13
  8
1
  6
CONTINUOUS
 62
     3
 10
-1717.131820078958
 20
463.0811829909453
 30
0.0
  0
SEQEND
  5
A14
  8
1
  6
CONTINUOUS
 62
     3
  0
POLYLINE
  5
3E9
  8
1
  6
CONTINUOUS
 62
     1
 66
     1
 10
0.0
 20
0.0
 30
0.0
  0
VERTEX
  5
A15
  8
1
  6
CONTINUOUS
 62
     1
 10
-2438.32604870072
 20
1023.91202109828
 30
0.0
  0
VERTEX
  5
A16
  8
1
  6
CONTINUOUS
 62
     1
 10
-2440.367405466269
 20
1025.396055830129
 30
0.0
  0
VERTEX
  5
A17
  8
1
  6
CONTINUOUS
 62
     1
 10
-2442.497532766189
 20
1026.749586888648
 30
0.0
  0
VERTEX
  5
A18
  8
1
  6
CONTINUOUS
 62
     1
 10
-2443.643922185053
 20
1027.407385640724
 30
0.0
  0
VERTEX
  5
A19
  8
1
  6
CONTINUOUS
 62
     1
 10
-2444.809180661078
 20
1028.031151222391
 30
0.0
  0
VERTEX
  5
A1A
  8
1
  6
CONTINUOUS
 62
     1
 10
-2445.999926511471
 20
1028.62591219067
 30
0.0
  0
VERTEX
  5
A1B
  8
1
  6
CONTINUOUS
 62
     1
 10
-2447.206295464227
 20
1029.188312558013
 30
0.0
  0
VERTEX
  5
A1C
  8
1
  6
CONTINUOUS
 62
     1
 10
-2448.43855365431
 20
1029.72460307816
 30
0.0
  0
VERTEX
  5
A1D
  8
1
  6
CONTINUOUS
 62
     1
 10
-2449.683560876425
 20
1030.23059753268
 30
0.0
  0
VERTEX
  5
A1E
  8
1
  6
CONTINUOUS
 62
     1
 10
-2450.953790898768
 20
1030.712866061194
 30
0.0
  0
VERTEX
  5
A1F
  8
1
  6
CONTINUOUS
 62
     1
 10
-2452.234276448687
 20
1031.167207188275
 30
0.0
  0
VERTEX
  5
A20
  8
1
  6
CONTINUOUS
 62
     1
 10
-2453.538651775421
 20
1031.599951720274
 30
0.0
  0
VERTEX
  5
A21
  8
1
  6
CONTINUOUS
 62
     1
 10
-2454.851156901999
 20
1032.007380335738
 30
0.0
  0
VERTEX
  5
A22
  8
1
  6
CONTINUOUS
 62
     1
 10
-2456.18542494195
 20
1032.395276405482
 30
0.0
  0
VERTEX
  5
A23
  8
1
  6
CONTINUOUS
 62
     1
 10
-2457.526037392748
 20
1032.760640463878
 30
0.0
  0
VERTEX
  5
A24
  8
1
  6
CONTINUOUS
 62
     1
 10
-2458.885808752983
 20
1033.108501202088
 30
0.0
  0
VERTEX
  5
A25
  8
1
  6
CONTINUOUS
 62
     1
 10
-2460.250454637425
 20
1033.436735785717
 30
0.0
  0
VERTEX
  5
A26
  8
1
  6
CONTINUOUS
 62
     1
 10
-2461.631193825861
 20
1033.749635452663
 30
0.0
  0
VERTEX
  5
A27
  8
1
  6
CONTINUOUS
 62
     1
 10
-2463.015584258123
 20
1034.045906508311
 30
0.0
  0
VERTEX
  5
A28
  8
1
  6
CONTINUOUS
 62
     1
 10
-2463.363821349764
 20
1034.117902412415
 30
0.0
  0
VERTEX
  5
A29
  8
1
  6
CONTINUOUS
 62
     1
 10
-2463.712246236871
 20
1034.188977593141
 30
0.0
  0
VERTEX
  5
A2A
  8
1
  6
CONTINUOUS
 62
     1
 10
-2464.061279212276
 20
1034.259241822704
 30
0.0
  0
VERTEX
  5
A2B
  8
1
  6
CONTINUOUS
 62
     1
 10
-2464.410488471494
 20
1034.328626467182
 30
0.0
  0
VERTEX
  5
A2C
  8
1
  6
CONTINUOUS
 62
     1
 10
-2464.75999630462
 20
1034.397171551119
 30
0.0
  0
VERTEX
  5
A2D
  8
1
  6
CONTINUOUS
 62
     1
 10
-2465.109671327278
 20
1034.464857720836
 30
0.0
  0
VERTEX
  5
A2E
  8
1
  6
CONTINUOUS
 62
     1
 10
-2465.45957154345
 20
1034.531701185758
 30
0.0
  0
VERTEX
  5
A2F
  8
1
  6
CONTINUOUS
 62
     1
 10
-2465.809632845213
 20
1034.597697235925
 30
0.0
  0
VERTEX
  5
A30
  8
1
  6
CONTINUOUS
 62
     1
 10
-2466.510456417489
 20
1034.7272194909
 30
0.0
  0
VERTEX
  5
A31
  8
1
  6
CONTINUOUS
 62
     1
 10
-2467.211883145574
 20
1034.853437951952
 30
0.0
  0
VERTEX
  5
A32
  8
1
  6
CONTINUOUS
 62
     1
 10
-2467.914274774346
 20
1034.97647690187
 30
0.0
  0
VERTEX
  5
A33
  8
1
  6
CONTINUOUS
 62
     1
 10
-2468.617219166766
 20
1035.096322857161
 30
0.0
  0
VERTEX
  5
A34
  8
1
  6
CONTINUOUS
 62
     1
 10
-2474.14957576002
 20
1035.93269910137
 30
0.0
  0
VERTEX
  5
A35
  8
1
  6
CONTINUOUS
 62
     1
 10
-2479.70420405192
 20
1036.605459704259
 30
0.0
  0
SEQEND
  5
A36
  8
1
  6
CONTINUOUS
 62
     1
  0
POLYLINE
  5
3EA
  8
1
  6
CONTINUOUS
 62
     1
 66
     1
 10
0.0
 20
0.0
 30
0.0
  0
VERTEX
  5
A37
  8
1
  6
CONTINUOUS
 62
     1
 10
-2414.23789538588
 20
900.746173864397
 30
0.0
  0
VERTEX
  5
A38
  8
1
  6
CONTINUOUS
 62
     1
 10
-2412.022468807255
 20
908.6853408505723
 30
0.0
  0
VERTEX
  5
A39
  8
1
  6
CONTINUOUS
 62
     1
 10
-2410.244174583056
 20
916.7337242334152
 30
0.0
  0
VERTEX
  5
A3A
  8
1
  6
CONTINUOUS
 62
     1
 10
-2409.512379664711
 20
920.8357370360428
 30
0.0
  0
VERTEX
  5
A3B
  8
1
  6
CONTINUOUS
 62
     1
 10
-2408.893730237613
 20
924.9563305381464
 30
0.0
  0
VERTEX
  5
A3C
  8
1
  6
CONTINUOUS
 62
     1
 10
-2408.387665319263
 20
929.1071421940408
 30
0.0
  0
VERTEX
  5
A3D
  8
1
  6
CONTINUOUS
 62
     1
 10
-2407.997983449779
 20
933.2704943641344
 30
0.0
  0
VERTEX
  5
A3E
  8
1
  6
CONTINUOUS
 62
     1
 10
-2407.726041733477
 20
937.4474792823332
 30
0.0
  0
VERTEX
  5
A3F
  8
1
  6
CONTINUOUS
 62
     1
 10
-2407.574171185847
 20
941.630551946266
 30
0.0
  0
VERTEX
  5
A40
  8
1
  6
CONTINUOUS
 62
     1
 10
-2407.544369331759
 20
945.8113023143371
 30
0.0
  0
VERTEX
  5
A41
  8
1
  6
CONTINUOUS
 62
     1
 10
-2407.638757778944
 20
949.9910905673855
 30
0.0
  0
VERTEX
  5
A42
  8
1
  6
CONTINUOUS
 62
     1
 10
-2407.858977763827
 20
954.1533909465298
 30
0.0
  0
VERTEX
  5
A43
  8
1
  6
CONTINUOUS
 62
     1
 10
-2408.207816620071
 20
958.3068890363276
 30
0.0
  0
VERTEX
  5
A44
  8
1
  6
CONTINUOUS
 62
     1
 10
-2408.685635544377
 20
962.4289260742028
 30
0.0
  0
VERTEX
  5
A45
  8
1
  6
CONTINUOUS
 62
     1
 10
-2409.296661535627
 20
966.5333247995919
 30
0.0
  0
VERTEX
  5
A46
  8
1
  6
CONTINUOUS
 62
     1
 10
-2410.039577837197
 20
970.5935764752268
 30
0.0
  0
VERTEX
  5
A47
  8
1
  6
CONTINUOUS
 62
     1
 10
-2410.920246033928
 20
974.6261959211084
 30
0.0
  0
VERTEX
  5
A48
  8
1
  6
CONTINUOUS
 62
     1
 10
-2411.935641799252
 20
978.6038289045594
 30
0.0
  0
VERTEX
  5
A49
  8
1
  6
CONTINUOUS
 62
     1
 10
-2413.092977985856
 20
982.5424701919535
 30
0.0
  0
VERTEX
  5
A4A
  8
1
  6
CONTINUOUS
 62
     1
 10
-2414.388264728517
 20
986.4169916336319
 30
0.0
  0
VERTEX
  5
A4B
  8
1
  6
CONTINUOUS
 62
     1
 10
-2415.829106122686
 20
990.239874861467
 30
0.0
  0
VERTEX
  5
A4C
  8
1
  6
CONTINUOUS
 62
     1
 10
-2417.412190074614
 20
993.9920480041305
 30
0.0
  0
VERTEX
  5
A4D
  8
1
  6
CONTINUOUS
 62
     1
 10
-2419.143050886443
 20
997.6779656096722
 30
0.0
  0
VERTEX
  5
A4E
  8
1
  6
CONTINUOUS
 62
     1
 10
-2420.063576880775
 20
999.492400303984
 30
0.0
  0
VERTEX
  5
A4F
  8
1
  6
CONTINUOUS
 62
     1
 10
-2421.021301726856
 20
1001.287388898821
 30
0.0
  0
VERTEX
  5
A50
  8
1
  6
CONTINUOUS
 62
     1
 10
-2422.016872963602
 20
1003.063082049836
 30
0.0
  0
VERTEX
  5
A51
  8
1
  6
CONTINUOUS
 62
     1
 10
-2423.04968105834
 20
1004.81740292053
 30
0.0
  0
VERTEX
  5
A52
  8
1
  6
CONTINUOUS
 62
     1
 10
-2424.121399893446
 20
1006.552115046364
 30
0.0
  0
VERTEX
  5
A53
  8
1
  6
CONTINUOUS
 62
     1
 10
-2425.230225542738
 20
1008.263340184178
 30
0.0
  0
VERTEX
  5
A54
  8
1
  6
CONTINUOUS
 62
     1
 10
-2426.379250545478
 20
1009.954801933469
 30
0.0
  0
VERTEX
  5
A55
  8
1
  6
CONTINUOUS
 62
     1
 10
-2427.565120241624
 20
1011.620641694455
 30
0.0
  0
VERTEX
  5
A56
  8
1
  6
CONTINUOUS
 62
     1
 10
-2428.79266485362
 20
1013.266619285838
 30
0.0
  0
VERTEX
  5
A57
  8
1
  6
CONTINUOUS
 62
     1
 10
-2430.056636853536
 20
1014.884793413314
 30
0.0
  0
VERTEX
  5
A58
  8
1
  6
CONTINUOUS
 62
     1
 10
-2431.364012348914
 20
1016.483073785155
 30
0.0
  0
VERTEX
  5
A59
  8
1
  6
CONTINUOUS
 62
     1
 10
-2432.707238869797
 20
1018.051342122463
 30
0.0
  0
VERTEX
  5
A5A
  8
1
  6
CONTINUOUS
 62
     1
 10
-2435.451063518304
 20
1021.044551315467
 30
0.0
  0
VERTEX
  5
A5B
  8
1
  6
CONTINUOUS
 62
     1
 10
-2438.326048700649
 20
1023.91202109821
 30
0.0
  0
SEQEND
  5
A5C
  8
1
  6
CONTINUOUS
 62
     1
  0
POLYLINE
  5
3EB
  8
0
  6
CONTINUOUS
 62
     1
 66
     1
 10
0.0
 20
0.0
 30
0.0
  0
VERTEX
  5
A5D
  8
0
  6
CONTINUOUS
 62
     1
 10
-2423.83967971464
 20
191.9330488293
 30
0.0
  0
VERTEX
  5
A5E
  8
0
  6
CONTINUOUS
 62
     1
 10
-2435.353601632164
 20
192.7307674660943
 30
0.0
  0
VERTEX
  5
A5F
  8
0
  6
CONTINUOUS
 62
     1
 10
-2446.868825558867
 20
193.5094656517856
 30
0.0
  0
VERTEX
  5
A60
  8
0
  6
CONTINUOUS
 62
     1
 10
-2452.626949971491
 20
193.8912881864728
 30
0.0
  0
VERTEX
  5
A61
  8
0
  6
CONTINUOUS
 62
     1
 10
-2458.385418730788
 20
194.2678822435663
 30
0.0
  0
VERTEX
  5
A62
  8
0
  6
CONTINUOUS
 62
     1
 10
-2464.14423550226
 20
194.6390898591606
 30
0.0
  0
VERTEX
  5
A63
  8
0
  6
CONTINUOUS
 62
     1
 10
-2469.903406948483
 20
195.0047532614824
 30
0.0
  0
VERTEX
  5
A64
  8
0
  6
CONTINUOUS
 62
     1
 10
-2475.662935008763
 20
195.3647143778434
 30
0.0
  0
VERTEX
  5
A65
  8
0
  6
CONTINUOUS
 62
     1
 10
-2481.422826371394
 20
195.7188154348652
 30
0.0
  0
VERTEX
  5
A66
  8
0
  6
CONTINUOUS
 62
     1
 10
-2487.183084914318
 20
196.0668984815343
 30
0.0
  0
VERTEX
  5
A67
  8
0
  6
CONTINUOUS
 62
     1
 10
-2492.943713158945
 20
196.4088054930474
 30
0.0
  0
VERTEX
  5
A68
  8
0
  6
CONTINUOUS
 62
     1
 10
-2497.373807607195
 20
196.6674254378653
 30
0.0
  0
VERTEX
  5
A69
  8
0
  6
CONTINUOUS
 62
     1
 10
-2501.804123782438
 20
196.9222172637657
 30
0.0
  0
VERTEX
  5
A6A
  8
0
  6
CONTINUOUS
 62
     1
 10
-2506.234664279396
 20
197.1730984820533
 30
0.0
  0
VERTEX
  5
A6B
  8
0
  6
CONTINUOUS
 62
     1
 10
-2510.665429113307
 20
197.4199864530485
 30
0.0
  0
VERTEX
  5
A6C
  8
0
  6
CONTINUOUS
 62
     1
 10
-2515.096418980783
 20
197.6627985766156
 30
0.0
  0
VERTEX
  5
A6D
  8
0
  6
CONTINUOUS
 62
     1
 10
-2519.527634767586
 20
197.9014522627469
 30
0.0
  0
VERTEX
  5
A6E
  8
0
  6
CONTINUOUS
 62
     1
 10
-2523.959077276968
 20
198.1358649165254
 30
0.0
  0
VERTEX
  5
A6F
  8
0
  6
CONTINUOUS
 62
     1
 10
-2528.390746361316
 20
198.3659538947106
 30
0.0
  0
VERTEX
  5
A70
  8
0
  6
CONTINUOUS
 62
     1
 10
-2532.605011635772
 20
198.5806581887105
 30
0.0
  0
VERTEX
  5
A71
  8
0
  6
CONTINUOUS
 62
     1
 10
-2536.819481690613
 20
198.7913041513457
 30
0.0
  0
VERTEX
  5
A72
  8
0
  6
CONTINUOUS
 62
     1
 10
-2541.034156437544
 20
198.9978176475308
 30
0.0
  0
VERTEX
  5
A73
  8
0
  6
CONTINUOUS
 62
     1
 10
-2545.249035206817
 20
199.2001245108919
 30
0.0
  0
VERTEX
  5
A74
  8
0
  6
CONTINUOUS
 62
     1
 10
-2549.464116868715
 20
199.3981505533705
 30
0.0
  0
VERTEX
  5
A75
  8
0
  6
CONTINUOUS
 62
     1
 10
-2553.67940086653
 20
199.5918216145445
 30
0.0
  0
VERTEX
  5
A76
  8
0
  6
CONTINUOUS
 62
     1
 10
-2557.894886856283
 20
199.7810635423328
 30
0.0
  0
VERTEX
  5
A77
  8
0
  6
CONTINUOUS
 62
     1
 10
-2562.110572626369
 20
199.9658021034997
 30
0.0
  0
VERTEX
  5
A78
  8
0
  6
CONTINUOUS
 62
     1
 10
-2566.515196330162
 20
200.1539206284359
 30
0.0
  0
VERTEX
  5
A79
  8
0
  6
CONTINUOUS
 62
     1
 10
-2570.920034042958
 20
200.3369602285784
 30
0.0
  0
VERTEX
  5
A7A
  8
0
  6
CONTINUOUS
 62
     1
 10
-2575.325084432369
 20
200.5148386148406
 30
0.0
  0
VERTEX
  5
A7B
  8
0
  6
CONTINUOUS
 62
     1
 10
-2579.730343427273
 20
200.6874733823683
 30
0.0
  0
VERTEX
  5
A7C
  8
0
  6
CONTINUOUS
 62
     1
 10
-2584.135808399699
 20
200.8547821847028
 30
0.0
  0
VERTEX
  5
A7D
  8
0
  6
CONTINUOUS
 62
     1
 10
-2588.541475454659
 20
201.0166826268708
 30
0.0
  0
VERTEX
  5
A7E
  8
0
  6
CONTINUOUS
 62
     1
 10
-2592.94734298473
 20
201.1730923970119
 30
0.0
  0
VERTEX
  5
A7F
  8
0
  6
CONTINUOUS
 62
     1
 10
-2597.353404800471
 20
201.3239290240884
 30
0.0
  0
VERTEX
  5
A80
  8
0
  6
CONTINUOUS
 62
     1
 10
-2601.60072120915
 20
201.4639746684699
 30
0.0
  0
VERTEX
  5
A81
  8
0
  6
CONTINUOUS
 62
     1
 10
-2605.848209584812
 20
201.5987032178195
 30
0.0
  0
VERTEX
  5
A82
  8
0
  6
CONTINUOUS
 62
     1
 10
-2610.095865114562
 20
201.7280524792836
 30
0.0
  0
VERTEX
  5
A83
  8
0
  6
CONTINUOUS
 62
     1
 10
-2614.343682865915
 20
201.8519602466038
 30
0.0
  0
VERTEX
  5
A84
  8
0
  6
CONTINUOUS
 62
     1
 10
-2618.591653607251
 20
201.9703641918485
 30
0.0
  0
VERTEX
  5
A85
  8
0
  6
CONTINUOUS
 62
     1
 10
-2622.839775834846
 20
202.0832022027446
 30
0.0
  0
VERTEX
  5
A86
  8
0
  6
CONTINUOUS
 62
     1
 10
-2627.088037858113
 20
202.1904118933897
 30
0.0
  0
VERTEX
  5
A87
  8
0
  6
CONTINUOUS
 62
     1
 10
-2631.336439682672
 20
202.2919311785458
 30
0.0
  0
VERTEX
  5
A88
  8
0
  6
CONTINUOUS
 62
     1
 10
-2635.664700254185
 20
202.3894421894991
 30
0.0
  0
VERTEX
  5
A89
  8
0
  6
CONTINUOUS
 62
     1
 10
-2639.993092287044
 20
202.4809330330639
 30
0.0
  0
VERTEX
  5
A8A
  8
0
  6
CONTINUOUS
 62
     1
 10
-2644.321605790072
 20
202.56635407371
 30
0.0
  0
VERTEX
  5
A8B
  8
0
  6
CONTINUOUS
 62
     1
 10
-2648.650235715983
 20
202.6456557868788
 30
0.0
  0
VERTEX
  5
A8C
  8
0
  6
CONTINUOUS
 62
     1
 10
-2652.978949056655
 20
202.718789943339
 30
0.0
  0
VERTEX
  5
A8D
  8
0
  6
CONTINUOUS
 62
     1
 10
-2657.307762842585
 20
202.7857162368994
 30
0.0
  0
VERTEX
  5
A8E
  8
0
  6
CONTINUOUS
 62
     1
 10
-2661.636669372674
 20
202.8463956470546
 30
0.0
  0
VERTEX
  5
A8F
  8
0
  6
CONTINUOUS
 62
     1
 10
-2665.965659410711
 20
202.9007891273885
 30
0.0
  0
VERTEX
  5
A90
  8
0
  6
CONTINUOUS
 62
     1
 10
-2670.252448314554
 20
202.9484213859817
 30
0.0
  0
VERTEX
  5
A91
  8
0
  6
CONTINUOUS
 62
     1
 10
-2674.539301947934
 20
202.9898284222155
 30
0.0
  0
VERTEX
  5
A92
  8
0
  6
CONTINUOUS
 62
     1
 10
-2678.826211361351
 20
203.0249870496652
 30
0.0
  0
VERTEX
  5
A93
  8
0
  6
CONTINUOUS
 62
     1
 10
-2683.113167315627
 20
203.0538740818627
 30
0.0
  0
VERTEX
  5
A94
  8
0
  6
CONTINUOUS
 62
     1
 10
-2686.02763258883
 20
203.0699204534072
 30
0.0
  0
VERTEX
  5
A95
  8
0
  6
CONTINUOUS
 62
     1
 10
-2688.94211227543
 20
203.0830549646408
 30
0.0
  0
VERTEX
  5
A96
  8
0
  6
CONTINUOUS
 62
     1
 10
-2691.856603787397
 20
203.0932750924285
 30
0.0
  0
VERTEX
  5
A97
  8
0
  6
CONTINUOUS
 62
     1
 10
-2694.771104188504
 20
203.100578310725
 30
0.0
  0
VERTEX
  5
A98
  8
0
  6
CONTINUOUS
 62
     1
 10
-2697.685610576585
 20
203.1049620937685
 30
0.0
  0
VERTEX
  5
A99
  8
0
  6
CONTINUOUS
 62
     1
 10
-2700.600119578058
 20
203.1064239160525
 30
0.0
  0
VERTEX
  5
A9A
  8
0
  6
CONTINUOUS
 62
     1
 10
-2700.609732552528
 20
203.1064239001455
 30
0.0
  0
VERTEX
  5
A9B
  8
0
  6
CONTINUOUS
 62
     1
 10
-2700.6193455269
 20
203.106423852424
 30
0.0
  0
SEQEND
  5
A9C
  8
0
  6
CONTINUOUS
 62
     1
  0
POLYLINE
  5
3EC
  8
1
  6
CONTINUOUS
 62
     7
 66
     1
 10
0.0
 20
0.0
 30
0.0
  0
VERTEX
  5
A9D
  8
1
  6
CONTINUOUS
 62
     7
 10
-2435.0546583003
 20
1027.70097544307
 30
0.0
  0
VERTEX
  5
A9E
  8
1
  6
CONTINUOUS
 62
     7
 10
-2441.583828059717
 20
1031.686424482892
 30
0.0
  0
VERTEX
  5
A9F
  8
1
  6
CONTINUOUS
 62
     7
 10
-2444.928564768247
 20
1033.495369417187
 30
0.0
  0
VERTEX
  5
AA0
  8
1
  6
CONTINUOUS
 62
     7
 10
-2448.369483671361
 20
1035.083778848743
 30
0.0
  0
VERTEX
  5
AA1
  8
1
  6
CONTINUOUS
 62
     7
 10
-2451.92785969961
 20
1036.399924022802
 30
0.0
  0
VERTEX
  5
AA2
  8
1
  6
CONTINUOUS
 62
     7
 10
-2455.581273910103
 20
1037.4790153403
 30
0.0
  0
VERTEX
  5
AA3
  8
1
  6
CONTINUOUS
 62
     7
 10
-2459.296514993042
 20
1038.378061336634
 30
0.0
  0
VERTEX
  5
AA4
  8
1
  6
CONTINUOUS
 62
     7
 10
-2463.040371638629
 20
1039.154070547202
 30
0.0
  0
VERTEX
  5
AA5
  8
1
  6
CONTINUOUS
 62
     7
 10
-2467.121163027288
 20
1039.910264452588
 30
0.0
  0
VERTEX
  5
AA6
  8
1
  6
CONTINUOUS
 62
     7
 10
-2471.210402395018
 20
1040.566907320498
 30
0.0
  0
VERTEX
  5
AA7
  8
1
  6
CONTINUOUS
 62
     7
 10
-2479.43638016025
 20
1041.605459704259
 30
0.0
  0
SEQEND
  5
AA8
  8
1
  6
CONTINUOUS
 62
     7
  0
POLYLINE
  5
3ED
  8
1
  6
CONTINUOUS
 62
     7
 66
     1
 10
0.0
 20
0.0
 30
0.0
  0
VERTEX
  5
AA9
  8
1
  6
CONTINUOUS
 62
     7
 10
-2409.4608547435
 20
899.269731281343
 30
0.0
  0
VERTEX
  5
AAA
  8
1
  6
CONTINUOUS
 62
     7
 10
-2406.068301621983
 20
916.642864282822
 30
0.0
  0
VERTEX
  5
AAB
  8
1
  6
CONTINUOUS
 62
     7
 10
-2404.635141587097
 20
925.2769737867926
 30
0.0
  0
VERTEX
  5
AAC
  8
1
  6
CONTINUOUS
 62
     7
 10
-2403.517721383259
 20
933.8481348946408
 30
0.0
  0
VERTEX
  5
AAD
  8
1
  6
CONTINUOUS
 62
     7
 10
-2402.821287620818
 20
942.3353648076587
 30
0.0
  0
VERTEX
  5
AAE
  8
1
  6
CONTINUOUS
 62
     7
 10
-2402.651086910124
 20
950.7176807271393
 30
0.0
  0
VERTEX
  5
AAF
  8
1
  6
CONTINUOUS
 62
     7
 10
-2403.112365861525
 20
958.9740998543747
 30
0.0
  0
VERTEX
  5
AB0
  8
1
  6
CONTINUOUS
 62
     7
 10
-2404.310371085372
 20
967.0836393906574
 30
0.0
  0
VERTEX
  5
AB1
  8
1
  6
CONTINUOUS
 62
     7
 10
-2406.313813703646
 20
975.0275622997878
 30
0.0
  0
VERTEX
  5
AB2
  8
1
  6
CONTINUOUS
 62
     7
 10
-2409.053093635354
 20
982.8247828478825
 30
0.0
  0
VERTEX
  5
AB3
  8
1
  6
CONTINUOUS
 62
     7
 10
-2412.42309126429
 20
990.4962585150893
 30
0.0
  0
VERTEX
  5
AB4
  8
1
  6
CONTINUOUS
 62
     7
 10
-2416.318686974251
 20
998.0629467815562
 30
0.0
  0
VERTEX
  5
AB5
  8
1
  6
CONTINUOUS
 62
     7
 10
-2420.634761149031
 20
1005.545805127431
 30
0.0
  0
VERTEX
  5
AB6
  8
1
  6
CONTINUOUS
 62
     7
 10
-2425.266194172425
 20
1012.965791032862
 30
0.0
  0
VERTEX
  5
AB7
  8
1
  6
CONTINUOUS
 62
     7
 10
-2435.054658300242
 20
1027.700975442984
 30
0.0
  0
SEQEND
  5
AB8
  8
1
  6
CONTINUOUS
 62
     7
  0
POLYLINE
  5
3EE
  8
0
  6
CONTINUOUS
 62
     1
 66
     1
 10
0.0
 20
0.0
 30
0.0
  0
VERTEX
  5
AB9
  8
0
  6
CONTINUOUS
 62
     1
 10
-2402.61664521742
 20
203.1064239161
 30
0.0
  0
VERTEX
  5
ABA
  8
0
  6
CONTINUOUS
 62
     1
 10
-2402.641534957822
 20
203.003595463402
 30
0.0
  0
VERTEX
  5
ABB
  8
0
  6
CONTINUOUS
 62
     1
 10
-2402.66651589213
 20
202.9007891271046
 30
0.0
  0
VERTEX
  5
ABC
  8
0
  6
CONTINUOUS
 62
     1
 10
-2402.683373801526
 20
202.8316353444277
 30
0.0
  0
VERTEX
  5
ABD
  8
0
  6
CONTINUOUS
 62
     1
 10
-2402.700272854536
 20
202.7624916041367
 30
0.0
  0
VERTEX
  5
ABE
  8
0
  6
CONTINUOUS
 62
     1
 10
-2402.717213041726
 20
202.693357932344
 30
0.0
  0
VERTEX
  5
ABF
  8
0
  6
CONTINUOUS
 62
     1
 10
-2402.734194354997
 20
202.6242343498366
 30
0.0
  0
VERTEX
  5
AC0
  8
0
  6
CONTINUOUS
 62
     1
 10
-2402.754666382544
 20
202.5411365563041
 30
0.0
  0
VERTEX
  5
AC1
  8
0
  6
CONTINUOUS
 62
     1
 10
-2402.775197819336
 20
202.4580534236803
 30
0.0
  0
VERTEX
  5
AC2
  8
0
  6
CONTINUOUS
 62
     1
 10
-2402.795788646301
 20
202.3749849391837
 30
0.0
  0
VERTEX
  5
AC3
  8
0
  6
CONTINUOUS
 62
     1
 10
-2402.816438822836
 20
202.2919311768484
 30
0.0
  0
VERTEX
  5
AC4
  8
0
  6
CONTINUOUS
 62
     1
 10
-2402.887139540126
 20
202.0094736643311
 30
0.0
  0
VERTEX
  5
AC5
  8
0
  6
CONTINUOUS
 62
     1
 10
-2402.958525492773
 20
201.7271884384013
 30
0.0
  0
VERTEX
  5
AC6
  8
0
  6
CONTINUOUS
 62
     1
 10
-2403.030595324827
 20
201.445076858327
 30
0.0
  0
VERTEX
  5
AC7
  8
0
  6
CONTINUOUS
 62
     1
 10
-2403.103347640463
 20
201.1631404695428
 30
0.0
  0
VERTEX
  5
AC8
  8
0
  6
CONTINUOUS
 62
     1
 10
-2403.181465109298
 20
200.8635024847484
 30
0.0
  0
VERTEX
  5
AC9
  8
0
  6
CONTINUOUS
 62
     1
 10
-2403.260351319873
 20
200.5640662089969
 30
0.0
  0
VERTEX
  5
ACA
  8
0
  6
CONTINUOUS
 62
     1
 10
-2403.340005072946
 20
200.2648321663828
 30
0.0
  0
VERTEX
  5
ACB
  8
0
  6
CONTINUOUS
 62
     1
 10
-2403.420424853171
 20
199.9658020987986
 30
0.0
  0
VERTEX
  5
ACC
  8
0
  6
CONTINUOUS
 62
     1
 10
-2403.984983107709
 20
197.9417951686403
 30
0.0
  0
VERTEX
  5
ACD
  8
0
  6
CONTINUOUS
 62
     1
 10
-2404.586583984591
 20
195.9285594929614
 30
0.0
  0
VERTEX
  5
ACE
  8
0
  6
CONTINUOUS
 62
     1
 10
-2405.226769773154
 20
193.9273828681642
 30
0.0
  0
VERTEX
  5
ACF
  8
0
  6
CONTINUOUS
 62
     1
 10
-2405.888562989149
 20
191.9330488048949
 30
0.0
  0
SEQEND
  5
AD0
  8
0
  6
CONTINUOUS
 62
     1
  0
POLYLINE
  5
3EF
  8
0
  6
CONTINUOUS
 62
     1
 66
     1
 10
0.0
 20
0.0
 30
0.0
  0
VERTEX
  5
AD1
  8
0
  6
CONTINUOUS
 62
     1
 10
-2405.88856298918
 20
191.9330488048
 30
0.0
  0
VERTEX
  5
AD2
  8
0
  6
CONTINUOUS
 62
     1
 10
-2405.989205099584
 20
191.8290642362219
 30
0.0
  0
VERTEX
  5
AD3
  8
0
  6
CONTINUOUS
 62
     1
 10
-2406.121401598662
 20
191.7700105732117
 30
0.0
  0
VERTEX
  5
AD4
  8
0
  6
CONTINUOUS
 62
     1
 10
-2406.178163118182
 20
191.7509733179288
 30
0.0
  0
VERTEX
  5
AD5
  8
0
  6
CONTINUOUS
 62
     1
 10
-2406.235201372892
 20
191.7335147355981
 30
0.0
  0
VERTEX
  5
AD6
  8
0
  6
CONTINUOUS
 62
     1
 10
-2406.292219624471
 20
191.7176176088424
 30
0.0
  0
VERTEX
  5
AD7
  8
0
  6
CONTINUOUS
 62
     1
 10
-2406.349640782235
 20
191.7029920526983
 30
0.0
  0
VERTEX
  5
AD8
  8
0
  6
CONTINUOUS
 62
     1
 10
-2406.435244210042
 20
191.6833884773693
 30
0.0
  0
VERTEX
  5
AD9
  8
0
  6
CONTINUOUS
 62
     1
 10
-2406.52128306103
 20
191.6659137578427
 30
0.0
  0
VERTEX
  5
ADA
  8
0
  6
CONTINUOUS
 62
     1
 10
-2406.607923844462
 20
191.6501270365495
 30
0.0
  0
VERTEX
  5
ADB
  8
0
  6
CONTINUOUS
 62
     1
 10
-2406.694809612654
 20
191.6357056193473
 30
0.0
  0
VERTEX
  5
ADC
  8
0
  6
CONTINUOUS
 62
     1
 10
-2406.789993927554
 20
191.6211241281213
 30
0.0
  0
VERTEX
  5
ADD
  8
0
  6
CONTINUOUS
 62
     1
 10
-2406.88533575357
 20
191.6076313413292
 30
0.0
  0
VERTEX
  5
ADE
  8
0
  6
CONTINUOUS
 62
     1
 10
-2406.980725192886
 20
191.5951412135347
 30
0.0
  0
VERTEX
  5
ADF
  8
0
  6
CONTINUOUS
 62
     1
 10
-2407.076227810769
 20
191.5835409283007
 30
0.0
  0
VERTEX
  5
AE0
  8
0
  6
CONTINUOUS
 62
     1
 10
-2407.177414805527
 20
191.5721266235921
 30
0.0
  0
VERTEX
  5
AE1
  8
0
  6
CONTINUOUS
 62
     1
 10
-2407.278689051433
 20
191.561516842502
 30
0.0
  0
VERTEX
  5
AE2
  8
0
  6
CONTINUOUS
 62
     1
 10
-2407.380062614294
 20
191.5516295945655
 30
0.0
  0
VERTEX
  5
AE3
  8
0
  6
CONTINUOUS
 62
     1
 10
-2407.481497285789
 20
191.5423885595875
 30
0.0
  0
VERTEX
  5
AE4
  8
0
  6
CONTINUOUS
 62
     1
 10
-2407.596589279312
 20
191.5326013899039
 30
0.0
  0
VERTEX
  5
AE5
  8
0
  6
CONTINUOUS
 62
     1
 10
-2407.711736826551
 20
191.5234915665147
 30
0.0
  0
VERTEX
  5
AE6
  8
0
  6
CONTINUOUS
 62
     1
 10
-2407.826923519591
 20
191.5150075860999
 30
0.0
  0
VERTEX
  5
AE7
  8
0
  6
CONTINUOUS
 62
     1
 10
-2407.942151046654
 20
191.5070964103988
 30
0.0
  0
VERTEX
  5
AE8
  8
0
  6
CONTINUOUS
 62
     1
 10
-2408.085960266967
 20
191.4979569165337
 30
0.0
  0
VERTEX
  5
AE9
  8
0
  6
CONTINUOUS
 62
     1
 10
-2408.229815319801
 20
191.4895683983131
 30
0.0
  0
VERTEX
  5
AEA
  8
0
  6
CONTINUOUS
 62
     1
 10
-2408.373712577901
 20
191.4818716001491
 30
0.0
  0
VERTEX
  5
AEB
  8
0
  6
CONTINUOUS
 62
     1
 10
-2408.517642313057
 20
191.4748076492871
 30
0.0
  0
VERTEX
  5
AEC
  8
0
  6
CONTINUOUS
 62
     1
 10
-2408.677281031859
 20
191.4676486977708
 30
0.0
  0
VERTEX
  5
AED
  8
0
  6
CONTINUOUS
 62
     1
 10
-2408.836948046453
 20
191.4611510145962
 30
0.0
  0
VERTEX
  5
AEE
  8
0
  6
CONTINUOUS
 62
     1
 10
-2408.996637821393
 20
191.4552703569146
 30
0.0
  0
VERTEX
  5
AEF
  8
0
  6
CONTINUOUS
 62
     1
 10
-2409.1563476642
 20
191.4499623526958
 30
0.0
  0
VERTEX
  5
AF0
  8
0
  6
CONTINUOUS
 62
     1
 10
-2409.314201228918
 20
191.4452384811407
 30
0.0
  0
VERTEX
  5
AF1
  8
0
  6
CONTINUOUS
 62
     1
 10
-2409.472068655413
 20
191.4410037933232
 30
0.0
  0
VERTEX
  5
AF2
  8
0
  6
CONTINUOUS
 62
     1
 10
-2409.62994799023
 20
191.4372314685123
 30
0.0
  0
VERTEX
  5
AF3
  8
0
  6
CONTINUOUS
 62
     1
 10
-2409.787837148334
 20
191.4338946897022
 30
0.0
  0
VERTEX
  5
AF4
  8
0
  6
CONTINUOUS
 62
     1
 10
-2409.957632886373
 20
191.4307636443888
 30
0.0
  0
VERTEX
  5
AF5
  8
0
  6
CONTINUOUS
 62
     1
 10
-2410.127436330868
 20
191.4280829515716
 30
0.0
  0
VERTEX
  5
AF6
  8
0
  6
CONTINUOUS
 62
     1
 10
-2410.29724597901
 20
191.4258303232302
 30
0.0
  0
VERTEX
  5
AF7
  8
0
  6
CONTINUOUS
 62
     1
 10
-2410.467060541877
 20
191.4239834670273
 30
0.0
  0
VERTEX
  5
AF8
  8
0
  6
CONTINUOUS
 62
     1
 10
-2410.668607353321
 20
191.4222894535989
 30
0.0
  0
VERTEX
  5
AF9
  8
0
  6
CONTINUOUS
 62
     1
 10
-2410.870157860049
 20
191.4211106953721
 30
0.0
  0
VERTEX
  5
AFA
  8
0
  6
CONTINUOUS
 62
     1
 10
-2411.071710710055
 20
191.4204222875187
 30
0.0
  0
VERTEX
  5
AFB
  8
0
  6
CONTINUOUS
 62
     1
 10
-2411.273264607256
 20
191.4201993249677
 30
0.0
  0
VERTEX
  5
AFC
  8
0
  6
CONTINUOUS
 62
     1
 10
-2411.466159112176
 20
191.4203999595205
 30
0.0
  0
VERTEX
  5
AFD
  8
0
  6
CONTINUOUS
 62
     1
 10
-2411.659052811786
 20
191.420989032138
 30
0.0
  0
VERTEX
  5
AFE
  8
0
  6
CONTINUOUS
 62
     1
 10
-2411.851944955959
 20
191.4219514821647
 30
0.0
  0
VERTEX
  5
AFF
  8
0
  6
CONTINUOUS
 62
     1
 10
-2412.044834992722
 20
191.4232722489704
 30
0.0
  0
VERTEX
  5
B00
  8
0
  6
CONTINUOUS
 62
     1
 10
-2412.27148290025
 20
191.4252628427837
 30
0.0
  0
VERTEX
  5
B01
  8
0
  6
CONTINUOUS
 62
     1
 10
-2412.498126355258
 20
191.4277098000653
 30
0.0
  0
VERTEX
  5
B02
  8
0
  6
CONTINUOUS
 62
     1
 10
-2412.724764718538
 20
191.4305955550799
 30
0.0
  0
VERTEX
  5
B03
  8
0
  6
CONTINUOUS
 62
     1
 10
-2412.951397321975
 20
191.4339025419531
 30
0.0
  0
VERTEX
  5
B04
  8
0
  6
CONTINUOUS
 62
     1
 10
-2413.164950956645
 20
191.4373891932093
 30
0.0
  0
VERTEX
  5
B05
  8
0
  6
CONTINUOUS
 62
     1
 10
-2413.378498617801
 20
191.4412238287213
 30
0.0
  0
VERTEX
  5
B06
  8
0
  6
CONTINUOUS
 62
     1
 10
-2413.592039879456
 20
191.4453959920194
 30
0.0
  0
VERTEX
  5
B07
  8
0
  6
CONTINUOUS
 62
     1
 10
-2413.805574512361
 20
191.4498952301524
 30
0.0
  0
VERTEX
  5
B08
  8
0
  6
CONTINUOUS
 62
     1
 10
-2414.0535237995
 20
191.4555169535361
 30
0.0
  0
VERTEX
  5
B09
  8
0
  6
CONTINUOUS
 62
     1
 10
-2414.301463349883
 20
191.4615527368352
 30
0.0
  0
VERTEX
  5
B0A
  8
0
  6
CONTINUOUS
 62
     1
 10
-2414.549392986186
 20
191.4679897141033
 30
0.0
  0
VERTEX
  5
B0B
  8
0
  6
CONTINUOUS
 62
     1
 10
-2414.79731228465
 20
191.474815013461
 30
0.0
  0
VERTEX
  5
B0C
  8
0
  6
CONTINUOUS
 62
     1
 10
-2415.294186605684
 20
191.4896189379682
 30
0.0
  0
VERTEX
  5
B0D
  8
0
  6
CONTINUOUS
 62
     1
 10
-2415.79101607466
 20
191.5058664685515
 30
0.0
  0
VERTEX
  5
B0E
  8
0
  6
CONTINUOUS
 62
     1
 10
-2416.287799682316
 20
191.5234929710816
 30
0.0
  0
VERTEX
  5
B0F
  8
0
  6
CONTINUOUS
 62
     1
 10
-2416.784534872023
 20
191.542433761768
 30
0.0
  0
VERTEX
  5
B10
  8
0
  6
CONTINUOUS
 62
     1
 10
-2417.308383679781
 20
191.5637689735622
 30
0.0
  0
VERTEX
  5
B11
  8
0
  6
CONTINUOUS
 62
     1
 10
-2417.832175866257
 20
191.5864529600084
 30
0.0
  0
VERTEX
  5
B12
  8
0
  6
CONTINUOUS
 62
     1
 10
-2418.355909085564
 20
191.6104443795258
 30
0.0
  0
VERTEX
  5
B13
  8
0
  6
CONTINUOUS
 62
     1
 10
-2418.879582661219
 20
191.635701961391
 30
0.0
  0
VERTEX
  5
B14
  8
0
  6
CONTINUOUS
 62
     1
 10
-2419.202653589835
 20
191.6518999220026
 30
0.0
  0
VERTEX
  5
B15
  8
0
  6
CONTINUOUS
 62
     1
 10
-2419.525701048378
 20
191.6685584069034
 30
0.0
  0
VERTEX
  5
B16
  8
0
  6
CONTINUOUS
 62
     1
 10
-2419.84872452297
 20
191.6856716501918
 30
0.0
  0
VERTEX
  5
B17
  8
0
  6
CONTINUOUS
 62
     1
 10
-2420.171723908189
 20
191.7032339068101
 30
0.0
  0
VERTEX
  5
B18
  8
0
  6
CONTINUOUS
 62
     1
 10
-2420.46203563138
 20
191.7193986195552
 30
0.0
  0
VERTEX
  5
B19
  8
0
  6
CONTINUOUS
 62
     1
 10
-2420.752327346106
 20
191.7359183923428
 30
0.0
  0
VERTEX
  5
B1A
  8
0
  6
CONTINUOUS
 62
     1
 10
-2421.042598849226
 20
191.7527901573764
 30
0.0
  0
VERTEX
  5
B1B
  8
0
  6
CONTINUOUS
 62
     1
 10
-2421.332849906245
 20
191.7700108454325
 30
0.0
  0
VERTEX
  5
B1C
  8
0
  6
CONTINUOUS
 62
     1
 10
-2422.586470959165
 20
191.8483601479537
 30
0.0
  0
VERTEX
  5
B1D
  8
0
  6
CONTINUOUS
 62
     1
 10
-2423.839679714541
 20
191.9330488292932
 30
0.0
  0
SEQEND
  5
B1E
  8
0
  6
CONTINUOUS
 62
     1
  0
POLYLINE
  5
3F0
  8
1
  6
CONTINUOUS
 62
     3
 66
     1
 10
0.0
 20
0.0
 30
0.0
  0
VERTEX
  5
B1F
  8
1
  6
CONTINUOUS
 62
     3
 10
-1651.9748405184
 20
1019.63909798119
 30
0.0
  0
VERTEX
  5
B20
  8
1
  6
CONTINUOUS
 62
     3
 10
-1650.351738640293
 20
1020.62089225587
 30
0.0
  0
VERTEX
  5
B21
  8
1
  6
CONTINUOUS
 62
     3
 10
-1649.023044888873
 20
1021.976602337588
 30
0.0
  0
VERTEX
  5
B22
  8
1
  6
CONTINUOUS
 62
     3
 10
-1648.172737978096
 20
1023.036525884204
 30
0.0
  0
VERTEX
  5
B23
  8
1
  6
CONTINUOUS
 62
     3
 10
-1647.392331220318
 20
1024.145479258514
 30
0.0
  0
VERTEX
  5
B24
  8
1
  6
CONTINUOUS
 62
     3
 10
-1646.701633750725
 20
1025.272679449168
 30
0.0
  0
VERTEX
  5
B25
  8
1
  6
CONTINUOUS
 62
     3
 10
-1646.076994612841
 20
1026.438597429134
 30
0.0
  0
VERTEX
  5
B26
  8
1
  6
CONTINUOUS
 62
     3
 10
-1645.493114303243
 20
1027.676989710404
 30
0.0
  0
VERTEX
  5
B27
  8
1
  6
CONTINUOUS
 62
     3
 10
-1644.956707383141
 20
1028.936690263227
 30
0.0
  0
VERTEX
  5
B28
  8
1
  6
CONTINUOUS
 62
     3
 10
-1644.443990752656
 20
1030.219827300448
 30
0.0
  0
VERTEX
  5
B29
  8
1
  6
CONTINUOUS
 62
     3
 10
-1643.941031739917
 20
1031.506646407163
 30
0.0
  0
VERTEX
  5
B2A
  8
1
  6
CONTINUOUS
 62
     3
 10
-1642.822466238946
 20
1034.321391802729
 30
0.0
  0
VERTEX
  5
B2B
  8
1
  6
CONTINUOUS
 62
     3
 10
-1641.717198727481
 20
1037.142572373349
 30
0.0
  0
VERTEX
  5
B2C
  8
1
  6
CONTINUOUS
 62
     3
 10
-1640.691253300895
 20
1039.972236159163
 30
0.0
  0
VERTEX
  5
B2D
  8
1
  6
CONTINUOUS
 62
     3
 10
-1639.798952341819
 20
1042.843622593608
 30
0.0
  0
VERTEX
  5
B2E
  8
1
  6
CONTINUOUS
 62
     3
 10
-1639.212994465512
 20
1045.187100549237
 30
0.0
  0
VERTEX
  5
B2F
  8
1
  6
CONTINUOUS
 62
     3
 10
-1638.729837576239
 20
1047.554566443933
 30
0.0
  0
VERTEX
  5
B30
  8
1
  6
CONTINUOUS
 62
     3
 10
-1637.982577179831
 20
1052.33820545482
 30
0.0
  0
VERTEX
  5
B31
  8
1
  6
CONTINUOUS
 62
     3
 10
-1637.395302571871
 20
1057.160189135097
 30
0.0
  0
VERTEX
  5
B32
  8
1
  6
CONTINUOUS
 62
     3
 10
-1636.697144563571
 20
1061.960317792606
 30
0.0
  0
VERTEX
  5
B33
  8
1
  6
CONTINUOUS
 62
     3
 10
-1635.669411547652
 20
1066.699392193902
 30
0.0
  0
VERTEX
  5
B34
  8
1
  6
CONTINUOUS
 62
     3
 10
-1634.434273616616
 20
1071.400263970213
 30
0.0
  0
SEQEND
  5
B35
  8
1
  6
CONTINUOUS
 62
     3
  0
POLYLINE
  5
3F1
  8
1
  6
CONTINUOUS
 62
     3
 66
     1
 10
0.0
 20
0.0
 30
0.0
  0
VERTEX
  5
B36
  8
1
  6
CONTINUOUS
 62
     3
 10
-1634.43427361659
 20
1071.40026397031
 30
0.0
  0
VERTEX
  5
B37
  8
1
  6
CONTINUOUS
 62
     3
 10
-1633.964648014056
 20
1073.810080413613
 30
0.0
  0
VERTEX
  5
B38
  8
1
  6
CONTINUOUS
 62
     3
 10
-1633.485051364647
 20
1076.217932267513
 30
0.0
  0
VERTEX
  5
B39
  8
1
  6
CONTINUOUS
 62
     3
 10
-1631.204176074019
 20
1087.049068047613
 30
0.0
  0
VERTEX
  5
B3A
  8
1
  6
CONTINUOUS
 62
     3
 10
-1628.759295371174
 20
1097.844814317408
 30
0.0
  0
VERTEX
  5
B3B
  8
1
  6
CONTINUOUS
 62
     3
 10
-1626.191524830019
 20
1108.614525699139
 30
0.0
  0
VERTEX
  5
B3C
  8
1
  6
CONTINUOUS
 62
     3
 10
-1623.542689937807
 20
1119.364449049469
 30
0.0
  0
VERTEX
  5
B3D
  8
1
  6
CONTINUOUS
 62
     3
 10
-1620.859083916216
 20
1130.083402382129
 30
0.0
  0
VERTEX
  5
B3E
  8
1
  6
CONTINUOUS
 62
     3
 10
-1618.176268635799
 20
1140.802651258596
 30
0.0
  0
VERTEX
  5
B3F
  8
1
  6
CONTINUOUS
 62
     3
 10
-1615.53540989568
 20
1151.530434416205
 30
0.0
  0
VERTEX
  5
B40
  8
1
  6
CONTINUOUS
 62
     3
 10
-1612.976946348638
 20
1162.277912348951
 30
0.0
  0
VERTEX
  5
B41
  8
1
  6
CONTINUOUS
 62
     3
 10
-1610.361171905357
 20
1173.806629407317
 30
0.0
  0
VERTEX
  5
B42
  8
1
  6
CONTINUOUS
 62
     3
 10
-1607.842157658767
 20
1185.357176305743
 30
0.0
  0
VERTEX
  5
B43
  8
1
  6
CONTINUOUS
 62
     3
 10
-1605.375364597152
 20
1196.918669680964
 30
0.0
  0
VERTEX
  5
B44
  8
1
  6
CONTINUOUS
 62
     3
 10
-1602.915971072613
 20
1208.481597139654
 30
0.0
  0
VERTEX
  5
B45
  8
1
  6
CONTINUOUS
 62
     3
 10
-1600.391087033693
 20
1220.16281525127
 30
0.0
  0
VERTEX
  5
B46
  8
1
  6
CONTINUOUS
 62
     3
 10
-1597.779552633756
 20
1231.825255267516
 30
0.0
  0
VERTEX
  5
B47
  8
1
  6
CONTINUOUS
 62
     3
 10
-1595.031110871389
 20
1243.466163421941
 30
0.0
  0
VERTEX
  5
B48
  8
1
  6
CONTINUOUS
 62
     3
 10
-1592.100543940214
 20
1255.06154472445
 30
0.0
  0
VERTEX
  5
B49
  8
1
  6
CONTINUOUS
 62
     3
 10
-1590.001991337698
 20
1262.944228596996
 30
0.0
  0
VERTEX
  5
B4A
  8
1
  6
CONTINUOUS
 62
     3
 10
-1587.955113999919
 20
1270.841574068815
 30
0.0
  0
VERTEX
  5
B4B
  8
1
  6
CONTINUOUS
 62
     3
 10
-1586.123304862279
 20
1278.772289109552
 30
0.0
  0
VERTEX
  5
B4C
  8
1
  6
CONTINUOUS
 62
     3
 10
-1584.662594832376
 20
1286.778766698785
 30
0.0
  0
VERTEX
  5
B4D
  8
1
  6
CONTINUOUS
 62
     3
 10
-1583.745532291546
 20
1294.733704182031
 30
0.0
  0
VERTEX
  5
B4E
  8
1
  6
CONTINUOUS
 62
     3
 10
-1583.49896316975
 20
1302.739050148601
 30
0.0
  0
VERTEX
  5
B4F
  8
1
  6
CONTINUOUS
 62
     3
 10
-1584.077924474641
 20
1310.82838897508
 30
0.0
  0
VERTEX
  5
B50
  8
1
  6
CONTINUOUS
 62
     3
 10
-1585.591581346161
 20
1318.786754919039
 30
0.0
  0
VERTEX
  5
B51
  8
1
  6
CONTINUOUS
 62
     3
 10
-1586.840611247385
 20
1322.975331002459
 30
0.0
  0
VERTEX
  5
B52
  8
1
  6
CONTINUOUS
 62
     3
 10
-1588.470386404282
 20
1327.036935966142
 30
0.0
  0
VERTEX
  5
B53
  8
1
  6
CONTINUOUS
 62
     3
 10
-1590.475211812765
 20
1330.736167303408
 30
0.0
  0
VERTEX
  5
B54
  8
1
  6
CONTINUOUS
 62
     3
 10
-1593.037541659832
 20
1334.055066293229
 30
0.0
  0
VERTEX
  5
B55
  8
1
  6
CONTINUOUS
 62
     3
 10
-1596.389003122649
 20
1336.942661929399
 30
0.0
  0
VERTEX
  5
B56
  8
1
  6
CONTINUOUS
 62
     3
 10
-1600.292646765797
 20
1338.884396196655
 30
0.0
  0
VERTEX
  5
B57
  8
1
  6
CONTINUOUS
 62
     3
 10
-1604.55940156567
 20
1339.636684545683
 30
0.0
  0
VERTEX
  5
B58
  8
1
  6
CONTINUOUS
 62
     3
 10
-1608.998507887938
 20
1339.696264985832
 30
0.0
  0
SEQEND
  5
B59
  8
1
  6
CONTINUOUS
 62
     3
  0
POLYLINE
  5
3F2
  8
1
  6
CONTINUOUS
 62
     3
 66
     1
 10
0.0
 20
0.0
 30
0.0
  0
VERTEX
  5
B5A
  8
1
  6
CONTINUOUS
 62
     3
 10
-1634.43427361659
 20
1071.40026397031
 30
0.0
  0
VERTEX
  5
B5B
  8
1
  6
CONTINUOUS
 62
     3
 10
-1633.964648014056
 20
1073.810080413613
 30
0.0
  0
VERTEX
  5
B5C
  8
1
  6
CONTINUOUS
 62
     3
 10
-1633.485051364647
 20
1076.217932267513
 30
0.0
  0
VERTEX
  5
B5D
  8
1
  6
CONTINUOUS
 62
     3
 10
-1631.204176074019
 20
1087.049068047613
 30
0.0
  0
VERTEX
  5
B5E
  8
1
  6
CONTINUOUS
 62
     3
 10
-1628.759295371174
 20
1097.844814317408
 30
0.0
  0
VERTEX
  5
B5F
  8
1
  6
CONTINUOUS
 62
     3
 10
-1626.191524830019
 20
1108.614525699139
 30
0.0
  0
VERTEX
  5
B60
  8
1
  6
CONTINUOUS
 62
     3
 10
-1623.542689937807
 20
1119.364449049469
 30
0.0
  0
VERTEX
  5
B61
  8
1
  6
CONTINUOUS
 62
     3
 10
-1620.859083916216
 20
1130.083402382129
 30
0.0
  0
VERTEX
  5
B62
  8
1
  6
CONTINUOUS
 62
     3
 10
-1618.176268635799
 20
1140.802651258596
 30
0.0
  0
VERTEX
  5
B63
  8
1
  6
CONTINUOUS
 62
     3
 10
-1615.53540989568
 20
1151.530434416205
 30
0.0
  0
VERTEX
  5
B64
  8
1
  6
CONTINUOUS
 62
     3
 10
-1612.976946348638
 20
1162.277912348951
 30
0.0
  0
VERTEX
  5
B65
  8
1
  6
CONTINUOUS
 62
     3
 10
-1610.361171905357
 20
1173.806629407317
 30
0.0
  0
VERTEX
  5
B66
  8
1
  6
CONTINUOUS
 62
     3
 10
-1607.842157658767
 20
1185.357176305743
 30
0.0
  0
VERTEX
  5
B67
  8
1
  6
CONTINUOUS
 62
     3
 10
-1605.375364597152
 20
1196.918669680964
 30
0.0
  0
VERTEX
  5
B68
  8
1
  6
CONTINUOUS
 62
     3
 10
-1602.915971072613
 20
1208.481597139654
 30
0.0
  0
VERTEX
  5
B69
  8
1
  6
CONTINUOUS
 62
     3
 10
-1600.391087033693
 20
1220.16281525127
 30
0.0
  0
VERTEX
  5
B6A
  8
1
  6
CONTINUOUS
 62
     3
 10
-1597.779552633756
 20
1231.825255267516
 30
0.0
  0
VERTEX
  5
B6B
  8
1
  6
CONTINUOUS
 62
     3
 10
-1595.031110871389
 20
1243.466163421941
 30
0.0
  0
VERTEX
  5
B6C
  8
1
  6
CONTINUOUS
 62
     3
 10
-1592.100543940214
 20
1255.06154472445
 30
0.0
  0
VERTEX
  5
B6D
  8
1
  6
CONTINUOUS
 62
     3
 10
-1590.001991337698
 20
1262.944228596996
 30
0.0
  0
VERTEX
  5
B6E
  8
1
  6
CONTINUOUS
 62
     3
 10
-1587.955113999919
 20
1270.841574068815
 30
0.0
  0
VERTEX
  5
B6F
  8
1
  6
CONTINUOUS
 62
     3
 10
-1586.123304862279
 20
1278.772289109552
 30
0.0
  0
VERTEX
  5
B70
  8
1
  6
CONTINUOUS
 62
     3
 10
-1584.662594832376
 20
1286.778766698785
 30
0.0
  0
VERTEX
  5
B71
  8
1
  6
CONTINUOUS
 62
     3
 10
-1583.745532291546
 20
1294.733704182031
 30
0.0
  0
VERTEX
  5
B72
  8
1
  6
CONTINUOUS
 62
     3
 10
-1583.49896316975
 20
1302.739050148601
 30
0.0
  0
VERTEX
  5
B73
  8
1
  6
CONTINUOUS
 62
     3
 10
-1584.077924474641
 20
1310.82838897508
 30
0.0
  0
VERTEX
  5
B74
  8
1
  6
CONTINUOUS
 62
     3
 10
-1585.591581346161
 20
1318.786754919039
 30
0.0
  0
VERTEX
  5
B75
  8
1
  6
CONTINUOUS
 62
     3
 10
-1586.840611247385
 20
1322.975331002459
 30
0.0
  0
VERTEX
  5
B76
  8
1
  6
CONTINUOUS
 62
     3
 10
-1588.470386404282
 20
1327.036935966142
 30
0.0
  0
VERTEX
  5
B77
  8
1
  6
CONTINUOUS
 62
     3
 10
-1590.475211812765
 20
1330.736167303408
 30
0.0
  0
VERTEX
  5
B78
  8
1
  6
CONTINUOUS
 62
     3
 10
-1593.037541659832
 20
1334.055066293229
 30
0.0
  0
VERTEX
  5
B79
  8
1
  6
CONTINUOUS
 62
     3
 10
-1596.389003122649
 20
1336.942661929399
 30
0.0
  0
VERTEX
  5
B7A
  8
1
  6
CONTINUOUS
 62
     3
 10
-1600.292646765797
 20
1338.884396196655
 30
0.0
  0
VERTEX
  5
B7B
  8
1
  6
CONTINUOUS
 62
     3
 10
-1604.55940156567
 20
1339.636684545683
 30
0.0
  0
VERTEX
  5
B7C
  8
1
  6
CONTINUOUS
 62
     3
 10
-1608.998507887938
 20
1339.696264985832
 30
0.0
  0
SEQEND
  5
B7D
  8
1
  6
CONTINUOUS
 62
     3
  0
ARC
  5
3F3
  8
1
  6
CONTINUOUS
 62
     3
 10
-2485.620085912019
 20
-220.0
 30
0.0
 40
40.0
 50
-90.0
 51
-56.26052437985951
  0
ARC
  5
3F4
  8
1
  6
CONTINUOUS
 62
     3
 10
-2485.620085912019
 20
-95.0
 30
0.0
 40
40.0
 50
0.0
 51
90.0
  0
ARC
  5
3F5
  8
1
  6
CONTINUOUS
 62
     3
 10
-2485.620085912019
 20
-220.0
 30
0.0
 40
40.0
 50
-90.0
 51
0.0
  0
ARC
  5
3F6
  8
1
  6
CONTINUOUS
 62
     3
 10
-2431.867791066065
 20
-256.8631296079975
 30
0.0
 40
30.00000000000101
 50
-6.10175849915308
 51
80.35640974058907
  0
ARC
  5
3F7
  8
1
  6
CONTINUOUS
 62
     3
 10
-2969.372052891315
 20
-256.8631296079975
 30
0.0
 40
29.99999999999969
 50
99.64359025940922
 51
-173.8982415008468
  0
ARC
  5
3F8
  8
1
  6
CONTINUOUS
 62
     3
 10
-2915.61975804536
 20
-220.0
 30
0.0
 40
40.0
 50
180.0
 51
-90.0
  0
ARC
  5
3F9
  8
1
  6
CONTINUOUS
 62
     3
 10
-2915.61975804536
 20
-95.0
 30
0.0
 40
40.0
 50
90.0
 51
180.0
  0
ARC
  5
3FA
  8
1
  6
CONTINUOUS
 62
     3
 10
-2915.61975804536
 20
-220.0
 30
0.0
 40
40.00000000000037
 50
-123.7394756201405
 51
-90.0
  0
POLYLINE
  5
3FB
  8
0
  6
CONTINUOUS
 62
     7
 66
     1
 10
0.0
 20
0.0
 30
0.0
  0
VERTEX
  5
B7F
  8
0
  6
CONTINUOUS
 62
     7
 10
-2971.12647748734
 20
758.987766091363
 30
0.0
  0
VERTEX
  5
B80
  8
0
  6
CONTINUOUS
 62
     7
 10
-2974.88416214284
 20
794.262946513606
 30
0.0
  0
VERTEX
  5
B81
  8
0
  6
CONTINUOUS
 62
     7
 10
-2977.00246276254
 20
811.865285007672
 30
0.0
  0
VERTEX
  5
B82
  8
0
  6
CONTINUOUS
 62
     7
 10
-2979.40811333258
 20
829.425321441272
 30
0.0
  0
VERTEX
  5
B83
  8
0
  6
CONTINUOUS
 62
     7
 10
-2982.16532718182
 20
846.93578834862
 30
0.0
  0
VERTEX
  5
B84
  8
0
  6
CONTINUOUS
 62
     7
 10
-2985.20996110332
 20
864.403942872542
 30
0.0
  0
VERTEX
  5
B85
  8
0
  6
CONTINUOUS
 62
     7
 10
-2991.77826240012
 20
899.269731281343
 30
0.0
  0
SEQEND
  5
B7E
  8
0
  6
CONTINUOUS
 62
     7
  0
POLYLINE
  5
3FC
  8
0
  6
CONTINUOUS
 62
     7
 66
     1
 10
0.0
 20
0.0
 30
0.0
  0
VERTEX
  5
B87
  8
0
  6
CONTINUOUS
 62
     7
 10
-2904.19423546663
 20
1350.74711795495
 30
0.0
  0
VERTEX
  5
B88
  8
0
  6
CONTINUOUS
 62
     7
 10
-2908.31156113788
 20
1350.52550805016
 30
0.0
  0
VERTEX
  5
B89
  8
0
  6
CONTINUOUS
 62
     7
 10
-2912.40340057464
 20
1350.09980221933
 30
0.0
  0
VERTEX
  5
B8A
  8
0
  6
CONTINUOUS
 62
     7
 10
-2916.44293492638
 20
1349.31043380277
 30
0.0
  0
VERTEX
  5
B8B
  8
0
  6
CONTINUOUS
 62
     7
 10
-2920.40668220245
 20
1348.17408975194
 30
0.0
  0
VERTEX
  5
B8C
  8
0
  6
CONTINUOUS
 62
     7
 10
-2924.26731932418
 20
1346.7417126392
 30
0.0
  0
VERTEX
  5
B8D
  8
0
  6
CONTINUOUS
 62
     7
 10
-2928.00335956478
 20
1345.01827430876
 30
0.0
  0
VERTEX
  5
B8E
  8
0
  6
CONTINUOUS
 62
     7
 10
-2931.58790741485
 20
1343.00418959672
 30
0.0
  0
VERTEX
  5
B8F
  8
0
  6
CONTINUOUS
 62
     7
 10
-2935.00291107398
 20
1340.71150535588
 30
0.0
  0
VERTEX
  5
B90
  8
0
  6
CONTINUOUS
 62
     7
 10
-2938.22335568047
 20
1338.15995219276
 30
0.0
  0
VERTEX
  5
B91
  8
0
  6
CONTINUOUS
 62
     7
 10
-2941.22978844286
 20
1335.36179323128
 30
0.0
  0
VERTEX
  5
B92
  8
0
  6
CONTINUOUS
 62
     7
 10
-2943.99886384499
 20
1332.3364527849
 30
0.0
  0
VERTEX
  5
B93
  8
0
  6
CONTINUOUS
 62
     7
 10
-2946.52782502121
 20
1329.10330929588
 30
0.0
  0
VERTEX
  5
B94
  8
0
  6
CONTINUOUS
 62
     7
 10
-2948.80072311477
 20
1325.68719796408
 30
0.0
  0
VERTEX
  5
B95
  8
0
  6
CONTINUOUS
 62
     7
 10
-2950.76414541672
 20
1322.09301292645
 30
0.0
  0
VERTEX
  5
B96
  8
0
  6
CONTINUOUS
 62
     7
 10
-2952.39227050892
 20
1318.34301217995
 30
0.0
  0
VERTEX
  5
B97
  8
0
  6
CONTINUOUS
 62
     7
 10
-2953.83250615932
 20
1314.5067218449
 30
0.0
  0
SEQEND
  5
B86
  8
0
  6
CONTINUOUS
 62
     7
  0
POLYLINE
  5
3FD
  8
0
  6
CONTINUOUS
 62
     7
 66
     1
 10
0.0
 20
0.0
 30
0.0
  0
VERTEX
  5
B99
  8
0
  6
CONTINUOUS
 62
     7
 10
-2953.83250615932
 20
1314.5067218449
 30
0.0
  0
VERTEX
  5
B9A
  8
0
  6
CONTINUOUS
 62
     7
 10
-2955.94652595666
 20
1307.12177377581
 30
0.0
  0
VERTEX
  5
B9B
  8
0
  6
CONTINUOUS
 62
     7
 10
-2957.87810379571
 20
1299.69194138322
 30
0.0
  0
VERTEX
  5
B9C
  8
0
  6
CONTINUOUS
 62
     7
 10
-2959.48455251387
 20
1292.18596342977
 30
0.0
  0
VERTEX
  5
B9D
  8
0
  6
CONTINUOUS
 62
     7
 10
-2960.78445415679
 20
1284.61604718279
 30
0.0
  0
VERTEX
  5
B9E
  8
0
  6
CONTINUOUS
 62
     7
 10
-2961.81555386359
 20
1277.00613964691
 30
0.0
  0
VERTEX
  5
B9F
  8
0
  6
CONTINUOUS
 62
     7
 10
-2962.53493861659
 20
1269.36524313437
 30
0.0
  0
VERTEX
  5
BA0
  8
0
  6
CONTINUOUS
 62
     7
 10
-2962.9210085807
 20
1261.70194693107
 30
0.0
  0
VERTEX
  5
BA1
  8
0
  6
CONTINUOUS
 62
     7
 10
-2963.11954803606
 20
1254.02673330048
 30
0.0
  0
SEQEND
  5
B98
  8
0
  6
CONTINUOUS
 62
     7
  0
POLYLINE
  5
3FE
  8
1
  6
CONTINUOUS
 62
     1
 66
     1
 10
0.0
 20
0.0
 30
0.0
  0
VERTEX
  5
BA3
  8
1
  6
CONTINUOUS
 62
     1
 10
-2966.14119215163
 20
759.391460651563
 30
0.0
  0
VERTEX
  5
BA4
  8
1
  6
CONTINUOUS
 62
     1
 10
-2969.91590432905
 20
794.826486553999
 30
0.0
  0
VERTEX
  5
BA5
  8
1
  6
CONTINUOUS
 62
     1
 10
-2972.04317315742
 20
812.503347730664
 30
0.0
  0
VERTEX
  5
BA6
  8
1
  6
CONTINUOUS
 62
     1
 10
-2974.46117957238
 20
830.153575603375
 30
0.0
  0
VERTEX
  5
BA7
  8
1
  6
CONTINUOUS
 62
     1
 10
-2977.23255400773
 20
847.753973320612
 30
0.0
  0
VERTEX
  5
BA8
  8
1
  6
CONTINUOUS
 62
     1
 10
-2980.29007793769
 20
865.296082436547
 30
0.0
  0
VERTEX
  5
BA9
  8
1
  6
CONTINUOUS
 62
     1
 10
-2986.86469372949
 20
900.195389381851
 30
0.0
  0
SEQEND
  5
BA2
  8
1
  6
CONTINUOUS
 62
     1
  0
POLYLINE
  5
3FF
  8
1
  6
CONTINUOUS
 62
     1
 66
     1
 10
0.0
 20
0.0
 30
0.0
  0
VERTEX
  5
BAB
  8
1
  6
CONTINUOUS
 62
     1
 10
-2904.05977042074
 20
1345.74711811568
 30
0.0
  0
VERTEX
  5
BAC
  8
1
  6
CONTINUOUS
 62
     1
 10
-2907.91825341034
 20
1345.5394400945
 30
0.0
  0
VERTEX
  5
BAD
  8
1
  6
CONTINUOUS
 62
     1
 10
-2911.66376994452
 20
1345.14976492451
 30
0.0
  0
VERTEX
  5
BAE
  8
1
  6
CONTINUOUS
 62
     1
 10
-2915.27234472189
 20
1344.44461063938
 30
0.0
  0
VERTEX
  5
BAF
  8
1
  6
CONTINUOUS
 62
     1
 10
-2918.84584029222
 20
1343.4201456195
 30
0.0
  0
VERTEX
  5
BB0
  8
1
  6
CONTINUOUS
 62
     1
 10
-2922.34765290926
 20
1342.12089990238
 30
0.0
  0
VERTEX
  5
BB1
  8
1
  6
CONTINUOUS
 62
     1
 10
-2925.72792083836
 20
1340.56157962182
 30
0.0
  0
VERTEX
  5
BB2
  8
1
  6
CONTINUOUS
 62
     1
 10
-2928.96567654239
 20
1338.74235038076
 30
0.0
  0
VERTEX
  5
BB3
  8
1
  6
CONTINUOUS
 62
     1
 10
-2932.05233452723
 20
1336.67010307883
 30
0.0
  0
VERTEX
  5
BB4
  8
1
  6
CONTINUOUS
 62
     1
 10
-2934.96244512874
 20
1334.36442705654
 30
0.0
  0
VERTEX
  5
BB5
  8
1
  6
CONTINUOUS
 62
     1
 10
-2937.67670980625
 20
1331.83819592767
 30
0.0
  0
VERTEX
  5
BB6
  8
1
  6
CONTINUOUS
 62
     1
 10
-2940.17984564598
 20
1329.1034065128
 30
0.0
  0
VERTEX
  5
BB7
  8
1
  6
CONTINUOUS
 62
     1
 10
-2942.47131426534
 20
1326.17388473262
 30
0.0
  0
VERTEX
  5
BB8
  8
1
  6
CONTINUOUS
 62
     1
 10
-2944.51723031071
 20
1323.09892197633
 30
0.0
  0
VERTEX
  5
BB9
  8
1
  6
CONTINUOUS
 62
     1
 10
-2946.26780035543
 20
1319.89437822853
 30
0.0
  0
VERTEX
  5
BBA
  8
1
  6
CONTINUOUS
 62
     1
 10
-2947.75563102254
 20
1316.46751248026
 30
0.0
  0
VERTEX
  5
BBB
  8
1
  6
CONTINUOUS
 62
     1
 10
-2949.08088417154
 20
1312.93749581556
 30
0.0
  0
SEQEND
  5
BAA
  8
1
  6
CONTINUOUS
 62
     1
  0
POLYLINE
  5
400
  8
1
  6
CONTINUOUS
 62
     1
 66
     1
 10
0.0
 20
0.0
 30
0.0
  0
VERTEX
  5
BBD
  8
1
  6
CONTINUOUS
 62
     1
 10
-2951.12277140182
 20
1305.80452990033
 30
0.0
  0
VERTEX
  5
BBE
  8
1
  6
CONTINUOUS
 62
     1
 10
-2953.01159340942
 20
1298.53915821703
 30
0.0
  0
VERTEX
  5
BBF
  8
1
  6
CONTINUOUS
 62
     1
 10
-2954.57393715923
 20
1291.23925650885
 30
0.0
  0
VERTEX
  5
BC0
  8
1
  6
CONTINUOUS
 62
     1
 10
-2955.84160794297
 20
1283.85703515856
 30
0.0
  0
VERTEX
  5
BC1
  8
1
  6
CONTINUOUS
 62
     1
 10
-2956.84713049275
 20
1276.43589675788
 30
0.0
  0
VERTEX
  5
BC2
  8
1
  6
CONTINUOUS
 62
     1
 10
-2957.5467488799
 20
1269.00494736373
 30
0.0
  0
VERTEX
  5
BC3
  8
1
  6
CONTINUOUS
 62
     1
 10
-2957.92734166221
 20
1261.45037048709
 30
0.0
  0
SEQEND
  5
BBC
  8
1
  6
CONTINUOUS
 62
     1
  0
POLYLINE
  5
401
  8
1
  6
CONTINUOUS
 62
     1
 66
     1
 10
0.0
 20
0.0
 30
0.0
  0
VERTEX
  5
BC5
  8
1
  6
CONTINUOUS
 62
     1
 10
-2452.15823297208
 20
1312.93749581556
 30
0.0
  0
VERTEX
  5
BC6
  8
1
  6
CONTINUOUS
 62
     1
 10
-2453.48348612108
 20
1316.46751248026
 30
0.0
  0
VERTEX
  5
BC7
  8
1
  6
CONTINUOUS
 62
     1
 10
-2454.9713167882
 20
1319.89437822853
 30
0.0
  0
VERTEX
  5
BC8
  8
1
  6
CONTINUOUS
 62
     1
 10
-2456.72188683291
 20
1323.09892197633
 30
0.0
  0
VERTEX
  5
BC9
  8
1
  6
CONTINUOUS
 62
     1
 10
-2458.76780287828
 20
1326.17388473262
 30
0.0
  0
VERTEX
  5
BCA
  8
1
  6
CONTINUOUS
 62
     1
 10
-2461.05927149764
 20
1329.1034065128
 30
0.0
  0
VERTEX
  5
BCB
  8
1
  6
CONTINUOUS
 62
     1
 10
-2463.56240733737
 20
1331.83819592767
 30
0.0
  0
VERTEX
  5
BCC
  8
1
  6
CONTINUOUS
 62
     1
 10
-2466.27667201488
 20
1334.36442705654
 30
0.0
  0
VERTEX
  5
BCD
  8
1
  6
CONTINUOUS
 62
     1
 10
-2469.18678261639
 20
1336.67010307883
 30
0.0
  0
VERTEX
  5
BCE
  8
1
  6
CONTINUOUS
 62
     1
 10
-2472.27344060123
 20
1338.74235038076
 30
0.0
  0
VERTEX
  5
BCF
  8
1
  6
CONTINUOUS
 62
     1
 10
-2475.51119630527
 20
1340.56157962182
 30
0.0
  0
VERTEX
  5
BD0
  8
1
  6
CONTINUOUS
 62
     1
 10
-2478.89146423436
 20
1342.12089990238
 30
0.0
  0
VERTEX
  5
BD1
  8
1
  6
CONTINUOUS
 62
     1
 10
-2482.3932768514
 20
1343.4201456195
 30
0.0
  0
VERTEX
  5
BD2
  8
1
  6
CONTINUOUS
 62
     1
 10
-2485.96677242173
 20
1344.44461063938
 30
0.0
  0
VERTEX
  5
BD3
  8
1
  6
CONTINUOUS
 62
     1
 10
-2489.5753471991
 20
1345.14976492451
 30
0.0
  0
VERTEX
  5
BD4
  8
1
  6
CONTINUOUS
 62
     1
 10
-2493.32086373329
 20
1345.5394400945
 30
0.0
  0
VERTEX
  5
BD5
  8
1
  6
CONTINUOUS
 62
     1
 10
-2497.17934672288
 20
1345.74711811568
 30
0.0
  0
SEQEND
  5
BC4
  8
1
  6
CONTINUOUS
 62
     1
  0
POLYLINE
  5
402
  8
0
  6
CONTINUOUS
 62
     7
 66
     1
 10
0.0
 20
0.0
 30
0.0
  0
VERTEX
  5
BD7
  8
0
  6
CONTINUOUS
 62
     7
 10
-2409.4608547435
 20
899.269731281343
 30
0.0
  0
VERTEX
  5
BD8
  8
0
  6
CONTINUOUS
 62
     7
 10
-2416.0291560403
 20
864.403942872542
 30
0.0
  0
VERTEX
  5
BD9
  8
0
  6
CONTINUOUS
 62
     7
 10
-2419.0737899618
 20
846.93578834862
 30
0.0
  0
VERTEX
  5
BDA
  8
0
  6
CONTINUOUS
 62
     7
 10
-2421.83100381104
 20
829.425321441272
 30
0.0
  0
VERTEX
  5
BDB
  8
0
  6
CONTINUOUS
 62
     7
 10
-2424.23665438108
 20
811.865285007672
 30
0.0
  0
VERTEX
  5
BDC
  8
0
  6
CONTINUOUS
 62
     7
 10
-2426.35495500078
 20
794.262946513606
 30
0.0
  0
VERTEX
  5
BDD
  8
0
  6
CONTINUOUS
 62
     7
 10
-2430.11263965628
 20
758.987766091363
 30
0.0
  0
SEQEND
  5
BD6
  8
0
  6
CONTINUOUS
 62
     7
  0
POLYLINE
  5
403
  8
0
  6
CONTINUOUS
 62
     7
 66
     1
 10
0.0
 20
0.0
 30
0.0
  0
VERTEX
  5
BDF
  8
0
  6
CONTINUOUS
 62
     7
 10
-2447.4066109843
 20
1314.5067218449
 30
0.0
  0
VERTEX
  5
BE0
  8
0
  6
CONTINUOUS
 62
     7
 10
-2448.8468466347
 20
1318.34301217995
 30
0.0
  0
VERTEX
  5
BE1
  8
0
  6
CONTINUOUS
 62
     7
 10
-2450.47497172691
 20
1322.09301292645
 30
0.0
  0
VERTEX
  5
BE2
  8
0
  6
CONTINUOUS
 62
     7
 10
-2452.43839402885
 20
1325.68719796408
 30
0.0
  0
VERTEX
  5
BE3
  8
0
  6
CONTINUOUS
 62
     7
 10
-2454.71129212241
 20
1329.10330929588
 30
0.0
  0
VERTEX
  5
BE4
  8
0
  6
CONTINUOUS
 62
     7
 10
-2457.24025329863
 20
1332.3364527849
 30
0.0
  0
VERTEX
  5
BE5
  8
0
  6
CONTINUOUS
 62
     7
 10
-2460.00932870076
 20
1335.36179323128
 30
0.0
  0
VERTEX
  5
BE6
  8
0
  6
CONTINUOUS
 62
     7
 10
-2463.01576146315
 20
1338.15995219276
 30
0.0
  0
VERTEX
  5
BE7
  8
0
  6
CONTINUOUS
 62
     7
 10
-2466.23620606965
 20
1340.71150535588
 30
0.0
  0
VERTEX
  5
BE8
  8
0
  6
CONTINUOUS
 62
     7
 10
-2469.65120972878
 20
1343.00418959672
 30
0.0
  0
VERTEX
  5
BE9
  8
0
  6
CONTINUOUS
 62
     7
 10
-2473.23575757885
 20
1345.01827430876
 30
0.0
  0
VERTEX
  5
BEA
  8
0
  6
CONTINUOUS
 62
     7
 10
-2476.97179781944
 20
1346.7417126392
 30
0.0
  0
VERTEX
  5
BEB
  8
0
  6
CONTINUOUS
 62
     7
 10
-2480.83243494118
 20
1348.17408975194
 30
0.0
  0
VERTEX
  5
BEC
  8
0
  6
CONTINUOUS
 62
     7
 10
-2484.79618221725
 20
1349.31043380277
 30
0.0
  0
VERTEX
  5
BED
  8
0
  6
CONTINUOUS
 62
     7
 10
-2488.83571656898
 20
1350.09980221933
 30
0.0
  0
VERTEX
  5
BEE
  8
0
  6
CONTINUOUS
 62
     7
 10
-2492.92755600574
 20
1350.52550805016
 30
0.0
  0
VERTEX
  5
BEF
  8
0
  6
CONTINUOUS
 62
     7
 10
-2497.04488167699
 20
1350.74711795495
 30
0.0
  0
SEQEND
  5
BDE
  8
0
  6
CONTINUOUS
 62
     7
  0
POLYLINE
  5
404
  8
0
  6
CONTINUOUS
 62
     7
 66
     1
 10
0.0
 20
0.0
 30
0.0
  0
VERTEX
  5
BF1
  8
0
  6
CONTINUOUS
 62
     7
 10
-2438.11956910757
 20
1254.02673330048
 30
0.0
  0
VERTEX
  5
BF2
  8
0
  6
CONTINUOUS
 62
     7
 10
-2438.31810856292
 20
1261.70194693107
 30
0.0
  0
VERTEX
  5
BF3
  8
0
  6
CONTINUOUS
 62
     7
 10
-2438.70417852703
 20
1269.36524313437
 30
0.0
  0
VERTEX
  5
BF4
  8
0
  6
CONTINUOUS
 62
     7
 10
-2439.42356328004
 20
1277.00613964691
 30
0.0
  0
VERTEX
  5
BF5
  8
0
  6
CONTINUOUS
 62
     7
 10
-2440.45466298684
 20
1284.61604718279
 30
0.0
  0
VERTEX
  5
BF6
  8
0
  6
CONTINUOUS
 62
     7
 10
-2441.75456462975
 20
1292.18596342977
 30
0.0
  0
VERTEX
  5
BF7
  8
0
  6
CONTINUOUS
 62
     7
 10
-2443.36101334792
 20
1299.69194138322
 30
0.0
  0
VERTEX
  5
BF8
  8
0
  6
CONTINUOUS
 62
     7
 10
-2445.29259118696
 20
1307.12177377581
 30
0.0
  0
VERTEX
  5
BF9
  8
0
  6
CONTINUOUS
 62
     7
 10
-2447.4066109843
 20
1314.5067218449
 30
0.0
  0
SEQEND
  5
BF0
  8
0
  6
CONTINUOUS
 62
     7
  0
POLYLINE
  5
405
  8
1
  6
CONTINUOUS
 62
     1
 66
     1
 10
0.0
 20
0.0
 30
0.0
  0
VERTEX
  5
BFB
  8
1
  6
CONTINUOUS
 62
     1
 10
-2414.37442341413
 20
900.195389381851
 30
0.0
  0
VERTEX
  5
BFC
  8
1
  6
CONTINUOUS
 62
     1
 10
-2420.94903920593
 20
865.296082436547
 30
0.0
  0
VERTEX
  5
BFD
  8
1
  6
CONTINUOUS
 62
     1
 10
-2424.00656313589
 20
847.753973320612
 30
0.0
  0
VERTEX
  5
BFE
  8
1
  6
CONTINUOUS
 62
     1
 10
-2426.77793757124
 20
830.153575603375
 30
0.0
  0
VERTEX
  5
BFF
  8
1
  6
CONTINUOUS
 62
     1
 10
-2429.19594398619
 20
812.503347730664
 30
0.0
  0
VERTEX
  5
C00
  8
1
  6
CONTINUOUS
 62
     1
 10
-2431.32321281457
 20
794.826486553999
 30
0.0
  0
VERTEX
  5
C01
  8
1
  6
CONTINUOUS
 62
     1
 10
-2435.097924992
 20
759.391460651563
 30
0.0
  0
SEQEND
  5
BFA
  8
1
  6
CONTINUOUS
 62
     1
  0
POLYLINE
  5
406
  8
1
  6
CONTINUOUS
 62
     1
 66
     1
 10
0.0
 20
0.0
 30
0.0
  0
VERTEX
  5
C03
  8
1
  6
CONTINUOUS
 62
     1
 10
-2443.31177548142
 20
1261.45037048709
 30
0.0
  0
VERTEX
  5
C04
  8
1
  6
CONTINUOUS
 62
     1
 10
-2443.69236826372
 20
1269.00494736373
 30
0.0
  0
VERTEX
  5
C05
  8
1
  6
CONTINUOUS
 62
     1
 10
-2444.39198665087
 20
1276.43589675788
 30
0.0
  0
VERTEX
  5
C06
  8
1
  6
CONTINUOUS
 62
     1
 10
-2445.39750920065
 20
1283.85703515856
 30
0.0
  0
VERTEX
  5
C07
  8
1
  6
CONTINUOUS
 62
     1
 10
-2446.66517998438
 20
1291.23925650885
 30
0.0
  0
VERTEX
  5
C08
  8
1
  6
CONTINUOUS
 62
     1
 10
-2448.2275237342
 20
1298.53915821703
 30
0.0
  0
VERTEX
  5
C09
  8
1
  6
CONTINUOUS
 62
     1
 10
-2450.1163457418
 20
1305.80452990033
 30
0.0
  0
SEQEND
  5
C02
  8
1
  6
CONTINUOUS
 62
     1
  0
ENDSEC
  0
EOF
