  0
SECTION
  2
HEADER
  9
$ACADVER
  1
AC1015
  9
$ACADMAINTVER
 70
     6
  9
$DWGCODEPAGE
  3
ANSI_1252
  9
$INSBASE
 10
0.0
 20
0.0
 30
0.0
  9
$EXTMIN
 10
-811.294177669253
 20
-696.175357342724
 30
0.0
  9
$EXTMAX
 10
2519.46911556228
 20
980.8762159095094
 30
0.0
  9
$LIMMIN
 10
0.0
 20
0.0
  9
$LIMMAX
 10
12.0
 20
9.0
  9
$ORTHOMODE
 70
     0
  9
$REGENMODE
 70
     1
  9
$FILLMODE
 70
     1
  9
$QTEXTMODE
 70
     0
  9
$MIRRTEXT
 70
     1
  9
$LTSCALE
 40
1.0
  9
$ATTMODE
 70
     1
  9
$TEXTSIZE
 40
0.2
  9
$TRACEWID
 40
0.05
  9
$TEXTSTYLE
  7
Standard
  9
$CLAYER
  8
0
  9
$CELTYPE
  6
ByLayer
  9
$CECOLOR
 62
   256
  9
$CELTSCALE
 40
1.0
  9
$DISPSILH
 70
     0
  9
$DIMSCALE
 40
1.0
  9
$DIMASZ
 40
0.18
  9
$DIMEXO
 40
0.0625
  9
$DIMDLI
 40
0.38
  9
$DIMRND
 40
0.0
  9
$DIMDLE
 40
0.0
  9
$DIMEXE
 40
0.18
  9
$DIMTP
 40
0.0
  9
$DIMTM
 40
0.0
  9
$DIMTXT
 40
0.18
  9
$DIMCEN
 40
0.09
  9
$DIMTSZ
 40
0.0
  9
$DIMTOL
 70
     0
  9
$DIMLIM
 70
     0
  9
$DIMTIH
 70
     1
  9
$DIMTOH
 70
     1
  9
$DIMSE1
 70
     0
  9
$DIMSE2
 70
     0
  9
$DIMTAD
 70
     0
  9
$DIMZIN
 70
     0
  9
$DIMBLK
  1

  9
$DIMASO
 70
     1
  9
$DIMSHO
 70
     1
  9
$DIMPOST
  1

  9
$DIMAPOST
  1

  9
$DIMALT
 70
     0
  9
$DIMALTD
 70
     2
  9
$DIMALTF
 40
25.4
  9
$DIMLFAC
 40
1.0
  9
$DIMTOFL
 70
     0
  9
$DIMTVP
 40
0.0
  9
$DIMTIX
 70
     0
  9
$DIMSOXD
 70
     0
  9
$DIMSAH
 70
     0
  9
$DIMBLK1
  1

  9
$DIMBLK2
  1

  9
$DIMSTYLE
  2
Standard
  9
$DIMCLRD
 70
     0
  9
$DIMCLRE
 70
     0
  9
$DIMCLRT
 70
     0
  9
$DIMTFAC
 40
1.0
  9
$DIMGAP
 40
0.09
  9
$DIMJUST
 70
     0
  9
$DIMSD1
 70
     0
  9
$DIMSD2
 70
     0
  9
$DIMTOLJ
 70
     1
  9
$DIMTZIN
 70
     0
  9
$DIMALTZ
 70
     0
  9
$DIMALTTZ
 70
     0
  9
$DIMUPT
 70
     0
  9
$DIMDEC
 70
     4
  9
$DIMTDEC
 70
     4
  9
$DIMALTU
 70
     2
  9
$DIMALTTD
 70
     2
  9
$DIMTXSTY
  7
Standard
  9
$DIMAUNIT
 70
     0
  9
$DIMADEC
 70
     0
  9
$DIMALTRND
 40
0.0
  9
$DIMAZIN
 70
     0
  9
$DIMDSEP
 70
    46
  9
$DIMATFIT
 70
     3
  9
$DIMFRAC
 70
     0
  9
$DIMLDRBLK
  1

  9
$DIMLUNIT
 70
     2
  9
$DIMLWD
 70
    -2
  9
$DIMLWE
 70
    -2
  9
$DIMTMOVE
 70
     0
  9
$LUNITS
 70
     2
  9
$LUPREC
 70
     4
  9
$SKETCHINC
 40
0.1
  9
$FILLETRAD
 40
0.5
  9
$AUNITS
 70
     0
  9
$AUPREC
 70
     0
  9
$MENU
  1
.
  9
$ELEVATION
 40
0.0
  9
$PELEVATION
 40
0.0
  9
$THICKNESS
 40
0.0
  9
$LIMCHECK
 70
     0
  9
$CHAMFERA
 40
0.5
  9
$CHAMFERB
 40
0.5
  9
$CHAMFERC
 40
1.0
  9
$CHAMFERD
 40
0.0
  9
$SKPOLY
 70
     0
  9
$TDCREATE
 40
2456853.475198738
  9
$TDUCREATE
 40
2456853.391865405
  9
$TDUPDATE
 40
2456853.47519875
  9
$TDUUPDATE
 40
2456853.391865417
  9
$TDINDWG
 40
0.0000000116
  9
$TDUSRTIMER
 40
0.0000000116
  9
$USRTIMER
 70
     1
  9
$ANGBASE
 50
0.0
  9
$ANGDIR
 70
     0
  9
$PDMODE
 70
     0
  9
$PDSIZE
 40
0.0
  9
$PLINEWID
 40
0.0
  9
$SPLFRAME
 70
     0
  9
$SPLINETYPE
 70
     6
  9
$SPLINESEGS
 70
     8
  9
$HANDSEED
  5
141
  9
$SURFTAB1
 70
     6
  9
$SURFTAB2
 70
     6
  9
$SURFTYPE
 70
     6
  9
$SURFU
 70
     6
  9
$SURFV
 70
     6
  9
$UCSBASE
  2

  9
$UCSNAME
  2

  9
$UCSORG
 10
0.0
 20
0.0
 30
0.0
  9
$UCSXDIR
 10
1.0
 20
0.0
 30
0.0
  9
$UCSYDIR
 10
0.0
 20
1.0
 30
0.0
  9
$UCSORTHOREF
  2

  9
$UCSORTHOVIEW
 70
     0
  9
$UCSORGTOP
 10
0.0
 20
0.0
 30
0.0
  9
$UCSORGBOTTOM
 10
0.0
 20
0.0
 30
0.0
  9
$UCSORGLEFT
 10
0.0
 20
0.0
 30
0.0
  9
$UCSORGRIGHT
 10
0.0
 20
0.0
 30
0.0
  9
$UCSORGFRONT
 10
0.0
 20
0.0
 30
0.0
  9
$UCSORGBACK
 10
0.0
 20
0.0
 30
0.0
  9
$PUCSBASE
  2

  9
$PUCSNAME
  2

  9
$PUCSORG
 10
0.0
 20
0.0
 30
0.0
  9
$PUCSXDIR
 10
1.0
 20
0.0
 30
0.0
  9
$PUCSYDIR
 10
0.0
 20
1.0
 30
0.0
  9
$PUCSORTHOREF
  2

  9
$PUCSORTHOVIEW
 70
     0
  9
$PUCSORGTOP
 10
0.0
 20
0.0
 30
0.0
  9
$PUCSORGBOTTOM
 10
0.0
 20
0.0
 30
0.0
  9
$PUCSORGLEFT
 10
0.0
 20
0.0
 30
0.0
  9
$PUCSORGRIGHT
 10
0.0
 20
0.0
 30
0.0
  9
$PUCSORGFRONT
 10
0.0
 20
0.0
 30
0.0
  9
$PUCSORGBACK
 10
0.0
 20
0.0
 30
0.0
  9
$USERI1
 70
     0
  9
$USERI2
 70
     0
  9
$USERI3
 70
     0
  9
$USERI4
 70
     0
  9
$USERI5
 70
     0
  9
$USERR1
 40
17.0
  9
$USERR2
 40
0.0
  9
$USERR3
 40
0.0
  9
$USERR4
 40
0.0
  9
$USERR5
 40
0.0
  9
$WORLDVIEW
 70
     1
  9
$SHADEDGE
 70
     3
  9
$SHADEDIF
 70
    70
  9
$TILEMODE
 70
     1
  9
$MAXACTVP
 70
    64
  9
$PINSBASE
 10
0.0
 20
0.0
 30
0.0
  9
$PLIMCHECK
 70
     0
  9
$PEXTMIN
 10
1.00000000000000E+20
 20
1.00000000000000E+20
 30
1.00000000000000E+20
  9
$PEXTMAX
 10
-1.00000000000000E+20
 20
-1.00000000000000E+20
 30
-1.00000000000000E+20
  9
$PLIMMIN
 10
0.0
 20
0.0
  9
$PLIMMAX
 10
12.0
 20
9.0
  9
$UNITMODE
 70
     0
  9
$VISRETAIN
 70
     1
  9
$PLINEGEN
 70
     0
  9
$PSLTSCALE
 70
     1
  9
$TREEDEPTH
 70
  3020
  9
$CMLSTYLE
  2
Standard
  9
$CMLJUST
 70
     0
  9
$CMLSCALE
 40
1.0
  9
$PROXYGRAPHICS
 70
     1
  9
$MEASUREMENT
 70
     1
  9
$CELWEIGHT
370
    -1
  9
$ENDCAPS
280
     0
  9
$JOINSTYLE
280
     0
  9
$LWDISPLAY
290
     0
  9
$INSUNITS
 70
     1
  9
$HYPERLINKBASE
  1

  9
$STYLESHEET
  1

  9
$XEDIT
290
     1
  9
$CEPSNTYPE
380
     0
  9
$PSTYLEMODE
290
     1
  9
$FINGERPRINTGUID
  2
{43486269-2E25-47A2-9C57-FA50FFC5D721}
  9
$VERSIONGUID
  2
{FAEB1C32-E019-11D5-929B-00C0DF256EC4}
  9
$EXTNAMES
290
     1
  9
$PSVPSCALE
 40
0.0
  9
$OLESTARTUP
290
     0
  0
ENDSEC
  0
SECTION
  2
CLASSES
  0
CLASS
  1
ACDBDICTIONARYWDFLT
  2
AcDbDictionaryWithDefault
  3
ObjectDBX Classes
 90
        0
280
     0
281
     0
  0
CLASS
  1
VISUALSTYLE
  2
AcDbVisualStyle
  3
ObjectDBX Classes
 90
     4095
280
     0
281
     0
  0
CLASS
  1
MATERIAL
  2
AcDbMaterial
  3
ObjectDBX Classes
 90
     1153
280
     0
281
     0
  0
CLASS
  1

  2
exOdDbSpline
  3

 90
        0
280
     0
281
     1
  0
CLASS
  1
DICTIONARYVAR
  2
AcDbDictionaryVar
  3
ObjectDBX Classes
 90
        0
280
     0
281
     0
  0
CLASS
  1
ACDBPLACEHOLDER
  2
AcDbPlaceHolder
  3
ObjectDBX Classes
 90
        0
280
     0
281
     0
  0
CLASS
  1
LAYOUT
  2
AcDbLayout
  3
ObjectDBX Classes
 90
        0
280
     0
281
     0
  0
ENDSEC
  0
SECTION
  2
TABLES
  0
TABLE
  2
VPORT
  5
8
330
0
100
AcDbSymbolTable
 70
     1
  0
VPORT
  5
29
330
8
100
AcDbSymbolTableRecord
100
AcDbViewportTableRecord
  2
*Active
 70
     0
 10
0.0
 20
0.0
 11
1.0
 21
1.0
 12
854.0874689465135
 22
142.3504292833927
 13
0.0
 23
0.0
 14
0.5
 24
0.5
 15
0.5
 25
0.5
 16
0.0
 26
0.0
 36
1.0
 17
0.0
 27
0.0
 37
0.0
 40
2286.072633571727
 41
1.60267857142857
 42
50.0
 43
0.0
 44
0.0
 50
0.0
 51
0.0
 71
     0
 72
   100
 73
     1
 74
     3
 75
     0
 76
     0
 77
     0
 78
     0
281
     0
 65
     1
110
0.0
120
0.0
130
0.0
111
1.0
121
0.0
131
0.0
112
0.0
122
1.0
132
0.0
 79
     0
146
0.0
  0
ENDTAB
  0
TABLE
  2
LTYPE
  5
5
330
0
100
AcDbSymbolTable
 70
     8
  0
LTYPE
  5
14
330
5
100
AcDbSymbolTableRecord
100
AcDbLinetypeTableRecord
  2
ByBlock
 70
     0
  3

 72
    65
 73
     0
 40
0.0
  0
LTYPE
  5
15
330
5
100
AcDbSymbolTableRecord
100
AcDbLinetypeTableRecord
  2
ByLayer
 70
     0
  3

 72
    65
 73
     0
 40
0.0
  0
LTYPE
  5
16
330
5
100
AcDbSymbolTableRecord
100
AcDbLinetypeTableRecord
  2
Continuous
 70
     0
  3
Solid line
 72
    65
 73
     0
 40
0.0
  0
LTYPE
  5
3F
330
5
100
AcDbSymbolTableRecord
100
AcDbLinetypeTableRecord
  2
DASHED
 70
     0
  3
Dashed
 72
    65
 73
     2
 40
15.0
 49
7.0
 74
     0
 49
-8.0
 74
     0
  0
LTYPE
  5
40
330
5
100
AcDbSymbolTableRecord
100
AcDbLinetypeTableRecord
  2
DOTTED
 70
     0
  3
Dotted
 72
    65
 73
     2
 40
1.0
 49
0.0
 74
     0
 49
-1.0
 74
     0
  0
LTYPE
  5
41
330
5
100
AcDbSymbolTableRecord
100
AcDbLinetypeTableRecord
  2
DOT_CENTER
 70
     0
  3
Dot_Center
 72
    65
 73
     4
 40
14.0
 49
12.0
 74
     0
 49
-1.0
 74
     0
 49
0.0
 74
     0
 49
-1.0
 74
     0
  0
LTYPE
  5
42
330
5
100
AcDbSymbolTableRecord
100
AcDbLinetypeTableRecord
  2
LONG_DASHED
 70
     0
  3
Long_Dashed
 72
    65
 73
     2
 40
15.0
 49
10.0
 74
     0
 49
-5.0
 74
     0
  0
LTYPE
  5
43
330
5
100
AcDbSymbolTableRecord
100
AcDbLinetypeTableRecord
  2
DASH_CENTER
 70
     0
  3
Dash_Center
 72
    65
 73
     4
 40
14.0
 49
11.0
 74
     0
 49
-1.0
 74
     0
 49
1.0
 74
     0
 49
-1.0
 74
     0
  0
LTYPE
  5
44
330
5
100
AcDbSymbolTableRecord
100
AcDbLinetypeTableRecord
  2
PHANTOM
 70
     0
  3
Phantom
 72
    65
 73
     6
 40
13.0
 49
10.0
 74
     0
 49
-1.0
 74
     0
 49
0.0
 74
     0
 49
-1.0
 74
     0
 49
0.0
 74
     0
 49
-1.0
 74
     0
  0
LTYPE
  5
45
330
5
100
AcDbSymbolTableRecord
100
AcDbLinetypeTableRecord
  2
CENTER_DASH_DASH
 70
     0
  3
Center_Dash_Dash
 72
    65
 73
     6
 40
14.0
 49
9.0
 74
     0
 49
-1.0
 74
     0
 49
1.0
 74
     0
 49
-1.0
 74
     0
 49
1.0
 74
     0
 49
-1.0
 74
     0
  0
ENDTAB
  0
TABLE
  2
LAYER
  5
2
330
0
100
AcDbSymbolTable
 70
     2
  0
LAYER
  5
10
330
2
100
AcDbSymbolTableRecord
100
AcDbLayerTableRecord
  2
0
 70
     0
 62
     7
  6
Continuous
370
    -3
390
F
  0
LAYER
  5
46
330
2
100
AcDbSymbolTableRecord
100
AcDbLayerTableRecord
  2
1
 70
     0
 62
     7
  6
Continuous
370
    -3
390
F
  0
ENDTAB
  0
TABLE
  2
STYLE
  5
3
330
0
100
AcDbSymbolTable
 70
     1
  0
STYLE
  5
11
330
3
100
AcDbSymbolTableRecord
100
AcDbTextStyleTableRecord
  2
Standard
 70
     0
 40
0.0
 41
1.0
 50
0.0
 71
     0
 42
0.2
  3
txt
  4

  0
ENDTAB
  0
TABLE
  2
VIEW
  5
6
330
0
100
AcDbSymbolTable
 70
     0
  0
ENDTAB
  0
TABLE
  2
UCS
  5
7
330
0
100
AcDbSymbolTable
 70
     0
  0
ENDTAB
  0
TABLE
  2
APPID
  5
9
330
0
100
AcDbSymbolTable
 70
     1
  0
APPID
  5
12
330
9
100
AcDbSymbolTableRecord
100
AcDbRegAppTableRecord
  2
ACAD
 70
     0
  0
ENDTAB
  0
TABLE
  2
DIMSTYLE
  5
A
330
0
100
AcDbSymbolTable
 70
     1
100
AcDbDimStyleTable
  0
DIMSTYLE
105
27
330
A
100
AcDbSymbolTableRecord
100
AcDbDimStyleTableRecord
  2
Standard
 70
     0
340
11
  0
ENDTAB
  0
TABLE
  2
BLOCK_RECORD
  5
1
330
0
100
AcDbSymbolTable
 70
     1
  0
BLOCK_RECORD
  5
1F
330
1
100
AcDbSymbolTableRecord
100
AcDbBlockTableRecord
  2
*Model_Space
340
22
  0
BLOCK_RECORD
  5
1B
330
1
100
AcDbSymbolTableRecord
100
AcDbBlockTableRecord
  2
*Paper_Space
340
1E
  0
BLOCK_RECORD
  5
23
330
1
100
AcDbSymbolTableRecord
100
AcDbBlockTableRecord
  2
*Paper_Space0
340
26
  0
ENDTAB
  0
ENDSEC
  0
SECTION
  2
BLOCKS
  0
BLOCK
  5
20
330
1F
100
AcDbEntity
  8
0
100
AcDbBlockBegin
  2
*Model_Space
 70
     0
 10
0.0
 20
0.0
 30
0.0
  3
*Model_Space
  1

  0
ENDBLK
  5
21
330
1F
100
AcDbEntity
  8
0
100
AcDbBlockEnd
  0
BLOCK
  5
1C
330
1B
100
AcDbEntity
 67
     1
  8
0
100
AcDbBlockBegin
  2
*Paper_Space
 70
     0
 10
0.0
 20
0.0
 30
0.0
  3
*Paper_Space
  1

  0
ENDBLK
  5
1D
330
1B
100
AcDbEntity
 67
     1
  8
0
100
AcDbBlockEnd
  0
BLOCK
  5
24
330
23
100
AcDbEntity
  8
0
100
AcDbBlockBegin
  2
*Paper_Space0
 70
     0
 10
0.0
 20
0.0
 30
0.0
  3
*Paper_Space0
  1

  0
ENDBLK
  5
25
330
23
100
AcDbEntity
  8
0
100
AcDbBlockEnd
  0
ENDSEC
  0
SECTION
  2
ENTITIES
  0
LINE
  5
47
330
1F
100
AcDbEntity
  8
0
  6
Continuous
 62
     7
100
AcDbLine
 10
-811.294177669253
 20
587.059681519463
 30
0.0
 11
-806.296140033234
 21
587.059681519462
 31
0.0
  0
LINE
  5
48
330
1F
100
AcDbEntity
  8
0
  6
Continuous
 62
     7
100
AcDbLine
 10
-811.294177669253
 20
587.059681519463
 30
0.0
 11
-811.294177669253
 21
487.059681519463
 31
0.0
  0
LINE
  5
49
330
1F
100
AcDbEntity
  8
0
  6
Continuous
 62
     7
100
AcDbLine
 10
-341.294177669253
 20
487.059681519463
 30
0.0
 11
-341.294177669253
 21
587.059681519463
 31
0.0
  0
LINE
  5
4A
330
1F
100
AcDbEntity
  8
0
  6
Continuous
 62
     7
100
AcDbLine
 10
-346.294177669253
 20
587.059424085625
 30
0.0
 11
-341.294177669253
 21
587.059681519463
 31
0.0
  0
LINE
  5
4B
330
1F
100
AcDbEntity
  8
0
  6
Continuous
 62
     7
100
AcDbLine
 10
-341.294177669253
 20
487.059681519463
 30
0.0
 11
-811.294177669253
 21
487.059681519463
 31
0.0
  0
LINE
  5
4C
330
1F
100
AcDbEntity
  8
0
  6
Continuous
 62
     7
100
AcDbLine
 10
519.469115562277
 20
587.059681519467
 30
0.0
 11
67.4691155622813
 21
551.860138328361
 31
0.0
  0
LINE
  5
4D
330
1F
100
AcDbEntity
  8
0
  6
Continuous
 62
     7
100
AcDbLine
 10
519.469115562277
 20
587.059681519467
 30
0.0
 11
519.469115562277
 21
487.059681519467
 31
0.0
  0
LINE
  5
4E
330
1F
100
AcDbEntity
  8
0
  6
Continuous
 62
     7
100
AcDbLine
 10
12.4691155622882
 20
487.059681519473
 30
0.0
 11
519.469115562277
 21
487.059681519467
 31
0.0
  0
LINE
  5
4F
330
1F
100
AcDbEntity
  8
0
  6
Continuous
 62
     7
100
AcDbLine
 10
67.4691155622802
 20
487.059681519472
 30
0.0
 11
67.4691155622829
 21
632.071179107371
 31
0.0
  0
LINE
  5
50
330
1F
100
AcDbEntity
  8
0
  6
Continuous
 62
     7
100
AcDbLine
 10
12.4691155621556
 20
631.661454477956
 30
0.0
 11
12.4691155622882
 21
487.059681519473
 31
0.0
  0
LINE
  5
51
330
1F
100
AcDbEntity
  8
0
  6
Continuous
 62
     7
100
AcDbLine
 10
-811.294177669252
 20
-696.175357342724
 30
0.0
 11
-346.292215305271
 21
-696.175357342724
 31
0.0
  0
LINE
  5
52
330
1F
100
AcDbEntity
  8
0
  6
Continuous
 62
     7
100
AcDbLine
 10
-346.292215305271
 20
-696.175357342724
 30
0.0
 11
-341.294177669252
 21
-696.175357342724
 31
0.0
  0
LINE
  5
53
330
1F
100
AcDbEntity
  8
0
  6
Continuous
 62
     7
100
AcDbLine
 10
-787.356677669252
 20
-246.175357342723
 30
0.0
 11
-365.231677669252
 21
-246.175357342728
 31
0.0
  0
LINE
  5
54
330
1F
100
AcDbEntity
  8
0
  6
Continuous
 62
     7
100
AcDbLine
 10
-365.356267440266
 20
-244.17535734274
 30
0.0
 11
-787.232087898326
 21
-244.175357342725
 31
0.0
  0
LINE
  5
55
330
1F
100
AcDbEntity
  8
0
  6
Continuous
 62
     7
100
AcDbLine
 10
-365.231677669252
 20
-246.175357342728
 30
0.0
 11
-341.294177669252
 21
-671.175357342726
 31
0.0
  0
LINE
  5
56
330
1F
100
AcDbEntity
  8
0
  6
Continuous
 62
     7
100
AcDbLine
 10
-341.294177669252
 20
-671.175357342726
 30
0.0
 11
-341.294177669252
 21
-696.175357342724
 31
0.0
  0
LINE
  5
57
330
1F
100
AcDbEntity
  8
0
  6
Continuous
 62
     7
100
AcDbLine
 10
-809.294177669253
 20
110.559681519468
 30
0.0
 11
-809.294177669253
 21
114.559681519468
 31
0.0
  0
LINE
  5
58
330
1F
100
AcDbEntity
  8
0
  6
Continuous
 62
     7
100
AcDbLine
 10
-784.294177669253
 20
110.559681519468
 30
0.0
 11
-784.294177669253
 21
114.559681519468
 31
0.0
  0
LINE
  5
59
330
1F
100
AcDbEntity
  8
0
  6
Continuous
 62
     7
100
AcDbLine
 10
-807.794177669253
 20
109.559681519468
 30
0.0
 11
-785.794177669253
 21
109.559681519468
 31
0.0
  0
LINE
  5
5A
330
1F
100
AcDbEntity
  8
0
  6
Continuous
 62
     7
100
AcDbLine
 10
-808.294177669253
 20
109.559681519468
 30
0.0
 11
-807.794177669253
 21
109.559681519468
 31
0.0
  0
LINE
  5
5B
330
1F
100
AcDbEntity
  8
0
  6
Continuous
 62
     7
100
AcDbLine
 10
-785.794177669253
 20
109.559681519468
 30
0.0
 11
-785.294177669253
 21
109.559681519468
 31
0.0
  0
LINE
  5
5C
330
1F
100
AcDbEntity
  8
0
  6
Continuous
 62
     7
100
AcDbLine
 10
-368.294177669253
 20
110.559681519468
 30
0.0
 11
-368.294177669253
 21
114.559681519468
 31
0.0
  0
LINE
  5
5D
330
1F
100
AcDbEntity
  8
0
  6
Continuous
 62
     7
100
AcDbLine
 10
-343.294177669253
 20
110.559681519468
 30
0.0
 11
-343.294177669253
 21
114.559681519468
 31
0.0
  0
LINE
  5
5E
330
1F
100
AcDbEntity
  8
0
  6
Continuous
 62
     7
100
AcDbLine
 10
-366.794177669253
 20
109.559681519468
 30
0.0
 11
-344.794177669253
 21
109.559681519468
 31
0.0
  0
LINE
  5
5F
330
1F
100
AcDbEntity
  8
0
  6
Continuous
 62
     7
100
AcDbLine
 10
-367.294177669253
 20
109.559681519468
 30
0.0
 11
-366.794177669253
 21
109.559681519468
 31
0.0
  0
LINE
  5
60
330
1F
100
AcDbEntity
  8
0
  6
Continuous
 62
     7
100
AcDbLine
 10
-344.794177669253
 20
109.559681519468
 30
0.0
 11
-344.294177669253
 21
109.559681519468
 31
0.0
  0
LINE
  5
61
330
1F
100
AcDbEntity
  8
0
  6
Continuous
 62
     7
100
AcDbLine
 10
37.9691155622772
 20
109.559681519472
 30
0.0
 11
15.9691155622772
 21
109.559681519472
 31
0.0
  0
LINE
  5
62
330
1F
100
AcDbEntity
  8
0
  6
Continuous
 62
     7
100
AcDbLine
 10
14.4691155622772
 20
114.559681519472
 30
0.0
 11
14.4691155622772
 21
110.559681519472
 31
0.0
  0
LINE
  5
63
330
1F
100
AcDbEntity
  8
0
  6
Continuous
 62
     7
100
AcDbLine
 10
15.9691155622772
 20
109.559681519472
 30
0.0
 11
15.4691155622772
 21
109.559681519472
 31
0.0
  0
LINE
  5
64
330
1F
100
AcDbEntity
  8
0
  6
Continuous
 62
     7
100
AcDbLine
 10
37.9691155622772
 20
109.559681519472
 30
0.0
 11
38.4691155622772
 21
109.559681519472
 31
0.0
  0
LINE
  5
65
330
1F
100
AcDbEntity
  8
0
  6
Continuous
 62
     7
100
AcDbLine
 10
39.4691155622772
 20
114.559681519472
 30
0.0
 11
39.4691155622772
 21
110.559681519472
 31
0.0
  0
LINE
  5
66
330
1F
100
AcDbEntity
  8
0
  6
Continuous
 62
     7
100
AcDbLine
 10
515.969115562277
 20
109.559681519472
 30
0.0
 11
493.969115562277
 21
109.559681519472
 31
0.0
  0
LINE
  5
67
330
1F
100
AcDbEntity
  8
0
  6
Continuous
 62
     7
100
AcDbLine
 10
492.469115562277
 20
114.559681519472
 30
0.0
 11
492.469115562277
 21
110.559681519472
 31
0.0
  0
LINE
  5
68
330
1F
100
AcDbEntity
  8
0
  6
Continuous
 62
     7
100
AcDbLine
 10
493.969115562277
 20
109.559681519472
 30
0.0
 11
493.469115562277
 21
109.559681519472
 31
0.0
  0
LINE
  5
69
330
1F
100
AcDbEntity
  8
0
  6
Continuous
 62
     7
100
AcDbLine
 10
515.969115562277
 20
109.559681519472
 30
0.0
 11
516.469115562277
 21
109.559681519472
 31
0.0
  0
LINE
  5
6A
330
1F
100
AcDbEntity
  8
0
  6
Continuous
 62
     7
100
AcDbLine
 10
517.469115562277
 20
114.559681519472
 30
0.0
 11
517.469115562277
 21
110.559681519472
 31
0.0
  0
LINE
  5
6B
330
1F
100
AcDbEntity
  8
0
  6
Continuous
 62
     7
100
AcDbLine
 10
-809.294177669253
 20
484.559681519468
 30
0.0
 11
-809.294177669253
 21
114.559681519468
 31
0.0
  0
LINE
  5
6C
330
1F
100
AcDbEntity
  8
0
  6
Continuous
 62
     7
100
AcDbLine
 10
-784.294177669253
 20
114.559681519468
 30
0.0
 11
-784.294177669253
 21
459.559681519468
 31
0.0
  0
LINE
  5
6D
330
1F
100
AcDbEntity
  8
0
  6
Continuous
 62
     7
100
AcDbLine
 10
-368.294177669253
 20
114.559681519468
 30
0.0
 11
-368.294177669253
 21
459.559681519468
 31
0.0
  0
LINE
  5
6E
330
1F
100
AcDbEntity
  8
0
  6
Continuous
 62
     7
100
AcDbLine
 10
-343.294177669253
 20
114.559681519468
 30
0.0
 11
-343.294177669253
 21
484.559681519468
 31
0.0
  0
LINE
  5
6F
330
1F
100
AcDbEntity
  8
0
  6
Continuous
 62
     7
100
AcDbLine
 10
-368.294177669253
 20
459.559681519468
 30
0.0
 11
-784.294177669253
 21
459.559681519468
 31
0.0
  0
LINE
  5
70
330
1F
100
AcDbEntity
  8
0
  6
Continuous
 62
     7
100
AcDbLine
 10
492.469115562277
 20
459.559681519472
 30
0.0
 11
39.4691155622772
 21
459.559681519472
 31
0.0
  0
LINE
  5
71
330
1F
100
AcDbEntity
  8
0
  6
Continuous
 62
     7
100
AcDbLine
 10
517.469115562277
 20
484.559681519472
 30
0.0
 11
14.4691155622772
 21
484.559681519473
 31
0.0
  0
LINE
  5
72
330
1F
100
AcDbEntity
  8
0
  6
Continuous
 62
     7
100
AcDbLine
 10
14.4691155622772
 20
484.559681519473
 30
0.0
 11
14.4691155622772
 21
114.559681519472
 31
0.0
  0
LINE
  5
73
330
1F
100
AcDbEntity
  8
0
  6
Continuous
 62
     7
100
AcDbLine
 10
14.4691155622772
 20
114.559681519472
 30
0.0
 11
39.4691155622772
 21
114.559681519472
 31
0.0
  0
LINE
  5
74
330
1F
100
AcDbEntity
  8
0
  6
Continuous
 62
     7
100
AcDbLine
 10
492.469115562277
 20
459.559681519472
 30
0.0
 11
492.469115562277
 21
114.559681519472
 31
0.0
  0
LINE
  5
75
330
1F
100
AcDbEntity
  8
0
  6
Continuous
 62
     7
100
AcDbLine
 10
492.469115562277
 20
114.559681519472
 30
0.0
 11
517.469115562277
 21
114.559681519472
 31
0.0
  0
LINE
  5
76
330
1F
100
AcDbEntity
  8
0
  6
Continuous
 62
     7
100
AcDbLine
 10
-809.294177669253
 20
484.559681519468
 30
0.0
 11
-343.294177669253
 21
484.559681519468
 31
0.0
  0
LINE
  5
77
330
1F
100
AcDbEntity
  8
1
  6
Continuous
 62
     7
100
AcDbLine
 10
-787.217289506929
 20
584.662227564076
 30
0.0
 11
-787.448137039619
 21
980.095811989861
 31
0.0
  0
LINE
  5
78
330
1F
100
AcDbEntity
  8
0
  6
Continuous
 62
     7
100
AcDbLine
 10
-784.294177669253
 20
114.559681519468
 30
0.0
 11
-809.294177669253
 21
114.559681519468
 31
0.0
  0
LINE
  5
79
330
1F
100
AcDbEntity
  8
0
  6
Continuous
 62
     7
100
AcDbLine
 10
-368.294177669253
 20
114.559681519468
 30
0.0
 11
-343.294177669253
 21
114.559681519468
 31
0.0
  0
LINE
  5
7A
330
1F
100
AcDbEntity
  8
0
  6
Continuous
 62
     7
100
AcDbLine
 10
39.4691155622772
 20
459.559681519472
 30
0.0
 11
39.4691155622772
 21
114.559681519472
 31
0.0
  0
LINE
  5
7B
330
1F
100
AcDbEntity
  8
1
  6
Continuous
 62
     7
100
AcDbLine
 10
517.469115562277
 20
484.559681519472
 30
0.0
 11
517.469115562277
 21
114.559681519472
 31
0.0
  0
LINE
  5
7C
330
1F
100
AcDbEntity
  8
1
  6
Continuous
 62
     7
100
AcDbLine
 10
-88.4411204330247
 20
956.66181004999
 30
0.0
 11
-0.98462107859268
 21
980.095708365383
 31
0.0
  0
LINE
  5
7D
330
1F
100
AcDbEntity
  8
1
  6
Continuous
 62
     7
100
AcDbLine
 10
43.5149715372725
 20
814.020967464485
 30
0.0
 11
-0.98462107859268
 21
980.095708365383
 31
0.0
  0
LINE
  5
7E
330
1F
100
AcDbEntity
  8
1
  6
Continuous
 62
     7
100
AcDbLine
 10
-58.0638082308167
 20
964.80138630214
 30
0.0
 11
-5.62427060742175
 21
769.094367162203
 31
0.0
  0
LINE
  5
7F
330
1F
100
AcDbEntity
  8
1
  6
Continuous
 62
     7
100
AcDbLine
 10
3.60983043278435
 20
613.122983811036
 30
0.0
 11
-88.4411204330247
 21
956.66181004999
 31
0.0
  0
LINE
  5
80
330
1F
100
AcDbEntity
  8
1
  6
Continuous
 62
     7
100
AcDbLine
 10
-811.294177669252
 20
-671.175357342726
 30
0.0
 11
-811.294177669252
 21
-696.175357342724
 31
0.0
  0
LINE
  5
81
330
1F
100
AcDbEntity
  8
1
  6
Continuous
 62
     7
100
AcDbLine
 10
-811.294177669252
 20
-671.175357342726
 30
0.0
 11
-787.356677669252
 21
-246.175357342723
 31
0.0
  0
LINE
  5
82
330
1F
100
AcDbEntity
  8
1
  6
Continuous
 62
     7
100
AcDbLine
 10
-787.232087898326
 20
-244.175357342725
 30
0.0
 11
-787.232087898326
 21
-175.721620701855
 31
0.0
  0
LINE
  5
83
330
1F
100
AcDbEntity
  8
1
  6
Continuous
 62
     7
100
AcDbLine
 10
-787.446949988754
 20
-175.721620701854
 30
0.0
 11
-783.75365481089
 21
-118.642433549625
 31
0.0
  0
LINE
  5
84
330
1F
100
AcDbEntity
  8
1
  6
Continuous
 62
     7
100
AcDbLine
 10
-368.834700527614
 20
-118.642433549625
 30
0.0
 11
-365.14140534975
 21
-175.721620701854
 31
0.0
  0
LINE
  5
85
330
1F
100
AcDbEntity
  8
1
  6
Continuous
 62
     7
100
AcDbLine
 10
-365.356267440178
 20
-175.721620701855
 30
0.0
 11
-365.356267440266
 21
-244.17535734274
 31
0.0
  0
LINE
  5
86
330
1F
100
AcDbEntity
  8
1
  6
Continuous
 62
     7
100
AcDbLine
 10
1634.64373255982
 20
-175.721620701855
 30
0.0
 11
1634.64373255982
 21
-244.175357342725
 31
0.0
  0
LINE
  5
87
330
1F
100
AcDbEntity
  8
1
  6
Continuous
 62
     7
100
AcDbLine
 10
1631.16529947239
 20
-118.642433549625
 30
0.0
 11
1634.85859465025
 21
-175.721620701854
 31
0.0
  0
LINE
  5
88
330
1F
100
AcDbEntity
  8
0
  6
Continuous
 62
     7
100
AcDbLine
 10
1678.70582233075
 20
-536.175357342724
 30
0.0
 11
1651.10214586016
 21
-536.175357342724
 31
0.0
  0
LINE
  5
89
330
1F
100
AcDbEntity
  8
1
  6
Continuous
 62
     7
100
AcDbLine
 10
1678.70582233075
 20
-261.675357342724
 30
0.0
 11
1653.70582233075
 21
-261.675357342724
 31
0.0
  0
LINE
  5
8A
330
1F
100
AcDbEntity
  8
1
  6
Continuous
 62
     7
100
AcDbLine
 10
1212.55305001125
 20
-175.721620701855
 30
0.0
 11
1216.24634518911
 21
-118.642433549625
 31
0.0
  0
LINE
  5
8B
330
1F
100
AcDbEntity
  8
1
  6
Continuous
 62
     7
100
AcDbLine
 10
1212.76791210167
 20
-244.175357342725
 30
0.0
 11
1212.76791210167
 21
-175.721620701855
 31
0.0
  0
LINE
  5
8C
330
1F
100
AcDbEntity
  8
1
  6
Continuous
 62
     7
100
AcDbLine
 10
1188.70582233075
 20
-671.175357342726
 30
0.0
 11
1212.64332233075
 21
-246.175357342723
 31
0.0
  0
LINE
  5
8D
330
1F
100
AcDbEntity
  8
1
  6
Continuous
 62
     7
100
AcDbLine
 10
1188.70582233075
 20
-671.175357342726
 30
0.0
 11
1188.70582233075
 21
-696.175357342724
 31
0.0
  0
LINE
  5
8E
330
1F
100
AcDbEntity
  8
1
  6
Continuous
 62
     7
100
AcDbLine
 10
2003.60983043278
 20
613.122983811036
 30
0.0
 11
1911.55887956697
 21
956.66181004999
 31
0.0
  0
LINE
  5
8F
330
1F
100
AcDbEntity
  8
1
  6
Continuous
 62
     7
100
AcDbLine
 10
1941.93619176918
 20
964.80138630214
 30
0.0
 11
1994.37572939258
 21
769.094367162203
 31
0.0
  0
LINE
  5
90
330
1F
100
AcDbEntity
  8
1
  6
Continuous
 62
     7
100
AcDbLine
 10
2043.51497153727
 20
814.020967464485
 30
0.0
 11
1999.01537892141
 21
980.095708365383
 31
0.0
  0
LINE
  5
91
330
1F
100
AcDbEntity
  8
1
  6
Continuous
 62
     7
100
AcDbLine
 10
1911.55887956697
 20
956.66181004999
 30
0.0
 11
1999.01537892141
 21
980.095708365383
 31
0.0
  0
LINE
  5
92
330
1F
100
AcDbEntity
  8
1
  6
Continuous
 62
     7
100
AcDbLine
 10
2359.96911556227
 20
754.059681519473
 30
0.0
 11
2359.96911556227
 21
748.559681519473
 31
0.0
  0
LINE
  5
93
330
1F
100
AcDbEntity
  8
1
  6
Continuous
 62
     7
100
AcDbLine
 10
2084.96911556227
 20
754.059681519473
 30
0.0
 11
2359.96911556227
 21
754.059681519473
 31
0.0
  0
LINE
  5
94
330
1F
100
AcDbEntity
  8
1
  6
Continuous
 62
     7
100
AcDbLine
 10
2084.96911556227
 20
748.559681519473
 30
0.0
 11
2084.96911556227
 21
754.059681519473
 31
0.0
  0
LINE
  5
95
330
1F
100
AcDbEntity
  8
1
  6
Continuous
 62
     7
100
AcDbLine
 10
2517.46911556228
 20
484.559681519472
 30
0.0
 11
2517.46911556228
 21
114.559681519472
 31
0.0
  0
LINE
  5
96
330
1F
100
AcDbEntity
  8
0
  6
Continuous
 62
     7
100
AcDbLine
 10
2039.46911556228
 20
459.559681519472
 30
0.0
 11
2039.46911556228
 21
114.559681519472
 31
0.0
  0
LINE
  5
97
330
1F
100
AcDbEntity
  8
0
  6
Continuous
 62
     7
100
AcDbLine
 10
1631.70582233075
 20
114.559681519468
 30
0.0
 11
1656.70582233075
 21
114.559681519468
 31
0.0
  0
LINE
  5
98
330
1F
100
AcDbEntity
  8
0
  6
Continuous
 62
     7
100
AcDbLine
 10
1215.70582233075
 20
114.559681519468
 30
0.0
 11
1190.70582233075
 21
114.559681519468
 31
0.0
  0
LINE
  5
99
330
1F
100
AcDbEntity
  8
1
  6
Continuous
 62
     7
100
AcDbLine
 10
1212.78271049307
 20
584.662227564076
 30
0.0
 11
1212.55186296038
 21
980.095811989861
 31
0.0
  0
LINE
  5
9A
330
1F
100
AcDbEntity
  8
1
  6
Continuous
 62
     7
100
AcDbLine
 10
1679.20582233075
 20
748.559681519468
 30
0.0
 11
1679.20582233075
 21
754.059681519468
 31
0.0
  0
LINE
  5
9B
330
1F
100
AcDbEntity
  8
1
  6
Continuous
 62
     7
100
AcDbLine
 10
1679.20582233075
 20
754.059681519468
 30
0.0
 11
1653.20582233075
 21
754.059681519468
 31
0.0
  0
LINE
  5
9C
330
1F
100
AcDbEntity
  8
1
  6
Continuous
 62
     7
100
AcDbLine
 10
1653.20582233075
 20
748.559681519468
 30
0.0
 11
1653.20582233075
 21
754.059681519468
 31
0.0
  0
LINE
  5
9D
330
1F
100
AcDbEntity
  8
0
  6
Continuous
 62
     7
100
AcDbLine
 10
1653.70582233075
 20
747.559681278785
 30
0.0
 11
1653.70582233075
 21
587.059424085625
 31
0.0
  0
LINE
  5
9E
330
1F
100
AcDbEntity
  8
0
  6
Continuous
 62
     7
100
AcDbLine
 10
1678.70582233075
 20
459.559681519468
 30
0.0
 11
1678.70582233075
 21
747.559680961544
 31
0.0
  0
LINE
  5
9F
330
1F
100
AcDbEntity
  8
0
  6
Continuous
 62
     7
100
AcDbLine
 10
1190.70582233075
 20
484.559681519468
 30
0.0
 11
1656.70582233075
 21
484.559681519468
 31
0.0
  0
LINE
  5
A0
330
1F
100
AcDbEntity
  8
0
  6
Continuous
 62
     7
100
AcDbLine
 10
2084.96911556227
 20
748.559681519473
 30
0.0
 11
2359.96911556227
 21
748.559681519473
 31
0.0
  0
LINE
  5
A1
330
1F
100
AcDbEntity
  8
0
  6
Continuous
 62
     7
100
AcDbLine
 10
1653.20582233075
 20
748.559681519468
 30
0.0
 11
1679.20582233075
 21
748.559681519468
 31
0.0
  0
LINE
  5
A2
330
1F
100
AcDbEntity
  8
0
  6
Continuous
 62
     7
100
AcDbLine
 10
1653.70582233075
 20
-216.175357342724
 30
0.0
 11
1653.70582233075
 21
-536.175357342724
 31
0.0
  0
LINE
  5
A3
330
1F
100
AcDbEntity
  8
0
  6
Continuous
 62
     7
100
AcDbLine
 10
1678.70582233075
 20
-189.175357475755
 30
0.0
 11
1678.70582233075
 21
-536.175357342724
 31
0.0
  0
LINE
  5
A4
330
1F
100
AcDbEntity
  8
0
  6
Continuous
 62
     7
100
AcDbLine
 10
1634.85859465088
 20
-189.175357342724
 30
0.0
 11
1678.70582233075
 21
-189.175357475755
 31
0.0
  0
LINE
  5
A5
330
1F
100
AcDbEntity
  8
0
  6
Continuous
 62
     7
100
AcDbLine
 10
1650.25729291898
 20
-521.175357342724
 30
0.0
 11
1653.70582233075
 21
-521.175357342724
 31
0.0
  0
LINE
  5
A6
330
1F
100
AcDbEntity
  8
0
  6
Continuous
 62
     7
100
AcDbLine
 10
1653.70582233075
 20
-216.175357342724
 30
0.0
 11
1634.85859465574
 21
-216.175357342724
 31
0.0
  0
LINE
  5
A7
330
1F
100
AcDbEntity
  8
0
  6
Continuous
 62
     7
100
AcDbLine
 10
2344.46911556228
 20
732.55968125341
 30
0.0
 11
2012.46911569531
 21
732.559681539277
 31
0.0
  0
LINE
  5
A8
330
1F
100
AcDbEntity
  8
0
  6
Continuous
 62
     7
100
AcDbLine
 10
2359.46911556228
 20
747.55968125341
 30
0.0
 11
2012.46911569531
 21
747.55968153836
 31
0.0
  0
LINE
  5
A9
330
1F
100
AcDbEntity
  8
0
  6
Continuous
 62
     7
100
AcDbLine
 10
2012.46911569531
 20
747.55968153836
 30
0.0
 11
2012.46911569531
 21
732.559681539277
 31
0.0
  0
LINE
  5
AA
330
1F
100
AcDbEntity
  8
0
  6
Continuous
 62
     7
100
AcDbLine
 10
2344.46911556228
 20
732.55968125341
 30
0.0
 11
2344.46911556228
 21
459.559681519472
 31
0.0
  0
LINE
  5
AB
330
1F
100
AcDbEntity
  8
0
  6
Continuous
 62
     7
100
AcDbLine
 10
2359.46911556228
 20
747.55968125341
 30
0.0
 11
2359.46911556228
 21
459.559681519472
 31
0.0
  0
LINE
  5
AC
330
1F
100
AcDbEntity
  8
0
  6
Continuous
 62
     7
100
AcDbLine
 10
2492.46911556228
 20
114.559681519472
 30
0.0
 11
2517.46911556228
 21
114.559681519472
 31
0.0
  0
LINE
  5
AD
330
1F
100
AcDbEntity
  8
0
  6
Continuous
 62
     7
100
AcDbLine
 10
2492.46911556228
 20
459.559681519472
 30
0.0
 11
2492.46911556228
 21
114.559681519472
 31
0.0
  0
LINE
  5
AE
330
1F
100
AcDbEntity
  8
0
  6
Continuous
 62
     7
100
AcDbLine
 10
2014.46911556228
 20
114.559681519472
 30
0.0
 11
2039.46911556228
 21
114.559681519472
 31
0.0
  0
LINE
  5
AF
330
1F
100
AcDbEntity
  8
0
  6
Continuous
 62
     7
100
AcDbLine
 10
2014.46911556228
 20
484.559681519473
 30
0.0
 11
2014.46911556228
 21
114.559681519472
 31
0.0
  0
LINE
  5
B0
330
1F
100
AcDbEntity
  8
0
  6
Continuous
 62
     7
100
AcDbLine
 10
2344.46911556228
 20
484.559681519472
 30
0.0
 11
2014.46911556228
 21
484.559681519473
 31
0.0
  0
LINE
  5
B1
330
1F
100
AcDbEntity
  8
0
  6
Continuous
 62
     7
100
AcDbLine
 10
2492.46911556228
 20
459.559681519472
 30
0.0
 11
2039.46911556228
 21
459.559681519472
 31
0.0
  0
LINE
  5
B2
330
1F
100
AcDbEntity
  8
0
  6
Continuous
 62
     7
100
AcDbLine
 10
1631.70582233075
 20
459.559681519468
 30
0.0
 11
1215.70582233075
 21
459.559681519468
 31
0.0
  0
LINE
  5
B3
330
1F
100
AcDbEntity
  8
0
  6
Continuous
 62
     7
100
AcDbLine
 10
1656.70582233075
 20
114.559681519468
 30
0.0
 11
1656.70582233075
 21
484.559681519468
 31
0.0
  0
LINE
  5
B4
330
1F
100
AcDbEntity
  8
0
  6
Continuous
 62
     7
100
AcDbLine
 10
1631.70582233075
 20
114.559681519468
 30
0.0
 11
1631.70582233075
 21
459.559681519468
 31
0.0
  0
LINE
  5
B5
330
1F
100
AcDbEntity
  8
0
  6
Continuous
 62
     7
100
AcDbLine
 10
1215.70582233075
 20
114.559681519468
 30
0.0
 11
1215.70582233075
 21
459.559681519468
 31
0.0
  0
LINE
  5
B6
330
1F
100
AcDbEntity
  8
0
  6
Continuous
 62
     7
100
AcDbLine
 10
1190.70582233075
 20
484.559681519468
 30
0.0
 11
1190.70582233075
 21
114.559681519468
 31
0.0
  0
LINE
  5
B7
330
1F
100
AcDbEntity
  8
0
  6
Continuous
 62
     7
100
AcDbLine
 10
1678.70582233075
 20
747.559680961544
 30
0.0
 11
1634.73896393386
 21
747.559681519468
 31
0.0
  0
LINE
  5
B8
330
1F
100
AcDbEntity
  8
0
  6
Continuous
 62
     7
100
AcDbLine
 10
1653.70582233075
 20
732.559681519468
 30
0.0
 11
1634.71765742257
 21
732.559681519468
 31
0.0
  0
LINE
  5
B9
330
1F
100
AcDbEntity
  8
0
  6
Continuous
 62
     7
100
AcDbLine
 10
1656.70582233075
 20
459.559681519468
 30
0.0
 11
1678.70582233075
 21
459.559681519468
 31
0.0
  0
LINE
  5
BA
330
1F
100
AcDbEntity
  8
0
  6
Continuous
 62
     7
100
AcDbLine
 10
2517.46911556228
 20
114.559681519472
 30
0.0
 11
2517.46911556228
 21
110.559681519472
 31
0.0
  0
LINE
  5
BB
330
1F
100
AcDbEntity
  8
0
  6
Continuous
 62
     7
100
AcDbLine
 10
2515.96911556228
 20
109.559681519472
 30
0.0
 11
2516.46911556228
 21
109.559681519472
 31
0.0
  0
LINE
  5
BC
330
1F
100
AcDbEntity
  8
0
  6
Continuous
 62
     7
100
AcDbLine
 10
2493.96911556228
 20
109.559681519472
 30
0.0
 11
2493.46911556228
 21
109.559681519472
 31
0.0
  0
LINE
  5
BD
330
1F
100
AcDbEntity
  8
0
  6
Continuous
 62
     7
100
AcDbLine
 10
2492.46911556228
 20
114.559681519472
 30
0.0
 11
2492.46911556228
 21
110.559681519472
 31
0.0
  0
LINE
  5
BE
330
1F
100
AcDbEntity
  8
0
  6
Continuous
 62
     7
100
AcDbLine
 10
2515.96911556228
 20
109.559681519472
 30
0.0
 11
2493.96911556228
 21
109.559681519472
 31
0.0
  0
LINE
  5
BF
330
1F
100
AcDbEntity
  8
0
  6
Continuous
 62
     7
100
AcDbLine
 10
2039.46911556228
 20
114.559681519472
 30
0.0
 11
2039.46911556228
 21
110.559681519472
 31
0.0
  0
LINE
  5
C0
330
1F
100
AcDbEntity
  8
0
  6
Continuous
 62
     7
100
AcDbLine
 10
2037.96911556228
 20
109.559681519472
 30
0.0
 11
2038.46911556228
 21
109.559681519472
 31
0.0
  0
LINE
  5
C1
330
1F
100
AcDbEntity
  8
0
  6
Continuous
 62
     7
100
AcDbLine
 10
2015.96911556228
 20
109.559681519472
 30
0.0
 11
2015.46911556228
 21
109.559681519472
 31
0.0
  0
LINE
  5
C2
330
1F
100
AcDbEntity
  8
0
  6
Continuous
 62
     7
100
AcDbLine
 10
2014.46911556228
 20
114.559681519472
 30
0.0
 11
2014.46911556228
 21
110.559681519472
 31
0.0
  0
LINE
  5
C3
330
1F
100
AcDbEntity
  8
0
  6
Continuous
 62
     7
100
AcDbLine
 10
2037.96911556228
 20
109.559681519472
 30
0.0
 11
2015.96911556228
 21
109.559681519472
 31
0.0
  0
LINE
  5
C4
330
1F
100
AcDbEntity
  8
0
  6
Continuous
 62
     7
100
AcDbLine
 10
1655.20582233075
 20
109.559681519468
 30
0.0
 11
1655.70582233075
 21
109.559681519468
 31
0.0
  0
LINE
  5
C5
330
1F
100
AcDbEntity
  8
0
  6
Continuous
 62
     7
100
AcDbLine
 10
1632.70582233075
 20
109.559681519468
 30
0.0
 11
1633.20582233075
 21
109.559681519468
 31
0.0
  0
LINE
  5
C6
330
1F
100
AcDbEntity
  8
0
  6
Continuous
 62
     7
100
AcDbLine
 10
1633.20582233075
 20
109.559681519468
 30
0.0
 11
1655.20582233075
 21
109.559681519468
 31
0.0
  0
LINE
  5
C7
330
1F
100
AcDbEntity
  8
0
  6
Continuous
 62
     7
100
AcDbLine
 10
1656.70582233075
 20
110.559681519468
 30
0.0
 11
1656.70582233075
 21
114.559681519468
 31
0.0
  0
LINE
  5
C8
330
1F
100
AcDbEntity
  8
0
  6
Continuous
 62
     7
100
AcDbLine
 10
1631.70582233075
 20
110.559681519468
 30
0.0
 11
1631.70582233075
 21
114.559681519468
 31
0.0
  0
LINE
  5
C9
330
1F
100
AcDbEntity
  8
0
  6
Continuous
 62
     7
100
AcDbLine
 10
1214.20582233075
 20
109.559681519468
 30
0.0
 11
1214.70582233075
 21
109.559681519468
 31
0.0
  0
LINE
  5
CA
330
1F
100
AcDbEntity
  8
0
  6
Continuous
 62
     7
100
AcDbLine
 10
1191.70582233075
 20
109.559681519468
 30
0.0
 11
1192.20582233075
 21
109.559681519468
 31
0.0
  0
LINE
  5
CB
330
1F
100
AcDbEntity
  8
0
  6
Continuous
 62
     7
100
AcDbLine
 10
1192.20582233075
 20
109.559681519468
 30
0.0
 11
1214.20582233075
 21
109.559681519468
 31
0.0
  0
LINE
  5
CC
330
1F
100
AcDbEntity
  8
0
  6
Continuous
 62
     7
100
AcDbLine
 10
1215.70582233075
 20
110.559681519468
 30
0.0
 11
1215.70582233075
 21
114.559681519468
 31
0.0
  0
LINE
  5
CD
330
1F
100
AcDbEntity
  8
0
  6
Continuous
 62
     7
100
AcDbLine
 10
1190.70582233075
 20
110.559681519468
 30
0.0
 11
1190.70582233075
 21
114.559681519468
 31
0.0
  0
LINE
  5
CE
330
1F
100
AcDbEntity
  8
0
  6
Continuous
 62
     7
100
AcDbLine
 10
1658.70582233075
 20
-671.175357342726
 30
0.0
 11
1658.70582233075
 21
-696.175357342724
 31
0.0
  0
LINE
  5
CF
330
1F
100
AcDbEntity
  8
0
  6
Continuous
 62
     7
100
AcDbLine
 10
1634.76832233075
 20
-246.175357342728
 30
0.0
 11
1658.70582233075
 21
-671.175357342726
 31
0.0
  0
LINE
  5
D0
330
1F
100
AcDbEntity
  8
0
  6
Continuous
 62
     7
100
AcDbLine
 10
1634.64373255982
 20
-244.175357342725
 30
0.0
 11
1212.76791210167
 21
-244.175357342725
 31
0.0
  0
LINE
  5
D1
330
1F
100
AcDbEntity
  8
0
  6
Continuous
 62
     7
100
AcDbLine
 10
1212.64332233075
 20
-246.175357342723
 30
0.0
 11
1634.76832233075
 21
-246.175357342728
 31
0.0
  0
LINE
  5
D2
330
1F
100
AcDbEntity
  8
0
  6
Continuous
 62
     7
100
AcDbLine
 10
1653.70778469473
 20
-696.175357342724
 30
0.0
 11
1658.70582233075
 21
-696.175357342724
 31
0.0
  0
LINE
  5
D3
330
1F
100
AcDbEntity
  8
0
  6
Continuous
 62
     7
100
AcDbLine
 10
1188.70582233075
 20
-696.175357342724
 30
0.0
 11
1653.70778469473
 21
-696.175357342724
 31
0.0
  0
LINE
  5
D4
330
1F
100
AcDbEntity
  8
0
  6
Continuous
 62
     7
100
AcDbLine
 10
2012.46911556215
 20
631.661454477956
 30
0.0
 11
2012.46911556229
 21
487.059681519473
 31
0.0
  0
LINE
  5
D5
330
1F
100
AcDbEntity
  8
0
  6
Continuous
 62
     7
100
AcDbLine
 10
2067.46911556228
 20
487.059681519472
 30
0.0
 11
2067.46911556228
 21
632.071179107371
 31
0.0
  0
LINE
  5
D6
330
1F
100
AcDbEntity
  8
0
  6
Continuous
 62
     7
100
AcDbLine
 10
2359.46911556228
 20
487.059681519469
 30
0.0
 11
2519.46911556228
 21
487.059681519467
 31
0.0
  0
LINE
  5
D7
330
1F
100
AcDbEntity
  8
0
  6
Continuous
 62
     7
100
AcDbLine
 10
2519.46911556228
 20
587.059681519467
 30
0.0
 11
2519.46911556228
 21
487.059681519467
 31
0.0
  0
LINE
  5
D8
330
1F
100
AcDbEntity
  8
0
  6
Continuous
 62
     7
100
AcDbLine
 10
2344.46911556228
 20
573.431539797247
 30
0.0
 11
2067.46911556228
 21
551.860138328361
 31
0.0
  0
LINE
  5
D9
330
1F
100
AcDbEntity
  8
0
  6
Continuous
 62
     7
100
AcDbLine
 10
1658.70582233075
 20
487.059681519463
 30
0.0
 11
1188.70582233075
 21
487.059681519463
 31
0.0
  0
LINE
  5
DA
330
1F
100
AcDbEntity
  8
0
  6
Continuous
 62
     7
100
AcDbLine
 10
1653.70582233075
 20
587.059424085625
 30
0.0
 11
1658.70582233075
 21
587.059681519463
 31
0.0
  0
LINE
  5
DB
330
1F
100
AcDbEntity
  8
0
  6
Continuous
 62
     7
100
AcDbLine
 10
1658.70582233075
 20
487.059681519463
 30
0.0
 11
1658.70582233075
 21
587.059681519463
 31
0.0
  0
LINE
  5
DC
330
1F
100
AcDbEntity
  8
0
  6
Continuous
 62
     7
100
AcDbLine
 10
1188.70582233075
 20
587.059681519463
 30
0.0
 11
1188.70582233075
 21
487.059681519463
 31
0.0
  0
LINE
  5
DD
330
1F
100
AcDbEntity
  8
0
  6
Continuous
 62
     7
100
AcDbLine
 10
1188.70582233075
 20
587.059681519463
 30
0.0
 11
1193.70385996677
 21
587.059681519462
 31
0.0
  0
LINE
  5
DE
330
1F
100
AcDbEntity
  8
0
  6
Continuous
 62
     7
100
AcDbLine
 10
2519.46911556228
 20
587.059681519467
 30
0.0
 11
2359.46911556228
 21
574.59966623058
 31
0.0
  0
LINE
  5
DF
330
1F
100
AcDbEntity
  8
0
  6
Continuous
 62
     7
100
AcDbLine
 10
2012.46911556229
 20
487.059681519473
 30
0.0
 11
2344.46911556228
 21
487.059681519469
 31
0.0
  0
LINE
  5
E0
330
1F
100
AcDbEntity
  8
0
  6
Continuous
 62
     7
100
AcDbLine
 10
2517.46911556228
 20
484.559681519472
 30
0.0
 11
2359.46911556228
 21
484.559681519472
 31
0.0
  0
LINE
  5
E1
330
1F
100
AcDbEntity
  8
0
  6
Continuous
 62
     7
100
AcDbLine
 10
1212.69398723892
 20
732.559681519468
 30
0.0
 11
1193.70582233075
 21
732.559681519468
 31
0.0
  0
LINE
  5
E2
330
1F
100
AcDbEntity
  8
0
  6
Continuous
 62
     7
100
AcDbLine
 10
1212.67268072764
 20
747.559681519468
 30
0.0
 11
1168.70582233075
 21
747.559680961544
 31
0.0
  0
LINE
  5
E3
330
1F
100
AcDbEntity
  8
0
  6
Continuous
 62
     7
100
AcDbLine
 10
1168.20582233075
 20
748.559681519468
 30
0.0
 11
1194.20582233075
 21
748.559681519468
 31
0.0
  0
LINE
  5
E4
330
1F
100
AcDbEntity
  8
1
  6
Continuous
 62
     7
100
AcDbLine
 10
1194.20582233075
 20
754.059681519468
 30
0.0
 11
1194.20582233075
 21
748.559681519468
 31
0.0
  0
LINE
  5
E5
330
1F
100
AcDbEntity
  8
1
  6
Continuous
 62
     7
100
AcDbLine
 10
1194.20582233075
 20
754.059681519468
 30
0.0
 11
1168.20582233075
 21
754.059681519468
 31
0.0
  0
LINE
  5
E6
330
1F
100
AcDbEntity
  8
1
  6
Continuous
 62
     7
100
AcDbLine
 10
1168.20582233075
 20
754.059681519468
 30
0.0
 11
1168.20582233075
 21
748.559681519468
 31
0.0
  0
LINE
  5
E7
330
1F
100
AcDbEntity
  8
0
  6
Continuous
 62
     7
100
AcDbLine
 10
1193.70582233075
 20
587.059424085625
 30
0.0
 11
1193.70582233075
 21
747.559681278785
 31
0.0
  0
LINE
  5
E8
330
1F
100
AcDbEntity
  8
0
  6
Continuous
 62
     7
100
AcDbLine
 10
1168.70582233075
 20
747.559680961544
 30
0.0
 11
1168.70582233075
 21
459.559681519468
 31
0.0
  0
LINE
  5
E9
330
1F
100
AcDbEntity
  8
0
  6
Continuous
 62
     7
100
AcDbLine
 10
1168.70582233075
 20
459.559681519468
 30
0.0
 11
1190.70582233075
 21
459.559681519468
 31
0.0
  0
LINE
  5
EA
330
1F
100
AcDbEntity
  8
0
  6
Continuous
 62
     7
100
AcDbLine
 10
1212.55305000575
 20
-216.175357342724
 30
0.0
 11
1193.70582233075
 21
-216.175357342724
 31
0.0
  0
LINE
  5
EB
330
1F
100
AcDbEntity
  8
0
  6
Continuous
 62
     7
100
AcDbLine
 10
1168.70582233075
 20
-189.175357475755
 30
0.0
 11
1212.55305001062
 21
-189.175357342724
 31
0.0
  0
LINE
  5
EC
330
1F
100
AcDbEntity
  8
0
  6
Continuous
 62
     7
100
AcDbLine
 10
1193.70582233075
 20
-521.175357342724
 30
0.0
 11
1197.15435174251
 21
-521.175357342724
 31
0.0
  0
LINE
  5
ED
330
1F
100
AcDbEntity
  8
0
  6
Continuous
 62
     7
100
AcDbLine
 10
1168.70582233075
 20
-536.175357342724
 30
0.0
 11
1168.70582233075
 21
-189.175357475755
 31
0.0
  0
LINE
  5
EE
330
1F
100
AcDbEntity
  8
0
  6
Continuous
 62
     7
100
AcDbLine
 10
1193.70582233075
 20
-536.175357342724
 30
0.0
 11
1193.70582233075
 21
-216.175357342724
 31
0.0
  0
LINE
  5
EF
330
1F
100
AcDbEntity
  8
1
  6
Continuous
 62
     7
100
AcDbLine
 10
1193.70582233075
 20
-261.675357342724
 30
0.0
 11
1168.70582233075
 21
-261.675357342724
 31
0.0
  0
LINE
  5
F0
330
1F
100
AcDbEntity
  8
0
  6
Continuous
 62
     7
100
AcDbLine
 10
1196.30949880133
 20
-536.175357342724
 30
0.0
 11
1168.70582233075
 21
-536.175357342724
 31
0.0
  0
ARC
  5
F1
330
1F
100
AcDbEntity
  8
1
  6
Continuous
 62
     7
100
AcDbCircle
 10
-247.530884437766
 20
545.830032216466
 30
0.0
 40
260.0000000000003
100
AcDbArc
 50
0.00000000005269
 51
14.99999996986573
  0
ARC
  5
F2
330
1F
100
AcDbEntity
  8
1
  6
Continuous
 62
     7
100
AcDbCircle
 10
-518.530884437844
 20
631.661454477469
 30
0.0
 40
530.9999999999995
100
AcDbArc
 50
0.00000000005255
 51
14.99999997043039
  0
ARC
  5
F3
330
1F
100
AcDbEntity
  8
1
  6
Continuous
 62
     7
100
AcDbCircle
 10
-635.530884437717
 20
632.071179107385
 30
0.0
 40
702.9999999999999
100
AcDbArc
 50
359.9999999999989
 51
14.99999997047045
  0
ARC
  5
F4
330
1F
100
AcDbEntity
  8
1
  6
Continuous
 62
     7
100
AcDbCircle
 10
1364.46911556228
 20
632.071179107385
 30
0.0
 40
703.0
100
AcDbArc
 50
359.9999999999989
 51
8.21814583266941
  0
ARC
  5
F5
330
1F
100
AcDbEntity
  8
1
  6
Continuous
 62
     7
100
AcDbCircle
 10
1481.46911556215
 20
631.661454477469
 30
0.0
 40
531.0
100
AcDbArc
 50
0.00000000005255
 51
14.99999997043017
  0
ARC
  5
F6
330
1F
100
AcDbEntity
  8
1
  6
Continuous
 62
     7
100
AcDbCircle
 10
1752.46911556223
 20
545.830032216466
 30
0.0
 40
260.0
100
AcDbArc
 50
0.00000000005269
 51
14.99999996986575
  0
ARC
  5
F7
330
1F
100
AcDbEntity
  8
1
  6
Continuous
 62
     7
100
AcDbCircle
 10
1364.46911556228
 20
632.071179107385
 30
0.0
 40
702.999999999998
100
AcDbArc
 50
9.45538287404256
 51
14.99999997047044
  0
ARC
  5
F8
330
1F
100
AcDbEntity
  8
0
  6
Continuous
 62
     7
100
AcDbCircle
 10
-808.294177669253
 20
110.559681519468
 30
0.0
 40
1.0
100
AcDbArc
 50
180.0
 51
270.0
  0
ARC
  5
F9
330
1F
100
AcDbEntity
  8
0
  6
Continuous
 62
     7
100
AcDbCircle
 10
-785.294177669253
 20
110.559681519468
 30
0.0
 40
1.0
100
AcDbArc
 50
270.0
 51
0.0
  0
ARC
  5
FA
330
1F
100
AcDbEntity
  8
0
  6
Continuous
 62
     7
100
AcDbCircle
 10
-367.294177669253
 20
110.559681519468
 30
0.0
 40
1.0
100
AcDbArc
 50
180.0
 51
270.0
  0
ARC
  5
FB
330
1F
100
AcDbEntity
  8
0
  6
Continuous
 62
     7
100
AcDbCircle
 10
-344.294177669253
 20
110.559681519468
 30
0.0
 40
1.0
100
AcDbArc
 50
270.0
 51
0.0
  0
ARC
  5
FC
330
1F
100
AcDbEntity
  8
0
  6
Continuous
 62
     7
100
AcDbCircle
 10
15.4691155622772
 20
110.559681519472
 30
0.0
 40
1.0
100
AcDbArc
 50
180.0
 51
270.0
  0
ARC
  5
FD
330
1F
100
AcDbEntity
  8
0
  6
Continuous
 62
     7
100
AcDbCircle
 10
38.4691155622772
 20
110.559681519472
 30
0.0
 40
1.0
100
AcDbArc
 50
270.0
 51
0.0
  0
ARC
  5
FE
330
1F
100
AcDbEntity
  8
0
  6
Continuous
 62
     7
100
AcDbCircle
 10
493.469115562277
 20
110.559681519472
 30
0.0
 40
1.0
100
AcDbArc
 50
180.0
 51
270.0
  0
ARC
  5
FF
330
1F
100
AcDbEntity
  8
0
  6
Continuous
 62
     7
100
AcDbCircle
 10
516.469115562277
 20
110.559681519472
 30
0.0
 40
1.0
100
AcDbArc
 50
270.0
 51
0.0
  0
ARC
  5
100
330
1F
100
AcDbEntity
  8
1
  6
Continuous
 62
     7
100
AcDbCircle
 10
-576.294177677601
 20
2340.29372785477
 30
0.0
 40
1768.256351301112
100
AcDbArc
 50
262.5262038502286
 51
277.4737320201652
  0
ARC
  5
101
330
1F
100
AcDbEntity
  8
1
  6
Continuous
 62
     7
100
AcDbCircle
 10
-576.29417766926
 20
3398.92361617831
 30
0.0
 40
2428.026758681397
100
AcDbArc
 50
265.0109559048189
 51
274.989015977015
  0
ARC
  5
102
330
1F
100
AcDbEntity
  8
1
  6
Continuous
 62
     7
100
AcDbCircle
 10
-576.294177669252
 20
-811.867925374894
 30
0.0
 40
723.6028034579937
100
AcDbArc
 50
73.33929637253868
 51
106.6607036274613
  0
ARC
  5
103
330
1F
100
AcDbEntity
  8
1
  6
Continuous
 62
     7
100
AcDbCircle
 10
-576.294177669252
 20
-807.911726463041
 30
0.0
 40
666.520684660688
100
AcDbArc
 50
71.53057646798216
 51
108.4694235320178
  0
ARC
  5
104
330
1F
100
AcDbEntity
  8
1
  6
Continuous
 62
     7
100
AcDbCircle
 10
1423.70582233075
 20
-807.911726463041
 30
0.0
 40
666.5206846606874
100
AcDbArc
 50
71.5305764679823
 51
108.4694235320177
  0
ARC
  5
105
330
1F
100
AcDbEntity
  8
1
  6
Continuous
 62
     7
100
AcDbCircle
 10
1423.70582233075
 20
-811.867925374894
 30
0.0
 40
723.6028034579942
100
AcDbArc
 50
73.33929637253851
 51
106.6607036274615
  0
ARC
  5
106
330
1F
100
AcDbEntity
  8
1
  6
Continuous
 62
     7
100
AcDbCircle
 10
1423.70582233074
 20
3398.92361617831
 30
0.0
 40
2428.026758681397
100
AcDbArc
 50
265.0109559048188
 51
274.9890159770149
  0
ARC
  5
107
330
1F
100
AcDbEntity
  8
1
  6
Continuous
 62
     7
100
AcDbCircle
 10
1423.7058223224
 20
2340.29372785477
 30
0.0
 40
1768.256351301111
100
AcDbArc
 50
262.5262038502286
 51
277.4737320201652
  0
ARC
  5
108
330
1F
100
AcDbEntity
  8
0
  6
Continuous
 62
     7
100
AcDbCircle
 10
2516.46911556228
 20
110.559681519472
 30
0.0
 40
1.0
100
AcDbArc
 50
270.0
 51
0.0
  0
ARC
  5
109
330
1F
100
AcDbEntity
  8
0
  6
Continuous
 62
     7
100
AcDbCircle
 10
2493.46911556228
 20
110.559681519472
 30
0.0
 40
1.0
100
AcDbArc
 50
180.0
 51
270.0
  0
ARC
  5
10A
330
1F
100
AcDbEntity
  8
0
  6
Continuous
 62
     7
100
AcDbCircle
 10
2038.46911556228
 20
110.559681519472
 30
0.0
 40
1.0
100
AcDbArc
 50
270.0
 51
0.0
  0
ARC
  5
10B
330
1F
100
AcDbEntity
  8
0
  6
Continuous
 62
     7
100
AcDbCircle
 10
2015.46911556228
 20
110.559681519472
 30
0.0
 40
1.0
100
AcDbArc
 50
180.0
 51
270.0
  0
ARC
  5
10C
330
1F
100
AcDbEntity
  8
0
  6
Continuous
 62
     7
100
AcDbCircle
 10
1655.70582233075
 20
110.559681519468
 30
0.0
 40
1.0
100
AcDbArc
 50
270.0
 51
0.0
  0
ARC
  5
10D
330
1F
100
AcDbEntity
  8
0
  6
Continuous
 62
     7
100
AcDbCircle
 10
1632.70582233075
 20
110.559681519468
 30
0.0
 40
1.0
100
AcDbArc
 50
180.0
 51
270.0
  0
ARC
  5
10E
330
1F
100
AcDbEntity
  8
0
  6
Continuous
 62
     7
100
AcDbCircle
 10
1214.70582233075
 20
110.559681519468
 30
0.0
 40
1.0
100
AcDbArc
 50
270.0
 51
0.0
  0
ARC
  5
10F
330
1F
100
AcDbEntity
  8
0
  6
Continuous
 62
     7
100
AcDbCircle
 10
1191.70582233075
 20
110.559681519468
 30
0.0
 40
1.0
100
AcDbArc
 50
180.0
 51
270.0
  0
SPLINE
  5
110
330
1F
100
AcDbEntity
  8
0
  6
Continuous
 62
     7
100
AcDbSpline
210
0.0
220
0.0
230
1.0
 70
     8
 71
     3
 72
    19
 73
    15
 74
    13
 42
0.0000000001
 43
0.0000000001
 44
0.00000001
 40
0.0
 40
0.0
 40
0.0
 40
0.0
 40
28.90768681870009
 40
57.8153736374004
 40
63.00972361260926
 40
68.20407358781824
 40
73.12741399904314
 40
78.05075441026827
 40
82.97409482138676
 40
87.89743523250547
 40
93.09178520743853
 40
98.28613518237148
 40
127.1938220041189
 40
156.1015088258659
 40
156.1015088258659
 40
156.1015088258659
 40
156.1015088258659
 10
-365.141405349746
 20
980.09570836538
 30
0.0
 10
-365.1414053496826
 20
970.4598127591466
 30
0.0
 10
-365.1414053495559
 20
951.1880215466797
 30
0.0
 10
-365.1414053492157
 20
930.1847803424769
 30
0.0
 10
-365.141405348855
 20
917.0859847527709
 30
0.0
 10
-365.1414053486992
 20
911.9819712988897
 30
0.0
 10
-365.141405348535
 20
906.9682943663366
 30
0.0
 10
-365.1414053483679
 20
902.0449539551473
 30
0.0
 10
-365.1414053482011
 20
897.1216135439931
 30
0.0
 10
-365.1414053480252
 20
892.1079366116032
 30
0.0
 10
-365.1414053478339
 20
887.0039231579416
 30
0.0
 10
-365.1414053473097
 20
873.9051275674037
 30
0.0
 10
-365.1414053462399
 20
852.9018863612612
 30
0.0
 10
-365.1414053454786
 20
833.630095146763
 30
0.0
 10
-365.141405345098
 20
823.994199539514
 30
0.0
 11
-365.141405349746
 21
980.09570836538
 31
0.0
 11
-365.1414053495096
 21
951.1880215466799
 31
0.0
 11
-365.141405348995
 21
922.2803347279796
 31
0.0
 11
-365.1414053488523
 21
917.0859847527707
 31
0.0
 11
-365.1414053486945
 21
911.8916347775618
 31
0.0
 11
-365.141405348534
 21
906.9682943663369
 31
0.0
 11
-365.141405348368
 21
902.0449539551117
 31
0.0
 11
-365.1414053482001
 21
897.1216135439932
 31
0.0
 11
-365.1414053480265
 21
892.1982731328745
 31
0.0
 11
-365.1414053478317
 21
887.0039231579415
 31
0.0
 11
-365.1414053476232
 21
881.8095731830085
 31
0.0
 11
-365.141405346295
 21
852.9018863612611
 31
0.0
 11
-365.141405345098
 21
823.994199539514
 31
0.0
  0
SPLINE
  5
111
330
1F
100
AcDbEntity
  8
0
  6
Continuous
 62
     7
100
AcDbSpline
210
0.0
220
0.0
230
1.0
 70
     8
 71
     3
 72
   115
 73
   111
 74
   109
 42
0.0000000001
 43
0.0000000001
 44
0.00000001
 40
0.0
 40
0.0
 40
0.0
 40
0.0
 40
10.5196503353345
 40
21.03930067044178
 40
25.73757530531623
 40
30.43584994018583
 40
34.82207155480007
 40
39.20829316926621
 40
43.32919726937979
 40
47.45010136937365
 40
51.35242346233934
 40
55.25474555519368
 40
58.98522114731094
 40
62.71569673934607
 40
66.32106133273989
 40
69.92642592605
 40
74.74073897801465
 40
79.55505203131898
 40
84.13710633878704
 40
88.71916064576511
 40
92.98547217894411
 40
97.25178371226261
 40
99.12816285090788
 40
101.0045419895329
 40
102.9007043236041
 40
104.7968666575994
 40
106.8193289116418
 40
108.8417911658302
 40
111.1811060060309
 40
113.5204208462975
 40
116.1318555275913
 40
118.7432902091633
 40
121.646287865629
 40
124.5492855217122
 40
126.1455698310965
 40
127.7418541403943
 40
129.3497750559537
 40
130.9576959715239
 40
132.507071788099
 40
134.0564476046642
 40
135.4770966153011
 40
136.8977456259394
 40
138.1194861226845
 40
139.3412266194158
 40
140.2938768936335
 40
141.2465271678739
 40
141.7142269003233
 40
142.1819266327519
 40
142.6929661385272
 40
143.2040056443271
 40
144.0204804272226
 40
144.8369552101346
 40
145.8913222202442
 40
146.9456892303268
 40
147.8144203440247
 40
148.6831514577423
 40
149.4964383189432
 40
150.3097251801301
 40
150.9146583536129
 40
151.519591527099
 40
151.6593487085205
 40
151.7991058899411
 40
151.9501391854194
 40
152.1011724808981
 40
152.3001048064074
 40
152.499037131917
 40
152.7173324140601
 40
152.9356276962033
 40
153.1456799938721
 40
153.3557322915367
 40
153.5949421512294
 40
153.8341520109427
 40
154.2005479967876
 40
154.5669439824908
 40
154.9290659571415
 40
155.2911879323112
 40
155.524081995539
 40
155.7569760580357
 40
155.7796649733847
 40
155.802353888744
 40
155.8235013194547
 40
155.844648750151
 40
155.9802130761747
 40
156.1157774028231
 40
156.3184651486684
 40
156.521152894038
 40
157.0218184182045
 40
157.5224839428385
 40
158.0489176412567
 40
158.5753513394093
 40
159.0701558653641
 40
159.5649603914664
 40
159.9802785981807
 40
160.395596804808
 40
160.7222857047745
 40
161.0489746046414
 40
161.3356310899653
 40
161.6222875754007
 40
162.8855021172437
 40
164.1487166589698
 40
165.6796310485357
 40
167.2105454381245
 40
168.666917066652
 40
170.1232886946416
 40
171.6963350108518
 40
173.2693813281894
 40
175.0148532974034
 40
176.7603252668255
 40
180.991550306477
 40
185.2227753480594
 40
185.2227753480594
 40
185.2227753480594
 40
185.2227753480594
 10
-365.356267440266
 20
638.771580030571
 30
0.0
 10
-365.3550876356696
 20
642.2781299450445
 30
0.0
 10
-365.3527280264767
 20
649.2912297739156
 30
0.0
 10
-365.3490747352824
 20
657.8704207787241
 30
0.0
 10
-365.3458435249968
 20
664.5091531950831
 30
0.0
 10
-365.3434015194717
 20
669.1034095093748
 30
0.0
 10
-365.3408066904071
 20
673.5936480491612
 30
0.0
 10
-365.3381137837877
 20
677.8914296504395
 30
0.0
 10
-365.3352625663335
 20
682.1007719581005
 30
0.0
 10
-365.3323084748326
 20
686.1488143132403
 30
0.0
 10
-365.3291924086005
 20
690.1239958557626
 30
0.0
 10
-365.3259671153531
 20
693.9690344310692
 30
0.0
 10
-365.322577873525
 20
697.7567906756572
 30
0.0
 10
-365.319071364277
 20
701.4455609368549
 30
0.0
 10
-365.3154004825429
 20
705.0926273508377
 30
0.0
 10
-365.3111475735249
 20
709.1009725094596
 30
0.0
 10
-365.3061890388632
 20
713.512299959064
 30
0.0
 10
-365.3005711564317
 20
718.2491901010958
 30
0.0
 10
-365.2948095720626
 20
722.9086604296584
 30
0.0
 10
-365.2890984982728
 20
727.385463503591
 30
0.0
 10
-365.2833990886339
 20
731.7570189130763
 30
0.0
 10
-365.2788273913322
 20
735.2266833029266
 30
0.0
 10
-365.2753040253082
 20
737.8997042510147
 30
0.0
 10
-365.2728028836246
 20
739.7826761270726
 30
0.0
 10
-365.2702549158732
 20
741.6722423449264
 30
0.0
 10
-365.2675868959907
 20
743.6105028163646
 30
0.0
 10
-365.2647875204335
 20
745.5908631190852
 30
0.0
 10
-365.2616936308549
 20
747.7189406534667
 30
0.0
 10
-365.2583443371306
 20
749.9526354549222
 30
0.0
 10
-365.2545799449886
 20
752.3826539940867
 30
0.0
 10
-365.2505404750636
 20
754.9033788265197
 30
0.0
 10
-365.246049468639
 20
757.6119974445102
 30
0.0
 10
-365.2412350901834
 20
760.4178033138231
 30
0.0
 10
-365.2368567586982
 20
762.8852259713549
 30
0.0
 10
-365.2331626678343
 20
764.9170780384196
 30
0.0
 10
-365.23021179079
 20
766.5172384957785
 30
0.0
 10
-365.2272198191752
 20
768.1212777522692
 30
0.0
 10
-365.2242273181022
 20
769.7096808160323
 30
0.0
 10
-365.2212467017147
 20
771.278568834332
 30
0.0
 10
-365.2183635828306
 20
772.7850329567359
 30
0.0
 10
-365.2155451286676
 20
774.2485881888816
 30
0.0
 10
-365.2129229545527
 20
775.602931823156
 30
0.0
 10
-365.210417991081
 20
776.8909727220664
 30
0.0
 10
-365.2082080568088
 20
778.0230143208967
 30
0.0
 10
-365.2061669633621
 20
779.0653593375556
 30
0.0
 10
-365.2046158530496
 20
779.8563579103668
 30
0.0
 10
-365.2033815938019
 20
780.4857066131117
 30
0.0
 10
-365.2024323032841
 20
780.9678520021524
 30
0.0
 10
-365.2014466213998
 20
781.4644439386082
 30
0.0
 10
-365.2002212349221
 20
782.0772939783757
 30
0.0
 10
-365.1987806957443
 20
782.7919555504518
 30
0.0
 10
-365.196958121484
 20
783.6877258883278
 30
0.0
 10
-365.1949541352199
 20
784.662793430129
 30
0.0
 10
-365.1928913488028
 20
785.655279664538
 30
0.0
 10
-365.1909375248582
 20
786.5858873593763
 30
0.0
 10
-365.189140429594
 20
787.4361351564189
 30
0.0
 10
-365.1873750485458
 20
788.2679015616654
 30
0.0
 10
-365.185790734597
 20
789.0117355063921
 30
0.0
 10
-365.1843505718326
 20
789.6861183713609
 30
0.0
 10
-365.1833885649441
 20
790.135991852251
 30
0.0
 10
-365.1827579596996
 20
790.4308070232667
 30
0.0
 10
-365.1824505901238
 20
790.5743225802252
 30
0.0
 10
-365.1821343675941
 20
790.7215968315276
 30
0.0
 10
-365.1817749647518
 20
790.8885960836109
 30
0.0
 10
-365.1813803003607
 20
791.0715616401244
 30
0.0
 10
-365.1809363889818
 20
791.2769478047892
 30
0.0
 10
-365.1804778560282
 20
791.4887882718031
 30
0.0
 10
-365.1800103062591
 20
791.7043353853686
 30
0.0
 10
-365.179547484076
 20
791.917134841228
 30
0.0
 10
-365.1790684647817
 20
792.1369058041955
 30
0.0
 10
-365.1785673445809
 20
792.3663959294244
 30
0.0
 10
-365.1779520576789
 20
792.648000492329
 30
0.0
 10
-365.1772448116977
 20
792.9720003308396
 30
0.0
 10
-365.176446462626
 20
793.3369707730805
 30
0.0
 10
-365.1756470156221
 20
793.7005165392494
 30
0.0
 10
-365.1749459763273
 20
794.019561773424
 30
0.0
 10
-365.1743429821173
 20
794.2955311482435
 30
0.0
 10
-365.1739761054819
 20
794.4583564156778
 30
0.0
 10
-365.1737596748435
 20
794.5511134609163
 30
0.0
 10
-365.173707843326
 20
794.5732884874807
 30
0.0
 10
-365.1736573398898
 20
794.5949496875287
 30
0.0
 10
-365.1735200823886
 20
794.6542359244584
 30
0.0
 10
-365.1733042877538
 20
794.751661046936
 30
0.0
 10
-365.1729678074823
 20
794.9095994879897
 30
0.0
 10
-365.1725826968247
 20
795.0899123493637
 30
0.0
 10
-365.1719373204231
 20
795.391925331596
 30
0.0
 10
-365.1710825828536
 20
795.7932640194936
 30
0.0
 10
-365.1700052720428
 20
796.3025177957425
 30
0.0
 10
-365.1689194812256
 20
796.8203609645457
 30
0.0
 10
-365.1678560252427
 20
797.3362505094606
 30
0.0
 10
-365.166839558058
 20
797.8415970707979
 30
0.0
 10
-365.1659200600431
 20
798.3099052545388
 30
0.0
 10
-365.1650718970766
 20
798.7517180870261
 30
0.0
 10
-365.1643499723198
 20
799.1374925161631
 30
0.0
 10
-365.1637014217694
 20
799.493723928066
 30
0.0
 10
-365.1631461491546
 20
799.80706819794
 30
0.0
 10
-365.1626292503505
 20
800.1070683762439
 30
0.0
 10
-365.161589186164
 20
800.7192433302623
 30
0.0
 10
-365.1600015850249
 20
801.6569371760197
 30
0.0
 10
-365.1577584334902
 20
803.0093831406218
 30
0.0
 10
-365.1554620360863
 20
804.4510624203316
 30
0.0
 10
-365.1532052756967
 20
805.9571275349153
 30
0.0
 10
-365.1511545447028
 20
807.4383453341622
 30
0.0
 10
-365.1492738258496
 20
808.9336073468276
 30
0.0
 10
-365.1475711308464
 20
810.4677611620992
 30
0.0
 10
-365.1460111965058
 20
812.098281956142
 30
0.0
 10
-365.1446664281872
 20
813.7862781811459
 30
0.0
 10
-365.1430281660066
 20
816.3603339914135
 30
0.0
 10
-365.1416671391134
 20
819.7629744874156
 30
0.0
 10
-365.1414926097698
 20
822.5837911886001
 30
0.0
 10
-365.141405345098
 20
823.994199539514
 30
0.0
 11
-365.356267440266
 21
638.771580030571
 31
0.0
 11
-365.3525713288042
 21
649.2912297165855
 31
0.0
 11
-365.3481008333016
 21
659.810879101788
 31
0.0
 11
-365.3458084340011
 21
664.5091531774045
 31
0.0
 11
-365.3433086914421
 21
669.2074271472733
 31
0.0
 11
-365.3407710901122
 21
673.5936480278365
 31
0.0
 11
-365.3380200942632
 21
677.9798687796035
 31
0.0
 11
-365.3352265747735
 21
682.1007719328676
 31
0.0
 11
-365.3322171194641
 21
686.2216749339736
 31
0.0
 11
-365.3291566768644
 21
690.1239958268449
 31
0.0
 11
-365.3258818447438
 21
694.026316545578
 31
0.0
 11
-365.3225431792044
 21
697.7567906436914
 31
0.0
 11
-365.3189963478019
 21
701.4872645496123
 31
0.0
 11
-365.3153677436741
 21
705.0926273170089
 31
0.0
 11
-365.3115427063374
 21
708.6979898812712
 31
0.0
 11
-365.3061393396496
 21
713.512299900988
 31
0.0
 11
-365.3004377776736
 21
718.3266095781283
 31
0.0
 11
-365.2947796577685
 21
722.9086603921488
 31
0.0
 11
-365.2889420520996
 21
727.490710980527
 31
0.0
 11
-365.2833892258256
 21
731.7570189000584
 31
0.0
 11
-365.2777772227004
 21
736.0233267422971
 31
0.0
 11
-365.2753008437913
 21
737.8997042468229
 31
0.0
 11
-365.2728053757813
 21
739.7760817260382
 31
0.0
 11
-365.2702460476513
 21
741.6722423328936
 31
0.0
 11
-365.2676335101891
 21
743.5684028671075
 31
0.0
 11
-365.2647739451368
 21
745.5908630995754
 31
0.0
 11
-365.2618329283027
 21
747.6133232153841
 31
0.0
 11
-365.2583249677962
 21
749.9526354253715
 31
0.0
 11
-365.2547007912828
 21
752.2919474582641
 31
0.0
 11
-365.2505163020753
 21
754.9033787870021
 31
0.0
 11
-365.2461867749365
 21
757.5148098795855
 31
0.0
 11
-365.2412067413706
 21
760.4178032644749
 31
0.0
 11
-365.2360566149303
 21
763.3207963522073
 31
0.0
 11
-365.2331557445839
 21
764.9170780257655
 31
0.0
 11
-365.2302133347364
 21
766.5133596232083
 31
0.0
 11
-365.2272148091819
 21
768.1212777428705
 31
0.0
 11
-365.2241862236684
 21
769.7291958062051
 31
0.0
 11
-365.2212430853887
 21
771.2785688274382
 31
0.0
 11
-365.2182782491528
 21
772.8279418072926
 31
0.0
 11
-365.2155426749716
 21
774.2485881841428
 31
0.0
 11
-365.2127923786147
 21
775.6692345325694
 31
0.0
 11
-365.2104164880724
 21
776.8909727191425
 31
0.0
 11
-365.2080315794798
 21
778.1127108881313
 31
0.0
 11
-365.2061665223534
 21
779.0653593366836
 31
0.0
 11
-365.204298819174
 21
780.0180077800745
 31
0.0
 11
-365.2033809920799
 21
780.4857066119382
 31
0.0
 11
-365.2024595546533
 21
780.9534054366821
 31
0.0
 11
-365.2014453782834
 21
781.4644439361216
 31
0.0
 11
-365.2004237432147
 21
781.9754824207292
 31
0.0
 11
-365.1987781170078
 21
782.7919555452218
 31
0.0
 11
-365.197117018382
 21
783.6084286383991
 31
0.0
 11
-365.1949500627716
 21
784.6627934217216
 31
0.0
 11
-365.1927586724717
 21
785.7171581545153
 31
0.0
 11
-365.1909354834283
 21
786.5858873550654
 31
0.0
 11
-365.189100045806
 21
787.4546165298431
 31
0.0
 11
-365.1873740344531
 21
788.267901559514
 31
0.0
 11
-365.1856419385433
 21
789.081186576235
 31
0.0
 11
-365.184350282739
 21
789.6861183707418
 31
0.0
 11
-365.1830568923732
 21
790.2910501615459
 31
0.0
 11
-365.1827578960867
 21
790.4308070231309
 31
0.0
 11
-365.1824585181225
 21
790.570563883898
 31
0.0
 11
-365.1821342428749
 21
790.7215968312591
 31
0.0
 11
-365.1818092193126
 21
790.8726297770122
 31
0.0
 11
-365.1813801575298
 21
791.0715616398159
 31
0.0
 11
-365.1809502387617
 21
791.2704935007696
 31
0.0
 11
-365.1804776883004
 21
791.4887882714398
 31
0.0
 11
-365.1800041314722
 21
791.7070830399294
 31
0.0
 11
-365.1795473192646
 21
791.9171348408704
 31
0.0
 11
-365.1790895181894
 21
792.1271866396543
 31
0.0
 11
-365.1785672924317
 21
792.3663959293035
 31
0.0
 11
-365.1780447537791
 21
792.60560521829
 31
0.0
 11
-365.1772445322729
 21
792.9720003302781
 31
0.0
 11
-365.1764426342187
 21
793.338395438459
 31
0.0
 11
-365.1756471196332
 21
793.7005165393099
 31
0.0
 11
-365.1748522291103
 21
794.0626376420503
 31
0.0
 11
-365.174340335365
 21
794.2955311427143
 31
0.0
 11
-365.1738125611108
 21
794.5284246072008
 31
0.0
 11
-365.1737596594315
 21
794.5511134608768
 31
0.0
 11
-365.1737066652797
 21
794.5738023143472
 31
0.0
 11
-365.173657397515
 21
794.5949496876675
 31
0.0
 11
-365.1736084755025
 21
794.6160970617761
 31
0.0
 11
-365.1733061975559
 21
794.7516610507936
 31
0.0
 11
-365.1730153784179
 21
794.887225065502
 31
0.0
 11
-365.1725826588309
 21
795.0899123494386
 31
0.0
 11
-365.1721497112846
 21
795.2925996324127
 31
0.0
 11
-365.1710837716679
 21
795.793264021861
 31
0.0
 11
-365.1700249649342
 21
796.2939284269123
 31
0.0
 11
-365.1689225830945
 21
796.8203609711044
 31
0.0
 11
-365.1678388124702
 21
797.3467935536748
 31
0.0
 11
-365.1668435147844
 21
797.8415970786097
 31
0.0
 11
-365.1658719574567
 21
798.3364006508762
 31
0.0
 11
-365.1650752451241
 21
798.751718093416
 31
0.0
 11
-365.1642986210777
 21
799.1670355739188
 31
0.0
 11
-365.1637040626538
 21
799.4937239328507
 31
0.0
 11
-365.1631253495373
 21
799.8204123201365
 31
0.0
 11
-365.1626303983757
 21
800.10706837816
 31
0.0
 11
-365.1621423353644
 21
800.3937244481057
 31
0.0
 11
-365.1600088490001
 21
801.6569371882882
 31
0.0
 11
-365.1579189464188
 21
802.9201500012123
 31
0.0
 11
-365.1554861261596
 21
804.4510624577445
 31
0.0
 11
-365.1531978451073
 21
805.981975137168
 31
0.0
 11
-365.1511852993935
 21
807.4383453751362
 31
0.0
 11
-365.1493572660017
 21
808.8947158558543
 31
0.0
 11
-365.1476112828217
 21
810.4677612030981
 31
0.0
 11
-365.1461059627357
 21
812.0408068001807
 31
0.0
 11
-365.1447130362634
 21
813.786278213601
 31
0.0
 11
-365.1435956990213
 21
815.5317498253999
 31
0.0
 11
-365.1419055823579
 21
819.762974527502
 31
0.0
 11
-365.141405345098
 21
823.994199539514
 31
0.0
  0
SPLINE
  5
112
330
1F
100
AcDbEntity
  8
0
  6
Continuous
 62
     7
100
AcDbSpline
210
0.0
220
0.0
230
1.0
 70
     8
 71
     3
 72
    87
 73
    83
 74
    81
 42
0.0000000001
 43
0.0000000001
 44
0.00000001
 40
0.0
 40
0.0
 40
0.0
 40
0.0
 40
0.7277262300681994
 40
1.4554524601407
 40
1.754742320016504
 40
2.054032179981952
 40
2.24851834029292
 40
2.443004500582113
 40
2.455746627316713
 40
2.46848875405142
 40
2.483139592385561
 40
2.497790430719927
 40
2.596014009241173
 40
2.694237587763777
 40
2.836311792842536
 40
2.978385997919923
 40
3.137348963865429
 40
3.296311929811345
 40
3.441386444619935
 40
3.586460959428974
 40
3.680709667824273
 40
3.77495837621923
 40
3.866678960137461
 40
3.958399544056034
 40
4.051845057908691
 40
4.145290571761462
 40
4.22919216112548
 40
4.313093750489385
 40
4.378256592754907
 40
4.443419435020543
 40
4.504466743661011
 40
4.565514052301706
 40
4.933169125719429
 40
5.300824199137152
 40
5.767252147519072
 40
6.233680095900992
 40
6.663068202358273
 40
7.092456308815782
 40
7.464226966980005
 40
7.835997625143888
 40
8.166064306645195
 40
8.496130988146616
 40
8.831136366093075
 40
9.166141744039647
 40
9.969493169887597
 40
10.77284459573543
 40
11.65521373258282
 40
12.53758286942998
 40
13.3656272223471
 40
14.19367157526388
 40
14.93282104501334
 40
15.6719705147628
 40
16.33210248979067
 40
16.99223446481842
 40
17.66224388860697
 40
18.33225331239528
 40
19.37021523748975
 40
20.40817716258421
 40
21.56320122480527
 40
22.71822528702633
 40
23.89666166093419
 40
25.07509803484216
 40
26.75102891435866
 40
28.42695979387538
 40
30.04421147093247
 40
31.66146314798921
 40
33.27581758888887
 40
34.89017202978853
 40
36.38311825210981
 40
37.8760644744312
 40
38.97640850248361
 40
40.07675253053601
 40
41.13706048481363
 40
42.19736843909114
 40
43.1188474468665
 40
44.04032645464208
 40
45.06959551983773
 40
46.09886458503327
 40
47.26290606113044
 40
48.42694753722749
 40
51.26727713605528
 40
54.10760673488296
 40
54.10760673488296
 40
54.10760673488296
 40
54.10760673488296
 10
-365.356267440266
 20
638.771580030571
 30
0.0
 10
-365.3563415619412
 20
638.5290046317406
 30
0.0
 10
-365.3564898052916
 20
638.0438538340782
 30
0.0
 10
-365.3565991888476
 20
637.4589397358006
 30
0.0
 10
-365.3566447453883
 20
637.0168377547658
 30
0.0
 10
-365.356661655925
 20
636.7524824618666
 30
0.0
 10
-365.3566717243049
 20
636.5230617352299
 30
0.0
 10
-365.3566757587448
 20
636.3891569195071
 30
0.0
 10
-365.3566775223778
 20
636.3158334482758
 30
0.0
 10
-365.3566778004641
 20
636.302455084344
 30
0.0
 10
-365.3566780046528
 20
636.2884404832112
 30
0.0
 10
-365.3566784434614
 20
636.2459320648164
 30
0.0
 10
-365.3566786700638
 20
636.1755660663565
 30
0.0
 10
-365.3566783767506
 20
636.062725612316
 30
0.0
 10
-365.3566781579909
 20
635.9352682827567
 30
0.0
 10
-365.3566779872991
 20
635.7875644907227
 30
0.0
 10
-365.3566778226483
 20
635.6342311117334
 30
0.0
 10
-365.3566777055987
 20
635.4798976295001
 30
0.0
 10
-365.3566776699945
 20
635.3301936309788
 30
0.0
 10
-365.3566776692728
 20
635.2020610516413
 30
0.0
 10
-365.3566776656734
 20
635.0908704077747
 30
0.0
 10
-365.3566776623844
 20
634.9974644075385
 30
0.0
 10
-365.3566776605283
 20
634.9049011154614
 30
0.0
 10
-365.3566776600459
 20
634.8126055548983
 30
0.0
 10
-365.3566776609397
 20
634.7197350176903
 30
0.0
 10
-365.3566776627688
 20
634.6294708120005
 30
0.0
 10
-365.356677665054
 20
634.5423879144735
 30
0.0
 10
-365.3566776670131
 20
634.4647325741423
 30
0.0
 10
-365.3566776683269
 20
634.3933234828442
 30
0.0
 10
-365.3566776690512
 20
634.3295324851201
 30
0.0
 10
-365.3566776692686
 20
634.2671133319378
 30
0.0
 10
-365.3566776692224
 20
634.1038634350383
 30
0.0
 10
-365.3566776692128
 20
633.8384109498794
 30
0.0
 10
-365.3566776692628
 20
633.4378315848072
 30
0.0
 10
-365.356677669267
 20
633.0043279280798
 30
0.0
 10
-365.3566776692506
 20
632.5502465936728
 30
0.0
 10
-365.3566776692493
 20
632.1085118732407
 30
0.0
 10
-365.3566776692534
 20
631.698329582881
 30
0.0
 10
-365.3566776692534
 20
631.307353108619
 30
0.0
 10
-365.3566776692527
 20
630.9494837760093
 30
0.0
 10
-365.3566776692525
 20
630.6055157689538
 30
0.0
 10
-365.3566776692529
 20
630.273802855304
 30
0.0
 10
-365.3566776692526
 20
629.9404437095059
 30
0.0
 10
-365.3566776692521
 20
629.4493229822586
 30
0.0
 10
-365.3566776692519
 20
628.8020869057113
 30
0.0
 10
-365.356677669252
 20
627.9723962428639
 30
0.0
 10
-365.3566776692519
 20
627.1163663430161
 30
0.0
 10
-365.356677669252
 20
626.2521054674789
 30
0.0
 10
-365.3566776692521
 20
625.4059528532521
 30
0.0
 10
-365.356677669252
 20
624.6075401280575
 30
0.0
 10
-365.3566776692519
 20
623.8387590305855
 30
0.0
 10
-365.3566776692522
 20
623.1259487257435
 30
0.0
 10
-365.3566776692525
 20
622.4394775858083
 30
0.0
 10
-365.3566776692527
 20
621.7760531278601
 30
0.0
 10
-365.3566776692526
 20
621.1093361869921
 30
0.0
 10
-365.356677669252
 20
620.3166759294348
 30
0.0
 10
-365.3566776692521
 20
619.4013648381093
 30
0.0
 10
-365.356677669252
 20
618.3243822006393
 30
0.0
 10
-365.356677669252
 20
617.2083788507937
 30
0.0
 10
-365.3566776692519
 20
616.045550684677
 30
0.0
 10
-365.3566776692521
 20
614.8749184146645
 30
0.0
 10
-365.3566776692519
 20
613.5306505388874
 30
0.0
 10
-365.356677669252
 20
612.0205511612401
 30
0.0
 10
-365.356677669252
 20
610.3641800158769
 30
0.0
 10
-365.3566776692525
 20
608.7273686046665
 30
0.0
 10
-365.3566776692526
 20
607.1110826729954
 30
0.0
 10
-365.3566776692526
 20
605.4957624867101
 30
0.0
 10
-365.356677669252
 20
603.9218774520032
 30
0.0
 10
-365.3566776692521
 20
602.388461823489
 30
0.0
 10
-365.356677669252
 20
601.0263829992575
 30
0.0
 10
-365.3566776692521
 20
599.7951715731153
 30
0.0
 10
-365.3566776692519
 20
598.7081729029877
 30
0.0
 10
-365.356677669252
 20
597.6345195907854
 30
0.0
 10
-365.3566776692522
 20
596.6204879520086
 30
0.0
 10
-365.3566776692525
 20
595.6527326287323
 30
0.0
 10
-365.3566776692529
 20
594.6953236018169
 30
0.0
 10
-365.3566776692525
 20
593.7019845557613
 30
0.0
 10
-365.3566776692523
 20
592.6277913535985
 30
0.0
 10
-365.3566776692523
 20
591.5086740144686
 30
0.0
 10
-365.3566776692526
 20
589.7858698307942
 30
0.0
 10
-365.3566776692525
 20
587.504302939544
 30
0.0
 10
-365.3566776692522
 20
585.6107498736587
 30
0.0
 10
-365.356677669252
 20
584.663973340716
 30
0.0
 11
-365.356267440266
 21
638.771580030571
 31
0.0
 11
-365.3564754262125
 21
638.0438538302243
 31
0.0
 11
-365.3566114639491
 21
637.3161276128669
 31
0.0
 11
-365.3566427961959
 21
637.0168377546312
 31
0.0
 11
-365.3566626762619
 21
636.717547895326
 31
0.0
 11
-365.3566712783827
 21
636.5230617352053
 31
0.0
 11
-365.3566772143073
 21
636.3285755750067
 31
0.0
 11
-365.3566775154408
 21
636.3158334482756
 31
0.0
 11
-365.3566777749569
 21
636.3030913215435
 31
0.0
 11
-365.3566779942828
 21
636.288440483211
 31
0.0
 11
-365.3566781513892
 21
636.2737896448775
 31
0.0
 11
-365.3566785747919
 21
636.1755660663572
 31
0.0
 11
-365.3566784265629
 21
636.0773424878347
 31
0.0
 11
-365.3566781712677
 21
635.9352682827562
 31
0.0
 11
-365.3566779956337
 21
635.7931940776789
 31
0.0
 11
-365.3566778310042
 21
635.6342311117335
 31
0.0
 11
-365.3566777165101
 21
635.4752681457876
 31
0.0
 11
-365.3566776756089
 21
635.330193630979
 31
0.0
 11
-365.3566776683935
 21
635.18511911617
 31
0.0
 11
-365.3566776656289
 21
635.0908704077747
 31
0.0
 11
-365.3566776625961
 21
634.9966216993797
 31
0.0
 11
-365.3566776607549
 21
634.9049011154615
 31
0.0
 11
-365.3566776602738
 21
634.8131805315429
 31
0.0
 11
-365.3566776611054
 21
634.7197350176903
 31
0.0
 11
-365.3566776629314
 21
634.6262895038375
 31
0.0
 11
-365.3566776650399
 21
634.5423879144735
 31
0.0
 11
-365.3566776670632
 21
634.4584863251096
 31
0.0
 11
-365.3566776682504
 21
634.393323482844
 31
0.0
 11
-365.3566776689785
 21
634.3281606405784
 31
0.0
 11
-365.3566776692303
 21
634.2671133319379
 31
0.0
 11
-365.3566776692521
 21
634.2060660232972
 31
0.0
 11
-365.3566776692227
 21
633.8384109498795
 31
0.0
 11
-365.3566776692525
 21
633.4707558764618
 31
0.0
 11
-365.3566776692635
 21
633.0043279280799
 31
0.0
 11
-365.3566776692529
 21
632.537899979698
 31
0.0
 11
-365.3566776692503
 21
632.1085118732407
 31
0.0
 11
-365.3566776692528
 21
631.6791237667832
 31
0.0
 11
-365.3566776692532
 21
631.3073531086189
 31
0.0
 11
-365.3566776692527
 21
630.9355824504551
 31
0.0
 11
-365.3566776692526
 21
630.6055157689538
 31
0.0
 11
-365.3566776692527
 21
630.2754490874523
 31
0.0
 11
-365.3566776692526
 21
629.9404437095059
 31
0.0
 11
-365.3566776692523
 21
629.6054383315593
 31
0.0
 11
-365.356677669252
 21
628.8020869057113
 31
0.0
 11
-365.356677669252
 21
627.9987354798635
 31
0.0
 11
-365.356677669252
 21
627.1163663430161
 31
0.0
 11
-365.356677669252
 21
626.233997206169
 31
0.0
 11
-365.356677669252
 21
625.4059528532518
 31
0.0
 11
-365.356677669252
 21
624.5779085003351
 31
0.0
 11
-365.356677669252
 21
623.8387590305856
 31
0.0
 11
-365.3566776692522
 21
623.0996095608361
 31
0.0
 11
-365.3566776692525
 21
622.4394775858083
 31
0.0
 11
-365.3566776692527
 21
621.7793456107805
 31
0.0
 11
-365.3566776692526
 21
621.109336186992
 31
0.0
 11
-365.3566776692522
 21
620.4393267632037
 31
0.0
 11
-365.3566776692521
 21
619.4013648381092
 31
0.0
 11
-365.356677669252
 21
618.3634029130147
 31
0.0
 11
-365.356677669252
 21
617.2083788507937
 31
0.0
 11
-365.356677669252
 21
616.0533547885726
 31
0.0
 11
-365.3566776692521
 21
614.8749184146648
 31
0.0
 11
-365.356677669252
 21
613.6964820407568
 31
0.0
 11
-365.3566776692521
 21
612.0205511612403
 31
0.0
 11
-365.3566776692521
 21
610.3446202817236
 31
0.0
 11
-365.3566776692525
 21
608.7273686046665
 31
0.0
 11
-365.3566776692526
 21
607.1101169276097
 31
0.0
 11
-365.3566776692525
 21
605.4957624867101
 31
0.0
 11
-365.3566776692521
 21
603.8814080458104
 31
0.0
 11
-365.3566776692521
 21
602.3884618234891
 31
0.0
 11
-365.356677669252
 21
600.8955156011677
 31
0.0
 11
-365.3566776692521
 21
599.7951715731153
 31
0.0
 11
-365.356677669252
 21
598.6948275450629
 31
0.0
 11
-365.356677669252
 21
597.6345195907853
 31
0.0
 11
-365.3566776692522
 21
596.5742116365078
 31
0.0
 11
-365.3566776692525
 21
595.6527326287325
 31
0.0
 11
-365.3566776692527
 21
594.7312536209569
 31
0.0
 11
-365.3566776692525
 21
593.7019845557612
 31
0.0
 11
-365.3566776692523
 21
592.6727154905657
 31
0.0
 11
-365.3566776692523
 21
591.5086740144685
 31
0.0
 11
-365.3566776692525
 21
590.3446325383715
 31
0.0
 11
-365.3566776692523
 21
587.5043029395437
 31
0.0
 11
-365.356677669252
 21
584.663973340716
 31
0.0
  0
SPLINE
  5
113
330
1F
100
AcDbEntity
  8
0
  6
Continuous
 62
     7
100
AcDbSpline
210
0.0
220
0.0
230
1.0
 70
     8
 71
     3
 72
    87
 73
    83
 74
    81
 42
0.0000000001
 43
0.0000000001
 44
0.00000001
 40
0.0
 40
0.0
 40
0.0
 40
0.0
 40
0.7277262300681989
 40
1.4554524601407
 40
1.754742320016503
 40
2.054032179981951
 40
2.248518340292919
 40
2.443004500582113
 40
2.455746627316712
 40
2.468488754051419
 40
2.483139592385561
 40
2.497790430719927
 40
2.596014009241172
 40
2.694237587763777
 40
2.836311792842536
 40
2.978385997919923
 40
3.137348963865429
 40
3.296311929811345
 40
3.441386444619935
 40
3.586460959428974
 40
3.680709667824273
 40
3.77495837621923
 40
3.866678960137461
 40
3.958399544056034
 40
4.051845057908691
 40
4.145290571761462
 40
4.22919216112548
 40
4.313093750489385
 40
4.378256592754907
 40
4.443419435020543
 40
4.504466743661011
 40
4.565514052301706
 40
4.933169125719429
 40
5.300824199137152
 40
5.767252147519072
 40
6.233680095900992
 40
6.663068202358273
 40
7.092456308815782
 40
7.464226966980005
 40
7.835997625143888
 40
8.166064306645195
 40
8.496130988146616
 40
8.831136366093075
 40
9.166141744039647
 40
9.969493169887597
 40
10.77284459573543
 40
11.65521373258282
 40
12.53758286942998
 40
13.3656272223471
 40
14.19367157526388
 40
14.93282104501334
 40
15.6719705147628
 40
16.33210248979067
 40
16.99223446481842
 40
17.66224388860697
 40
18.33225331239528
 40
19.37021523748975
 40
20.40817716258421
 40
21.56320122480527
 40
22.71822528702633
 40
23.89666166093419
 40
25.07509803484216
 40
26.75102891435866
 40
28.42695979387538
 40
30.04421147093247
 40
31.66146314798921
 40
33.27581758888887
 40
34.89017202978853
 40
36.38311825210981
 40
37.8760644744312
 40
38.97640850248361
 40
40.07675253053601
 40
41.13706048481363
 40
42.19736843909114
 40
43.1188474468665
 40
44.04032645464208
 40
45.06959551983773
 40
46.09886458503327
 40
47.26290606113044
 40
48.42694753722749
 40
51.26727713605528
 40
54.10760673488296
 40
54.10760673488296
 40
54.10760673488296
 40
54.10760673488296
 10
1634.64373255973
 20
638.771580030571
 30
0.0
 10
1634.643658438055
 20
638.5290046317406
 30
0.0
 10
1634.643510194706
 20
638.0438538340784
 30
0.0
 10
1634.643400811152
 20
637.4589397358002
 30
0.0
 10
1634.643355254609
 20
637.016837754766
 30
0.0
 10
1634.643338344072
 20
636.7524824618664
 30
0.0
 10
1634.643328275699
 20
636.5230617352305
 30
0.0
 10
1634.643324241257
 20
636.3891569195061
 30
0.0
 10
1634.643322477619
 20
636.315833448276
 30
0.0
 10
1634.643322199533
 20
636.302455084344
 30
0.0
 10
1634.643321995345
 20
636.2884404832112
 30
0.0
 10
1634.643321556537
 20
636.2459320648164
 30
0.0
 10
1634.643321329938
 20
636.1755660663565
 30
0.0
 10
1634.643321623251
 20
636.0627256123161
 30
0.0
 10
1634.64332184201
 20
635.9352682827566
 30
0.0
 10
1634.643322012703
 20
635.7875644907231
 30
0.0
 10
1634.643322177355
 20
635.6342311117332
 30
0.0
 10
1634.643322294403
 20
635.4798976295001
 30
0.0
 10
1634.643322330007
 20
635.3301936309788
 30
0.0
 10
1634.643322330729
 20
635.2020610516413
 30
0.0
 10
1634.643322334327
 20
635.0908704077747
 30
0.0
 10
1634.643322337618
 20
634.9974644075385
 30
0.0
 10
1634.643322339474
 20
634.9049011154614
 30
0.0
 10
1634.643322339954
 20
634.8126055548983
 30
0.0
 10
1634.64332233906
 20
634.7197350176903
 30
0.0
 10
1634.643322337231
 20
634.6294708120005
 30
0.0
 10
1634.643322334946
 20
634.5423879144735
 30
0.0
 10
1634.643322332987
 20
634.4647325741423
 30
0.0
 10
1634.643322331673
 20
634.3933234828442
 30
0.0
 10
1634.643322330948
 20
634.3295324851201
 30
0.0
 10
1634.643322330731
 20
634.2671133319378
 30
0.0
 10
1634.643322330779
 20
634.1038634350383
 30
0.0
 10
1634.64332233079
 20
633.8384109498794
 30
0.0
 10
1634.643322330738
 20
633.4378315848072
 30
0.0
 10
1634.643322330734
 20
633.0043279280798
 30
0.0
 10
1634.643322330751
 20
632.5502465936728
 30
0.0
 10
1634.643322330749
 20
632.1085118732407
 30
0.0
 10
1634.643322330744
 20
631.698329582881
 30
0.0
 10
1634.643322330745
 20
631.307353108619
 30
0.0
 10
1634.64332233075
 20
630.9494837760093
 30
0.0
 10
1634.643322330749
 20
630.6055157689538
 30
0.0
 10
1634.643322330751
 20
630.273802855304
 30
0.0
 10
1634.64332233075
 20
629.9404437095059
 30
0.0
 10
1634.64332233075
 20
629.4493229822586
 30
0.0
 10
1634.64332233075
 20
628.8020869057113
 30
0.0
 10
1634.64332233075
 20
627.9723962428639
 30
0.0
 10
1634.64332233075
 20
627.1163663430161
 30
0.0
 10
1634.64332233075
 20
626.2521054674789
 30
0.0
 10
1634.64332233075
 20
625.4059528532521
 30
0.0
 10
1634.64332233075
 20
624.6075401280575
 30
0.0
 10
1634.64332233075
 20
623.8387590305855
 30
0.0
 10
1634.64332233075
 20
623.1259487257435
 30
0.0
 10
1634.64332233075
 20
622.4394775858083
 30
0.0
 10
1634.643322330749
 20
621.7760531278601
 30
0.0
 10
1634.64332233075
 20
621.1093361869921
 30
0.0
 10
1634.643322330749
 20
620.3166759294348
 30
0.0
 10
1634.643322330751
 20
619.4013648381093
 30
0.0
 10
1634.64332233075
 20
618.3243822006393
 30
0.0
 10
1634.643322330749
 20
617.2083788507937
 30
0.0
 10
1634.64332233075
 20
616.045550684677
 30
0.0
 10
1634.64332233075
 20
614.8749184146645
 30
0.0
 10
1634.64332233075
 20
613.5306505388874
 30
0.0
 10
1634.64332233075
 20
612.0205511612401
 30
0.0
 10
1634.64332233075
 20
610.3641800158769
 30
0.0
 10
1634.64332233075
 20
608.7273686046665
 30
0.0
 10
1634.643322330749
 20
607.1110826729954
 30
0.0
 10
1634.64332233075
 20
605.4957624867101
 30
0.0
 10
1634.64332233075
 20
603.9218774520032
 30
0.0
 10
1634.64332233075
 20
602.388461823489
 30
0.0
 10
1634.64332233075
 20
601.0263829992575
 30
0.0
 10
1634.643322330749
 20
599.7951715731153
 30
0.0
 10
1634.64332233075
 20
598.7081729029877
 30
0.0
 10
1634.64332233075
 20
597.6345195907854
 30
0.0
 10
1634.64332233075
 20
596.6204879520086
 30
0.0
 10
1634.64332233075
 20
595.6527326287323
 30
0.0
 10
1634.64332233075
 20
594.6953236018169
 30
0.0
 10
1634.64332233075
 20
593.7019845557613
 30
0.0
 10
1634.64332233075
 20
592.6277913535985
 30
0.0
 10
1634.64332233075
 20
591.5086740144686
 30
0.0
 10
1634.643322330749
 20
589.7858698307942
 30
0.0
 10
1634.64332233075
 20
587.504302939544
 30
0.0
 10
1634.64332233075
 20
585.6107498736587
 30
0.0
 10
1634.64332233075
 20
584.663973340716
 30
0.0
 11
1634.64373255973
 21
638.771580030571
 31
0.0
 11
1634.643524573785
 21
638.0438538302243
 31
0.0
 11
1634.64338853605
 21
637.3161276128669
 31
0.0
 11
1634.643357203802
 21
637.0168377546312
 31
0.0
 11
1634.643337323737
 21
636.717547895326
 31
0.0
 11
1634.64332872162
 21
636.5230617352053
 31
0.0
 11
1634.64332278569
 21
636.3285755750067
 31
0.0
 11
1634.643322484556
 21
636.3158334482756
 31
0.0
 11
1634.64332222504
 21
636.3030913215435
 31
0.0
 11
1634.643322005715
 21
636.288440483211
 31
0.0
 11
1634.643321848609
 21
636.2737896448775
 31
0.0
 11
1634.643321425209
 21
636.1755660663572
 31
0.0
 11
1634.643321573438
 21
636.0773424878347
 31
0.0
 11
1634.643321828734
 21
635.9352682827562
 31
0.0
 11
1634.643322004368
 21
635.7931940776789
 31
0.0
 11
1634.643322168999
 21
635.6342311117335
 31
0.0
 11
1634.643322283492
 21
635.4752681457876
 31
0.0
 11
1634.643322324393
 21
635.330193630979
 31
0.0
 11
1634.643322331608
 21
635.18511911617
 31
0.0
 11
1634.643322334373
 21
635.0908704077747
 31
0.0
 11
1634.643322337406
 21
634.9966216993797
 31
0.0
 11
1634.643322339247
 21
634.9049011154615
 31
0.0
 11
1634.643322339727
 21
634.8131805315429
 31
0.0
 11
1634.643322338894
 21
634.7197350176903
 31
0.0
 11
1634.643322337069
 21
634.6262895038375
 31
0.0
 11
1634.64332233496
 21
634.5423879144735
 31
0.0
 11
1634.643322332937
 21
634.4584863251096
 31
0.0
 11
1634.643322331749
 21
634.393323482844
 31
0.0
 11
1634.643322331021
 21
634.3281606405784
 31
0.0
 11
1634.643322330769
 21
634.2671133319379
 31
0.0
 11
1634.643322330749
 21
634.2060660232972
 31
0.0
 11
1634.64332233078
 21
633.8384109498795
 31
0.0
 11
1634.643322330748
 21
633.4707558764618
 31
0.0
 11
1634.643322330737
 21
633.0043279280799
 31
0.0
 11
1634.643322330748
 21
632.537899979698
 31
0.0
 11
1634.643322330749
 21
632.1085118732407
 31
0.0
 11
1634.643322330745
 21
631.6791237667832
 31
0.0
 11
1634.643322330746
 21
631.3073531086189
 31
0.0
 11
1634.643322330749
 21
630.9355824504551
 31
0.0
 11
1634.64332233075
 21
630.6055157689538
 31
0.0
 11
1634.64332233075
 21
630.2754490874523
 31
0.0
 11
1634.64332233075
 21
629.9404437095059
 31
0.0
 11
1634.64332233075
 21
629.6054383315593
 31
0.0
 11
1634.64332233075
 21
628.8020869057113
 31
0.0
 11
1634.64332233075
 21
627.9987354798635
 31
0.0
 11
1634.64332233075
 21
627.1163663430161
 31
0.0
 11
1634.64332233075
 21
626.233997206169
 31
0.0
 11
1634.64332233075
 21
625.4059528532518
 31
0.0
 11
1634.64332233075
 21
624.5779085003351
 31
0.0
 11
1634.64332233075
 21
623.8387590305856
 31
0.0
 11
1634.64332233075
 21
623.0996095608361
 31
0.0
 11
1634.64332233075
 21
622.4394775858083
 31
0.0
 11
1634.64332233075
 21
621.7793456107805
 31
0.0
 11
1634.64332233075
 21
621.109336186992
 31
0.0
 11
1634.64332233075
 21
620.4393267632037
 31
0.0
 11
1634.64332233075
 21
619.4013648381092
 31
0.0
 11
1634.64332233075
 21
618.3634029130147
 31
0.0
 11
1634.64332233075
 21
617.2083788507937
 31
0.0
 11
1634.64332233075
 21
616.0533547885726
 31
0.0
 11
1634.64332233075
 21
614.8749184146648
 31
0.0
 11
1634.64332233075
 21
613.6964820407568
 31
0.0
 11
1634.64332233075
 21
612.0205511612403
 31
0.0
 11
1634.64332233075
 21
610.3446202817236
 31
0.0
 11
1634.64332233075
 21
608.7273686046665
 31
0.0
 11
1634.64332233075
 21
607.1101169276097
 31
0.0
 11
1634.64332233075
 21
605.4957624867101
 31
0.0
 11
1634.64332233075
 21
603.8814080458104
 31
0.0
 11
1634.64332233075
 21
602.3884618234891
 31
0.0
 11
1634.64332233075
 21
600.8955156011677
 31
0.0
 11
1634.64332233075
 21
599.7951715731153
 31
0.0
 11
1634.64332233075
 21
598.6948275450629
 31
0.0
 11
1634.64332233075
 21
597.6345195907853
 31
0.0
 11
1634.64332233075
 21
596.5742116365078
 31
0.0
 11
1634.64332233075
 21
595.6527326287325
 31
0.0
 11
1634.64332233075
 21
594.7312536209569
 31
0.0
 11
1634.64332233075
 21
593.7019845557612
 31
0.0
 11
1634.64332233075
 21
592.6727154905657
 31
0.0
 11
1634.64332233075
 21
591.5086740144685
 31
0.0
 11
1634.64332233075
 21
590.3446325383715
 31
0.0
 11
1634.64332233075
 21
587.5043029395437
 31
0.0
 11
1634.64332233075
 21
584.663973340716
 31
0.0
  0
SPLINE
  5
114
330
1F
100
AcDbEntity
  8
0
  6
Continuous
 62
     7
100
AcDbSpline
210
0.0
220
0.0
230
1.0
 70
     8
 71
     3
 72
   115
 73
   111
 74
   109
 42
0.0000000001
 43
0.0000000001
 44
0.00000001
 40
0.0
 40
0.0
 40
0.0
 40
0.0
 40
10.5196503353345
 40
21.03930067044178
 40
25.73757530531623
 40
30.43584994018583
 40
34.82207155480007
 40
39.20829316926621
 40
43.32919726937979
 40
47.45010136937365
 40
51.35242346233934
 40
55.25474555519368
 40
58.98522114731094
 40
62.71569673934606
 40
66.32106133273989
 40
69.92642592605
 40
74.74073897801465
 40
79.55505203131898
 40
84.13710633878704
 40
88.71916064576511
 40
92.98547217894411
 40
97.25178371226261
 40
99.12816285090788
 40
101.0045419895329
 40
102.9007043236041
 40
104.7968666575994
 40
106.8193289116418
 40
108.8417911658302
 40
111.1811060060309
 40
113.5204208462975
 40
116.1318555275913
 40
118.7432902091633
 40
121.646287865629
 40
124.5492855217122
 40
126.1455698310965
 40
127.7418541403943
 40
129.3497750559537
 40
130.9576959715238
 40
132.507071788099
 40
134.0564476046641
 40
135.477096615301
 40
136.8977456259394
 40
138.1194861226845
 40
139.3412266194157
 40
140.2938768936335
 40
141.2465271678739
 40
141.7142269003233
 40
142.1819266327519
 40
142.6929661385271
 40
143.2040056443271
 40
144.0204804272226
 40
144.8369552101346
 40
145.8913222202441
 40
146.9456892303268
 40
147.8144203440246
 40
148.6831514577422
 40
149.4964383189432
 40
150.30972518013
 40
150.9146583536128
 40
151.5195915270989
 40
151.6593487085204
 40
151.799105889941
 40
151.9501391854193
 40
152.1011724808981
 40
152.3001048064074
 40
152.499037131917
 40
152.71733241406
 40
152.9356276962033
 40
153.1456799938721
 40
153.3557322915366
 40
153.5949421512294
 40
153.8341520109427
 40
154.2005479967876
 40
154.5669439824907
 40
154.9290659571414
 40
155.2911879323112
 40
155.5240819955389
 40
155.7569760580357
 40
155.7796649733847
 40
155.802353888744
 40
155.8235013194547
 40
155.844648750151
 40
155.9802130761747
 40
156.1157774028231
 40
156.3184651486684
 40
156.521152894038
 40
157.0218184182045
 40
157.5224839428386
 40
158.0489176412567
 40
158.5753513394093
 40
159.0701558653641
 40
159.5649603914664
 40
159.9802785981807
 40
160.395596804808
 40
160.7222857047745
 40
161.0489746046414
 40
161.3356310899653
 40
161.6222875754008
 40
162.8855021172438
 40
164.1487166589699
 40
165.6796310485357
 40
167.2105454381245
 40
168.666917066652
 40
170.1232886946416
 40
171.6963350108519
 40
173.2693813281895
 40
175.0148532974034
 40
176.7603252668255
 40
180.991550306477
 40
185.2227753480594
 40
185.2227753480594
 40
185.2227753480594
 40
185.2227753480594
 10
1634.64373255973
 20
638.771580030571
 30
0.0
 10
1634.644912364329
 20
642.2781299450444
 30
0.0
 10
1634.647271973526
 20
649.2912297739156
 30
0.0
 10
1634.65092526472
 20
657.870420778724
 30
0.0
 10
1634.654156475004
 20
664.5091531950831
 30
0.0
 10
1634.656598480527
 20
669.1034095093748
 30
0.0
 10
1634.659193309591
 20
673.5936480491612
 30
0.0
 10
1634.66188621621
 20
677.8914296504395
 30
0.0
 10
1634.664737433666
 20
682.1007719581005
 30
0.0
 10
1634.66769152517
 20
686.1488143132403
 30
0.0
 10
1634.670807591402
 20
690.1239958557626
 30
0.0
 10
1634.674032884649
 20
693.969034431069
 30
0.0
 10
1634.677422126478
 20
697.7567906756574
 30
0.0
 10
1634.680928635725
 20
701.4455609368547
 30
0.0
 10
1634.684599517458
 20
705.0926273508378
 30
0.0
 10
1634.688852426475
 20
709.1009725094592
 30
0.0
 10
1634.693810961138
 20
713.5122999590641
 30
0.0
 10
1634.699428843573
 20
718.2491901010958
 30
0.0
 10
1634.70519042794
 20
722.9086604296584
 30
0.0
 10
1634.710901501727
 20
727.385463503591
 30
0.0
 10
1634.716600911364
 20
731.7570189130763
 30
0.0
 10
1634.721172608666
 20
735.2266833029266
 30
0.0
 10
1634.724695974692
 20
737.8997042510147
 30
0.0
 10
1634.727197116377
 20
739.7826761270726
 30
0.0
 10
1634.729745084128
 20
741.6722423449264
 30
0.0
 10
1634.732413104011
 20
743.6105028163646
 30
0.0
 10
1634.735212479565
 20
745.5908631190852
 30
0.0
 10
1634.738306369143
 20
747.7189406534667
 30
0.0
 10
1634.741655662866
 20
749.9526354549222
 30
0.0
 10
1634.74542005501
 20
752.3826539940867
 30
0.0
 10
1634.749459524937
 20
754.9033788265197
 30
0.0
 10
1634.753950531363
 20
757.6119974445102
 30
0.0
 10
1634.75876490982
 20
760.4178033138231
 30
0.0
 10
1634.763143241304
 20
762.8852259713549
 30
0.0
 10
1634.766837332169
 20
764.9170780384195
 30
0.0
 10
1634.769788209212
 20
766.5172384957787
 30
0.0
 10
1634.772780180825
 20
768.1212777522691
 30
0.0
 10
1634.775772681897
 20
769.7096808160322
 30
0.0
 10
1634.778753298284
 20
771.278568834332
 30
0.0
 10
1634.781636417169
 20
772.7850329567359
 30
0.0
 10
1634.784454871331
 20
774.2485881888816
 30
0.0
 10
1634.787077045445
 20
775.602931823156
 30
0.0
 10
1634.789582008918
 20
776.8909727220664
 30
0.0
 10
1634.791791943192
 20
778.0230143208967
 30
0.0
 10
1634.793833036639
 20
779.0653593375556
 30
0.0
 10
1634.795384146953
 20
779.8563579103668
 30
0.0
 10
1634.7966184062
 20
780.4857066131117
 30
0.0
 10
1634.797567696718
 20
780.9678520021524
 30
0.0
 10
1634.798553378602
 20
781.4644439386082
 30
0.0
 10
1634.79977876508
 20
782.0772939783757
 30
0.0
 10
1634.801219304259
 20
782.7919555504519
 30
0.0
 10
1634.803041878519
 20
783.6877258883276
 30
0.0
 10
1634.80504586478
 20
784.6627934301289
 30
0.0
 10
1634.807108651194
 20
785.655279664538
 30
0.0
 10
1634.809062475138
 20
786.5858873593764
 30
0.0
 10
1634.810859570404
 20
787.4361351564187
 30
0.0
 10
1634.812624951454
 20
788.2679015616658
 30
0.0
 10
1634.814209265403
 20
789.011735506392
 30
0.0
 10
1634.815649428164
 20
789.6861183713611
 30
0.0
 10
1634.816611435055
 20
790.1359918522508
 30
0.0
 10
1634.817242040302
 20
790.4308070232668
 30
0.0
 10
1634.817549409879
 20
790.5743225802252
 30
0.0
 10
1634.817865632408
 20
790.7215968315276
 30
0.0
 10
1634.818225035247
 20
790.8885960836109
 30
0.0
 10
1634.818619699639
 20
791.0715616401244
 30
0.0
 10
1634.81906361102
 20
791.2769478047892
 30
0.0
 10
1634.819522143971
 20
791.4887882718031
 30
0.0
 10
1634.819989693739
 20
791.7043353853686
 30
0.0
 10
1634.820452515923
 20
791.917134841228
 30
0.0
 10
1634.820931535217
 20
792.1369058041955
 30
0.0
 10
1634.82143265542
 20
792.3663959294244
 30
0.0
 10
1634.822047942321
 20
792.648000492329
 30
0.0
 10
1634.822755188304
 20
792.9720003308396
 30
0.0
 10
1634.823553537376
 20
793.3369707730801
 30
0.0
 10
1634.824352984383
 20
793.7005165392493
 30
0.0
 10
1634.825054023677
 20
794.0195617734246
 30
0.0
 10
1634.825657017878
 20
794.2955311482431
 30
0.0
 10
1634.826023894519
 20
794.4583564156783
 30
0.0
 10
1634.826240325161
 20
794.5511134609162
 30
0.0
 10
1634.826292156679
 20
794.5732884874808
 30
0.0
 10
1634.826342660115
 20
794.5949496875287
 30
0.0
 10
1634.826479917608
 20
794.6542359244584
 30
0.0
 10
1634.826695712243
 20
794.751661046936
 30
0.0
 10
1634.827032192514
 20
794.9095994879897
 30
0.0
 10
1634.827417303175
 20
795.0899123493637
 30
0.0
 10
1634.828062679574
 20
795.3919253315961
 30
0.0
 10
1634.828917417146
 20
795.7932640194936
 30
0.0
 10
1634.829994727959
 20
796.3025177957425
 30
0.0
 10
1634.831080518773
 20
796.8203609645454
 30
0.0
 10
1634.832143974755
 20
797.3362505094606
 30
0.0
 10
1634.833160441942
 20
797.8415970707979
 30
0.0
 10
1634.834079939959
 20
798.3099052545388
 30
0.0
 10
1634.834928102922
 20
798.7517180870261
 30
0.0
 10
1634.835650027678
 20
799.1374925161631
 30
0.0
 10
1634.836298578232
 20
799.493723928066
 30
0.0
 10
1634.836853850849
 20
799.80706819794
 30
0.0
 10
1634.837370749653
 20
800.1070683762439
 30
0.0
 10
1634.838410813834
 20
800.7192433302623
 30
0.0
 10
1634.839998414971
 20
801.6569371760197
 30
0.0
 10
1634.842241566505
 20
803.0093831406218
 30
0.0
 10
1634.844537963912
 20
804.4510624203316
 30
0.0
 10
1634.846794724305
 20
805.9571275349153
 30
0.0
 10
1634.8488454553
 20
807.4383453341622
 30
0.0
 10
1634.850726174153
 20
808.9336073468276
 30
0.0
 10
1634.852428869156
 20
810.4677611620992
 30
0.0
 10
1634.853988803495
 20
812.098281956142
 30
0.0
 10
1634.855333571812
 20
813.786278181146
 30
0.0
 10
1634.856971833992
 20
816.3603339914133
 30
0.0
 10
1634.858332860888
 20
819.7629744874156
 30
0.0
 10
1634.85850739023
 20
822.5837911886001
 30
0.0
 10
1634.8585946549
 20
823.994199539514
 30
0.0
 11
1634.64373255973
 21
638.771580030571
 31
0.0
 11
1634.647428671198
 21
649.2912297165855
 31
0.0
 11
1634.6518991667
 21
659.810879101788
 31
0.0
 11
1634.654191566
 21
664.5091531774045
 31
0.0
 11
1634.656691308557
 21
669.2074271472733
 31
0.0
 11
1634.659228909886
 21
673.5936480278365
 31
0.0
 11
1634.661979905734
 21
677.9798687796035
 31
0.0
 11
1634.664773425226
 21
682.1007719328676
 31
0.0
 11
1634.667782880538
 21
686.2216749339736
 31
0.0
 11
1634.670843323138
 21
690.1239958268449
 31
0.0
 11
1634.674118155259
 21
694.026316545578
 31
0.0
 11
1634.677456820798
 21
697.7567906436914
 31
0.0
 11
1634.6810036522
 21
701.4872645496123
 31
0.0
 11
1634.684632256327
 21
705.0926273170089
 31
0.0
 11
1634.688457293663
 21
708.6979898812712
 31
0.0
 11
1634.693860660352
 21
713.512299900988
 31
0.0
 11
1634.69956222233
 21
718.3266095781283
 31
0.0
 11
1634.705220342234
 21
722.9086603921488
 31
0.0
 11
1634.7110579479
 21
727.490710980527
 31
0.0
 11
1634.716610774173
 21
731.7570189000584
 31
0.0
 11
1634.722222777299
 21
736.0233267422971
 31
0.0
 11
1634.724699156209
 21
737.8997042468229
 31
0.0
 11
1634.72719462422
 21
739.7760817260382
 31
0.0
 11
1634.72975395235
 21
741.6722423328936
 31
0.0
 11
1634.732366489812
 21
743.5684028671075
 31
0.0
 11
1634.735226054863
 21
745.5908630995754
 31
0.0
 11
1634.738167071695
 21
747.6133232153841
 31
0.0
 11
1634.741675032201
 21
749.9526354253715
 31
0.0
 11
1634.745299208716
 21
752.2919474582641
 31
0.0
 11
1634.749483697925
 21
754.9033787870021
 31
0.0
 11
1634.753813225066
 21
757.5148098795855
 31
0.0
 11
1634.758793258633
 21
760.4178032644749
 31
0.0
 11
1634.763943385073
 21
763.3207963522073
 31
0.0
 11
1634.766844255418
 21
764.9170780257655
 31
0.0
 11
1634.769786665265
 21
766.5133596232083
 31
0.0
 11
1634.772785190819
 21
768.1212777428705
 31
0.0
 11
1634.775813776331
 21
769.7291958062051
 31
0.0
 11
1634.778756914611
 21
771.2785688274382
 31
0.0
 11
1634.781721750846
 21
772.8279418072926
 31
0.0
 11
1634.784457325027
 21
774.2485881841428
 31
0.0
 11
1634.787207621384
 21
775.6692345325694
 31
0.0
 11
1634.789583511926
 21
776.8909727191425
 31
0.0
 11
1634.79196842052
 21
778.1127108881313
 31
0.0
 11
1634.793833477648
 21
779.0653593366836
 31
0.0
 11
1634.795701180828
 21
780.0180077800745
 31
0.0
 11
1634.796619007922
 21
780.4857066119382
 31
0.0
 11
1634.797540445349
 21
780.9534054366821
 31
0.0
 11
1634.798554621719
 21
781.4644439361216
 31
0.0
 11
1634.799576256787
 21
781.9754824207292
 31
0.0
 11
1634.801221882995
 21
782.7919555452218
 31
0.0
 11
1634.802882981621
 21
783.6084286383991
 31
0.0
 11
1634.805049937228
 21
784.6627934217216
 31
0.0
 11
1634.807241327526
 21
785.7171581545153
 31
0.0
 11
1634.809064516568
 21
786.5858873550654
 31
0.0
 11
1634.810899954192
 21
787.4546165298431
 31
0.0
 11
1634.812625965546
 21
788.267901559514
 31
0.0
 11
1634.814358061456
 21
789.081186576235
 31
0.0
 11
1634.815649717259
 21
789.6861183707418
 31
0.0
 11
1634.816943107627
 21
790.2910501615459
 31
0.0
 11
1634.817242103915
 21
790.4308070231309
 31
0.0
 11
1634.81754148188
 21
790.570563883898
 31
0.0
 11
1634.817865757127
 21
790.7215968312591
 31
0.0
 11
1634.818190780688
 21
790.8726297770122
 31
0.0
 11
1634.818619842471
 21
791.0715616398159
 31
0.0
 11
1634.819049761239
 21
791.2704935007696
 31
0.0
 11
1634.819522311699
 21
791.4887882714398
 31
0.0
 11
1634.819995868526
 21
791.7070830399294
 31
0.0
 11
1634.820452680734
 21
791.9171348408704
 31
0.0
 11
1634.82091048181
 21
792.1271866396543
 31
0.0
 11
1634.821432707568
 21
792.3663959293035
 31
0.0
 11
1634.821955246221
 21
792.60560521829
 31
0.0
 11
1634.822755467728
 21
792.9720003302781
 31
0.0
 11
1634.823557365784
 21
793.338395438459
 31
0.0
 11
1634.824352880371
 21
793.7005165393099
 31
0.0
 11
1634.825147770892
 21
794.0626376420503
 31
0.0
 11
1634.825659664633
 21
794.2955311427143
 31
0.0
 11
1634.826187438892
 21
794.5284246072008
 31
0.0
 11
1634.826240340573
 21
794.5511134608768
 31
0.0
 11
1634.826293334725
 21
794.5738023143472
 31
0.0
 11
1634.826342602489
 21
794.5949496876675
 31
0.0
 11
1634.826391524499
 21
794.6160970617761
 31
0.0
 11
1634.826693802441
 21
794.7516610507936
 31
0.0
 11
1634.826984621579
 21
794.887225065502
 31
0.0
 11
1634.827417341168
 21
795.0899123494386
 31
0.0
 11
1634.827850288714
 21
795.2925996324127
 31
0.0
 11
1634.828916228332
 21
795.793264021861
 31
0.0
 11
1634.829975035067
 21
796.2939284269123
 31
0.0
 11
1634.831077416905
 21
796.8203609711044
 31
0.0
 11
1634.832161187528
 21
797.3467935536748
 31
0.0
 11
1634.833156485215
 21
797.8415970786097
 31
0.0
 11
1634.834128042544
 21
798.3364006508762
 31
0.0
 11
1634.834924754875
 21
798.751718093416
 31
0.0
 11
1634.835701378921
 21
799.1670355739188
 31
0.0
 11
1634.836295937347
 21
799.4937239328507
 31
0.0
 11
1634.836874650466
 21
799.8204123201365
 31
0.0
 11
1634.837369601627
 21
800.10706837816
 31
0.0
 11
1634.837857664636
 21
800.3937244481057
 31
0.0
 11
1634.839991150996
 21
801.6569371882882
 31
0.0
 11
1634.842081053577
 21
802.9201500012123
 31
0.0
 11
1634.844513873839
 21
804.4510624577445
 31
0.0
 11
1634.846802154894
 21
805.981975137168
 31
0.0
 11
1634.848814700609
 21
807.4383453751362
 31
0.0
 11
1634.850642734001
 21
808.8947158558543
 31
0.0
 11
1634.85238871718
 21
810.4677612030981
 31
0.0
 11
1634.853894037265
 21
812.0408068001807
 31
0.0
 11
1634.855286963736
 21
813.786278213601
 31
0.0
 11
1634.856404300978
 21
815.5317498253999
 31
0.0
 11
1634.858094417643
 21
819.762974527502
 31
0.0
 11
1634.8585946549
 21
823.994199539514
 31
0.0
  0
SPLINE
  5
115
330
1F
100
AcDbEntity
  8
0
  6
Continuous
 62
     7
100
AcDbSpline
210
0.0
220
0.0
230
1.0
 70
     8
 71
     3
 72
    19
 73
    15
 74
    13
 42
0.0000000001
 43
0.0000000001
 44
0.00000001
 40
0.0
 40
0.0
 40
0.0
 40
0.0
 40
28.90768681870009
 40
57.8153736374004
 40
63.00972361260926
 40
68.20407358781824
 40
73.12741399904314
 40
78.05075441026827
 40
82.97409482138676
 40
87.89743523250547
 40
93.09178520743853
 40
98.28613518237148
 40
127.1938220041189
 40
156.1015088258659
 40
156.1015088258659
 40
156.1015088258659
 40
156.1015088258659
 10
1634.85859465025
 20
980.09570836538
 30
0.0
 10
1634.858594650315
 20
970.4598127591466
 30
0.0
 10
1634.858594650444
 20
951.1880215466797
 30
0.0
 10
1634.858594650783
 20
930.1847803424769
 30
0.0
 10
1634.858594651144
 20
917.0859847527709
 30
0.0
 10
1634.858594651299
 20
911.9819712988897
 30
0.0
 10
1634.858594651463
 20
906.9682943663366
 30
0.0
 10
1634.858594651629
 20
902.0449539551473
 30
0.0
 10
1634.858594651798
 20
897.1216135439931
 30
0.0
 10
1634.858594651972
 20
892.1079366116032
 30
0.0
 10
1634.858594652165
 20
887.0039231579416
 30
0.0
 10
1634.858594652689
 20
873.9051275674037
 30
0.0
 10
1634.858594653763
 20
852.9018863612612
 30
0.0
 10
1634.858594654521
 20
833.630095146763
 30
0.0
 10
1634.8585946549
 20
823.994199539514
 30
0.0
 11
1634.85859465025
 21
980.09570836538
 31
0.0
 11
1634.85859465049
 21
951.1880215466799
 31
0.0
 11
1634.858594651004
 21
922.2803347279796
 31
0.0
 11
1634.858594651146
 21
917.0859847527707
 31
0.0
 11
1634.858594651304
 21
911.8916347775618
 31
0.0
 11
1634.858594651464
 21
906.9682943663369
 31
0.0
 11
1634.85859465163
 21
902.0449539551117
 31
0.0
 11
1634.858594651798
 21
897.1216135439932
 31
0.0
 11
1634.858594651972
 21
892.1982731328745
 31
0.0
 11
1634.858594652167
 21
887.0039231579415
 31
0.0
 11
1634.858594652376
 21
881.8095731830085
 31
0.0
 11
1634.858594653706
 21
852.9018863612611
 31
0.0
 11
1634.8585946549
 21
823.994199539514
 31
0.0
  0
ENDSEC
  0
SECTION
  2
OBJECTS
  0
DICTIONARY
  5
C
330
0
100
AcDbDictionary
281
     1
  3
ACAD_GROUP
350
D
  3
ACAD_LAYOUT
350
1A
  3
ACAD_MATERIAL
350
3B
  3
ACAD_MLEADERSTYLE
350
118
  3
ACAD_MLINESTYLE
350
17
  3
ACAD_PLOTSETTINGS
350
19
  3
ACAD_PLOTSTYLENAME
350
E
  3
ACAD_VISUALSTYLE
350
2A
  3
AcDbVariableDictionary
350
116
  0
DICTIONARY
  5
D
102
{ACAD_REACTORS
330
C
102
}
330
C
100
AcDbDictionary
281
     1
  0
DICTIONARY
  5
1A
102
{ACAD_REACTORS
330
C
102
}
330
C
100
AcDbDictionary
281
     1
  3
Layout1
350
1E
  3
Layout2
350
26
  3
Model
350
22
  0
DICTIONARY
  5
3B
102
{ACAD_REACTORS
330
C
102
}
330
C
100
AcDbDictionary
281
     1
  3
ByBlock
350
3D
  3
ByLayer
350
3C
  3
Global
350
3E
  0
DICTIONARY
  5
118
102
{ACAD_REACTORS
330
C
102
}
330
C
100
AcDbDictionary
281
     1
  0
DICTIONARY
  5
17
102
{ACAD_REACTORS
330
C
102
}
330
C
100
AcDbDictionary
281
     1
  3
Standard
350
18
  0
DICTIONARY
  5
19
102
{ACAD_REACTORS
330
C
102
}
330
C
100
AcDbDictionary
281
     1
  0
ACDBDICTIONARYWDFLT
  5
E
102
{ACAD_REACTORS
330
C
102
}
330
C
100
AcDbDictionary
281
     1
  3
Normal
350
F
100
AcDbDictionaryWithDefault
340
F
  0
DICTIONARY
  5
2A
102
{ACAD_REACTORS
330
C
102
}
330
C
100
AcDbDictionary
281
     1
  3
2dWireframe
350
2F
  3
3D Hidden
350
31
  3
3dWireframe
350
30
  3
Basic
350
32
  3
Brighten
350
36
  3
ColorChange
350
3A
  3
Conceptual
350
34
  3
Dim
350
35
  3
Facepattern
350
39
  3
Flat
350
2B
  3
FlatWithEdges
350
2C
  3
Gouraud
350
2D
  3
GouraudWithEdges
350
2E
  3
Linepattern
350
38
  3
Realistic
350
33
  3
Thicken
350
37
  0
DICTIONARY
  5
116
102
{ACAD_REACTORS
330
C
102
}
330
C
100
AcDbDictionary
281
     1
  3
DIMASSOC
350
119
  3
HIDETEXT
350
11A
  0
LAYOUT
  5
1E
102
{ACAD_REACTORS
330
1A
102
}
330
1A
100
AcDbPlotSettings
  1

  2
none_device
  4

  6

 40
0.0
 41
0.0
 42
0.0
 43
0.0
 44
0.0
 45
0.0
 46
0.0
 47
0.0
 48
0.0
 49
0.0
140
0.0
141
0.0
142
1.0
143
1.0
 70
   688
 72
     0
 73
     0
 74
     5
  7

 75
    16
147
1.0
148
0.0
149
0.0
100
AcDbLayout
  1
Layout1
 70
     1
 71
     1
 10
0.0
 20
0.0
 11
12.0
 21
9.0
 12
0.0
 22
0.0
 32
0.0
 14
1.00000000000000E+20
 24
1.00000000000000E+20
 34
1.00000000000000E+20
 15
-1.00000000000000E+20
 25
-1.00000000000000E+20
 35
-1.00000000000000E+20
146
0.0
 13
0.0
 23
0.0
 33
0.0
 16
1.0
 26
0.0
 36
0.0
 17
0.0
 27
1.0
 37
0.0
 76
     0
330
1B
  0
LAYOUT
  5
26
102
{ACAD_REACTORS
330
1A
102
}
330
1A
100
AcDbPlotSettings
  1

  2
none_device
  4

  6

 40
0.0
 41
0.0
 42
0.0
 43
0.0
 44
0.0
 45
0.0
 46
0.0
 47
0.0
 48
0.0
 49
0.0
140
0.0
141
0.0
142
1.0
143
1.0
 70
   688
 72
     0
 73
     0
 74
     5
  7

 75
    16
147
1.0
148
0.0
149
0.0
100
AcDbLayout
  1
Layout2
 70
     1
 71
     2
 10
0.0
 20
0.0
 11
0.0
 21
0.0
 12
0.0
 22
0.0
 32
0.0
 14
0.0
 24
0.0
 34
0.0
 15
0.0
 25
0.0
 35
0.0
146
0.0
 13
0.0
 23
0.0
 33
0.0
 16
1.0
 26
0.0
 36
0.0
 17
0.0
 27
1.0
 37
0.0
 76
     0
330
23
  0
LAYOUT
  5
22
102
{ACAD_REACTORS
330
1A
102
}
330
1A
100
AcDbPlotSettings
  1

  2
none_device
  4

  6

 40
0.0
 41
0.0
 42
0.0
 43
0.0
 44
0.0
 45
0.0
 46
0.0
 47
0.0
 48
0.0
 49
0.0
140
0.0
141
0.0
142
1.0
143
1.0
 70
  1712
 72
     0
 73
     0
 74
     0
  7

 75
     0
147
1.0
148
0.0
149
0.0
100
AcDbLayout
  1
Model
 70
     1
 71
     0
 10
0.0
 20
0.0
 11
12.0
 21
9.0
 12
0.0
 22
0.0
 32
0.0
 14
-811.294177669253
 24
-696.175357342724
 34
0.0
 15
2519.46911556228
 25
980.8762159095094
 35
0.0
146
0.0
 13
0.0
 23
0.0
 33
0.0
 16
1.0
 26
0.0
 36
0.0
 17
0.0
 27
1.0
 37
0.0
 76
     0
330
1F
331
29
  0
MATERIAL
  5
3D
102
{ACAD_REACTORS
330
3B
102
}
102
{ACAD_XDICTIONARY
360
13D
102
}
330
3B
100
AcDbMaterial
  1
ByBlock
  0
MATERIAL
  5
3C
102
{ACAD_REACTORS
330
3B
102
}
102
{ACAD_XDICTIONARY
360
13B
102
}
330
3B
100
AcDbMaterial
  1
ByLayer
  0
MATERIAL
  5
3E
102
{ACAD_REACTORS
330
3B
102
}
102
{ACAD_XDICTIONARY
360
13F
102
}
330
3B
100
AcDbMaterial
  1
Global
  0
MLINESTYLE
  5
18
102
{ACAD_REACTORS
330
17
102
}
330
17
100
AcDbMlineStyle
  2
Standard
 70
     0
  3

 62
   256
 51
90.0
 52
90.0
 71
     2
 49
0.5
 62
   256
  6
BYLAYER
 49
-0.5
 62
   256
  6
BYLAYER
  0
ACDBPLACEHOLDER
  5
F
102
{ACAD_REACTORS
330
E
102
}
330
E
  0
VISUALSTYLE
  5
2F
102
{ACAD_REACTORS
330
2A
102
}
102
{ACAD_XDICTIONARY
360
123
102
}
330
2A
100
AcDbVisualStyle
  2
2dWireframe
 70
     4
 71
     0
 72
     2
 73
     0
 90
        0
 40
-0.6
 41
-30.0
 62
     5
 63
     7
 74
     1
 91
        4
 64
     7
 65
   257
 75
     1
175
     1
 42
1.0
 92
        0
 66
   257
 43
1.0
 76
     1
 77
     6
 78
     2
 67
     7
 79
     5
170
     0
171
     0
290
     0
174
     0
 93
        1
 44
0.0
173
     0
291
     0
 45
0.0
1001
ACAD
1000
AcDbSavedByObjectVersion
1070
     0
  0
VISUALSTYLE
  5
31
102
{ACAD_REACTORS
330
2A
102
}
102
{ACAD_XDICTIONARY
360
127
102
}
330
2A
100
AcDbVisualStyle
  2
3D Hidden
 70
     6
 71
     1
 72
     2
 73
     2
 90
        0
 40
-0.6
 41
-30.0
 62
     5
 63
     7
 74
     2
 91
        2
 64
     7
 65
   257
 75
     2
175
     1
 42
40.0
 92
        0
 66
   257
 43
1.0
 76
     1
 77
     6
 78
     2
 67
     7
 79
     3
170
     0
171
     0
290
     0
174
     0
 93
        1
 44
0.0
173
     0
291
     0
 45
0.0
1001
ACAD
1000
AcDbSavedByObjectVersion
1070
     0
  0
VISUALSTYLE
  5
30
102
{ACAD_REACTORS
330
2A
102
}
102
{ACAD_XDICTIONARY
360
125
102
}
330
2A
100
AcDbVisualStyle
  2
3dWireframe
 70
     5
 71
     0
 72
     2
 73
     0
 90
        0
 40
-0.6
 41
-30.0
 62
     5
 63
     7
 74
     1
 91
        4
 64
     7
 65
   257
 75
     1
175
     1
 42
1.0
 92
        0
 66
   257
 43
1.0
 76
     1
 77
     6
 78
     2
 67
     7
 79
     5
170
     0
171
     0
290
     0
174
     0
 93
        1
 44
0.0
173
     0
291
     0
 45
0.0
1001
ACAD
1000
AcDbSavedByObjectVersion
1070
     0
  0
VISUALSTYLE
  5
32
102
{ACAD_REACTORS
330
2A
102
}
102
{ACAD_XDICTIONARY
360
129
102
}
330
2A
100
AcDbVisualStyle
  2
Basic
 70
     7
 71
     1
 72
     0
 73
     1
 90
        0
 40
-0.6
 41
-30.0
 62
     5
 63
     7
 74
     0
 91
        4
 64
     7
 65
   257
 75
     1
175
     1
 42
1.0
 92
        8
 66
     7
 43
1.0
 76
     1
 77
     6
 78
     2
 67
     7
 79
     5
170
     0
171
     0
290
     0
174
     0
 93
        1
 44
0.0
173
     0
291
     1
 45
0.0
1001
ACAD
1000
AcDbSavedByObjectVersion
1070
     0
  0
VISUALSTYLE
  5
36
102
{ACAD_REACTORS
330
2A
102
}
102
{ACAD_XDICTIONARY
360
131
102
}
330
2A
100
AcDbVisualStyle
  2
Brighten
 70
    12
 71
     2
 72
     2
 73
     0
 90
        0
 40
-0.6
 41
-30.0
 62
     5
 63
     7
 74
     1
 91
        4
 64
     7
 65
   257
 75
     1
175
     1
 42
1.0
 92
        8
 66
     7
 43
1.0
 76
     1
 77
     6
 78
     2
 67
     7
 79
     5
170
     0
171
     0
290
     0
174
     0
 93
        1
 44
50.0
173
     0
291
     1
 45
0.0
1001
ACAD
1000
AcDbSavedByObjectVersion
1070
     0
  0
VISUALSTYLE
  5
3A
102
{ACAD_REACTORS
330
2A
102
}
102
{ACAD_XDICTIONARY
360
139
102
}
330
2A
100
AcDbVisualStyle
  2
ColorChange
 70
    16
 71
     2
 72
     2
 73
     3
 90
        0
 40
-0.6
 41
-30.0
 62
     5
 63
     8
 74
     1
 91
        4
 64
     7
 65
   257
 75
     1
175
     1
 42
1.0
 92
        8
 66
     8
 43
1.0
 76
     1
 77
     6
 78
     2
 67
     7
 79
     5
170
     0
171
     0
290
     0
174
     0
 93
        1
 44
0.0
173
     0
291
     1
 45
0.0
1001
ACAD
1000
AcDbSavedByObjectVersion
1070
     0
  0
VISUALSTYLE
  5
34
102
{ACAD_REACTORS
330
2A
102
}
102
{ACAD_XDICTIONARY
360
12D
102
}
330
2A
100
AcDbVisualStyle
  2
Conceptual
 70
     9
 71
     3
 72
     2
 73
     0
 90
        0
 40
-0.6
 41
-30.0
 62
     5
 63
     7
 74
     2
 91
        2
 64
     7
 65
   257
 75
     1
175
     1
 42
40.0
 92
        8
 66
     7
 43
1.0
 76
     1
 77
     6
 78
     2
 67
     7
 79
     3
170
     0
171
     0
290
     0
174
     0
 93
        1
 44
0.0
173
     0
291
     0
 45
0.0
1001
ACAD
1000
AcDbSavedByObjectVersion
1070
     0
  0
VISUALSTYLE
  5
35
102
{ACAD_REACTORS
330
2A
102
}
102
{ACAD_XDICTIONARY
360
12F
102
}
330
2A
100
AcDbVisualStyle
  2
Dim
 70
    11
 71
     2
 72
     2
 73
     0
 90
        0
 40
-0.6
 41
-30.0
 62
     5
 63
     7
 74
     1
 91
        4
 64
     7
 65
   257
 75
     1
175
     1
 42
1.0
 92
        8
 66
     7
 43
1.0
 76
     1
 77
     6
 78
     2
 67
     7
 79
     5
170
     0
171
     0
290
     0
174
     0
 93
        1
 44
-50.0
173
     0
291
     1
 45
0.0
1001
ACAD
1000
AcDbSavedByObjectVersion
1070
     0
  0
VISUALSTYLE
  5
39
102
{ACAD_REACTORS
330
2A
102
}
102
{ACAD_XDICTIONARY
360
137
102
}
330
2A
100
AcDbVisualStyle
  2
Facepattern
 70
    15
 71
     2
 72
     2
 73
     0
 90
        0
 40
-0.6
 41
-30.0
 62
     5
 63
     7
 74
     1
 91
        4
 64
     7
 65
   257
 75
     1
175
     1
 42
1.0
 92
        8
 66
     7
 43
1.0
 76
     1
 77
     6
 78
     2
 67
     7
 79
     5
170
     0
171
     0
290
     0
174
     0
 93
        1
 44
0.0
173
     0
291
     1
 45
0.0
1001
ACAD
1000
AcDbSavedByObjectVersion
1070
     0
  0
VISUALSTYLE
  5
2B
102
{ACAD_REACTORS
330
2A
102
}
102
{ACAD_XDICTIONARY
360
11B
102
}
330
2A
100
AcDbVisualStyle
  2
Flat
 70
     0
 71
     2
 72
     1
 73
     1
 90
        2
 40
-0.6
 41
30.0
 62
     5
 63
     7
 74
     0
 91
        4
 64
     7
 65
   257
 75
     1
175
     1
 42
1.0
 92
        8
 66
     7
 43
1.0
 76
     1
 77
     6
 78
     2
 67
     7
 79
     5
170
     0
171
     0
290
     0
174
     0
 93
       13
 44
0.0
173
     0
291
     1
 45
0.0
1001
ACAD
1000
AcDbSavedByObjectVersion
1070
     0
  0
VISUALSTYLE
  5
2C
102
{ACAD_REACTORS
330
2A
102
}
102
{ACAD_XDICTIONARY
360
11D
102
}
330
2A
100
AcDbVisualStyle
  2
FlatWithEdges
 70
     1
 71
     2
 72
     1
 73
     1
 90
        2
 40
-0.6
 41
30.0
 62
     5
 63
     7
 74
     1
 91
        4
 64
     7
 65
   257
 75
     1
175
     1
 42
1.0
 92
        0
 66
   257
 43
1.0
 76
     1
 77
     6
 78
     2
 67
     7
 79
     5
170
     0
171
     0
290
     0
174
     0
 93
       13
 44
0.0
173
     0
291
     1
 45
0.0
1001
ACAD
1000
AcDbSavedByObjectVersion
1070
     0
  0
VISUALSTYLE
  5
2D
102
{ACAD_REACTORS
330
2A
102
}
102
{ACAD_XDICTIONARY
360
11F
102
}
330
2A
100
AcDbVisualStyle
  2
Gouraud
 70
     2
 71
     2
 72
     2
 73
     1
 90
        2
 40
-0.6
 41
30.0
 62
     5
 63
     7
 74
     0
 91
        4
 64
     7
 65
   257
 75
     1
175
     1
 42
1.0
 92
        0
 66
     7
 43
1.0
 76
     1
 77
     6
 78
     2
 67
     7
 79
     5
170
     0
171
     0
290
     0
174
     0
 93
       13
 44
0.0
173
     0
291
     1
 45
0.0
1001
ACAD
1000
AcDbSavedByObjectVersion
1070
     0
  0
VISUALSTYLE
  5
2E
102
{ACAD_REACTORS
330
2A
102
}
102
{ACAD_XDICTIONARY
360
121
102
}
330
2A
100
AcDbVisualStyle
  2
GouraudWithEdges
 70
     3
 71
     2
 72
     2
 73
     1
 90
        2
 40
-0.6
 41
30.0
 62
     5
 63
     7
 74
     1
 91
        4
 64
     7
 65
   257
 75
     1
175
     1
 42
1.0
 92
        0
 66
   257
 43
1.0
 76
     1
 77
     6
 78
     2
 67
     7
 79
     5
170
     0
171
     0
290
     0
174
     0
 93
       13
 44
0.0
173
     0
291
     1
 45
0.0
1001
ACAD
1000
AcDbSavedByObjectVersion
1070
     0
  0
VISUALSTYLE
  5
38
102
{ACAD_REACTORS
330
2A
102
}
102
{ACAD_XDICTIONARY
360
135
102
}
330
2A
100
AcDbVisualStyle
  2
Linepattern
 70
    14
 71
     2
 72
     2
 73
     0
 90
        0
 40
-0.6
 41
-30.0
 62
     5
 63
     7
 74
     1
 91
        4
 64
     7
 65
   257
 75
     7
175
     7
 42
1.0
 92
        8
 66
     7
 43
1.0
 76
     1
 77
     6
 78
     2
 67
     7
 79
     5
170
     0
171
     0
290
     0
174
     0
 93
        1
 44
0.0
173
     0
291
     1
 45
0.0
1001
ACAD
1000
AcDbSavedByObjectVersion
1070
     0
  0
VISUALSTYLE
  5
33
102
{ACAD_REACTORS
330
2A
102
}
102
{ACAD_XDICTIONARY
360
12B
102
}
330
2A
100
AcDbVisualStyle
  2
Realistic
 70
     8
 71
     2
 72
     2
 73
     0
 90
        0
 40
-0.6
 41
-30.0
 62
     5
 63
     7
 74
     1
 91
        0
 64
     7
 65
   257
 75
     1
175
     1
 42
1.0
 92
        8
 66
     8
 43
1.0
 76
     1
 77
     6
 78
     2
 67
     7
 79
     5
170
     0
171
     0
290
     0
174
     0
 93
       13
 44
0.0
173
     0
291
     0
 45
0.0
1001
ACAD
1000
AcDbSavedByObjectVersion
1070
     0
  0
VISUALSTYLE
  5
37
102
{ACAD_REACTORS
330
2A
102
}
102
{ACAD_XDICTIONARY
360
133
102
}
330
2A
100
AcDbVisualStyle
  2
Thicken
 70
    13
 71
     2
 72
     2
 73
     0
 90
        0
 40
-0.6
 41
-30.0
 62
     5
 63
     7
 74
     1
 91
        4
 64
     7
 65
   257
 75
     1
175
     1
 42
1.0
 92
       12
 66
     7
 43
1.0
 76
     1
 77
     6
 78
     2
 67
     7
 79
     5
170
     0
171
     0
290
     0
174
     0
 93
        1
 44
0.0
173
     0
291
     1
 45
0.0
1001
ACAD
1000
AcDbSavedByObjectVersion
1070
     0
  0
DICTIONARYVAR
  5
119
102
{ACAD_REACTORS
330
116
102
}
330
116
100
DictionaryVariables
280
     0
  1
2
  0
DICTIONARYVAR
  5
11A
102
{ACAD_REACTORS
330
116
102
}
330
116
100
DictionaryVariables
280
     0
  1
1
  0
DICTIONARY
  5
13D
330
3D
100
AcDbDictionary
280
     1
281
     1
  3
ACAD_XREC_ROUNDTRIP
360
13E
  0
DICTIONARY
  5
13B
330
3C
100
AcDbDictionary
280
     1
281
     1
  3
ACAD_XREC_ROUNDTRIP
360
13C
  0
DICTIONARY
  5
13F
330
3E
100
AcDbDictionary
280
     1
281
     1
  3
ACAD_XREC_ROUNDTRIP
360
140
  0
DICTIONARY
  5
123
330
2F
100
AcDbDictionary
280
     1
281
     1
  3
ACAD_XREC_ROUNDTRIP
360
124
  0
DICTIONARY
  5
127
330
31
100
AcDbDictionary
280
     1
281
     1
  3
ACAD_XREC_ROUNDTRIP
360
128
  0
DICTIONARY
  5
125
330
30
100
AcDbDictionary
280
     1
281
     1
  3
ACAD_XREC_ROUNDTRIP
360
126
  0
DICTIONARY
  5
129
330
32
100
AcDbDictionary
280
     1
281
     1
  3
ACAD_XREC_ROUNDTRIP
360
12A
  0
DICTIONARY
  5
131
330
36
100
AcDbDictionary
280
     1
281
     1
  3
ACAD_XREC_ROUNDTRIP
360
132
  0
DICTIONARY
  5
139
330
3A
100
AcDbDictionary
280
     1
281
     1
  3
ACAD_XREC_ROUNDTRIP
360
13A
  0
DICTIONARY
  5
12D
330
34
100
AcDbDictionary
280
     1
281
     1
  3
ACAD_XREC_ROUNDTRIP
360
12E
  0
DICTIONARY
  5
12F
330
35
100
AcDbDictionary
280
     1
281
     1
  3
ACAD_XREC_ROUNDTRIP
360
130
  0
DICTIONARY
  5
137
330
39
100
AcDbDictionary
280
     1
281
     1
  3
ACAD_XREC_ROUNDTRIP
360
138
  0
DICTIONARY
  5
11B
330
2B
100
AcDbDictionary
280
     1
281
     1
  3
ACAD_XREC_ROUNDTRIP
360
11C
  0
DICTIONARY
  5
11D
330
2C
100
AcDbDictionary
280
     1
281
     1
  3
ACAD_XREC_ROUNDTRIP
360
11E
  0
DICTIONARY
  5
11F
330
2D
100
AcDbDictionary
280
     1
281
     1
  3
ACAD_XREC_ROUNDTRIP
360
120
  0
DICTIONARY
  5
121
330
2E
100
AcDbDictionary
280
     1
281
     1
  3
ACAD_XREC_ROUNDTRIP
360
122
  0
DICTIONARY
  5
135
330
38
100
AcDbDictionary
280
     1
281
     1
  3
ACAD_XREC_ROUNDTRIP
360
136
  0
DICTIONARY
  5
12B
330
33
100
AcDbDictionary
280
     1
281
     1
  3
ACAD_XREC_ROUNDTRIP
360
12C
  0
DICTIONARY
  5
133
330
37
100
AcDbDictionary
280
     1
281
     1
  3
ACAD_XREC_ROUNDTRIP
360
134
  0
XRECORD
  5
13E
102
{ACAD_REACTORS
330
13D
102
}
330
13D
100
AcDbXrecord
280
     1
102
MATERIAL
148
0.0
149
0.0
149
0.0
 93
        0
 94
      127
282
     0
 72
     1
 77
     1
171
     1
175
     1
179
     1
273
     0
  0
XRECORD
  5
13C
102
{ACAD_REACTORS
330
13B
102
}
330
13B
100
AcDbXrecord
280
     1
102
MATERIAL
148
0.0
149
0.0
149
0.0
 93
        0
 94
      127
282
     0
 72
     1
 77
     1
171
     1
175
     1
179
     1
273
     0
  0
XRECORD
  5
140
102
{ACAD_REACTORS
330
13F
102
}
330
13F
100
AcDbXrecord
280
     1
102
MATERIAL
148
0.0
149
0.0
149
0.0
 93
        0
 94
      127
282
     0
 72
     1
 77
     1
171
     1
175
     1
179
     1
273
     0
  0
XRECORD
  5
124
102
{ACAD_REACTORS
330
123
102
}
330
123
100
AcDbXrecord
280
     1
102
RTVSPropertyOp0
 70
     1
102
RTVSPropertyOp1
 70
     1
102
RTVSPropertyOp2
 70
     1
102
RTVSPropertyOp3
 70
     1
102
RTVSPropertyOp4
 70
     1
102
RTVSPropertyOp5
 70
     1
102
RTVSPropertyOp6
 70
     1
102
RTVSPropertyOp7
 70
     1
102
RTVSPropertyOp8
 70
     1
102
RTVSPropertyOp9
 70
     1
102
RTVSPropertyOp10
 70
     1
102
RTVSPropertyOp11
 70
     1
102
RTVSPropertyOp12
 70
     1
102
RTVSPropertyOp13
 70
     1
102
RTVSPropertyOp14
 70
     1
102
RTVSPropertyOp15
 70
     1
102
RTVSPropertyOp16
 70
     1
102
RTVSPropertyOp17
 70
     1
102
RTVSPropertyOp18
 70
     1
102
RTVSPropertyOp19
 70
     1
102
RTVSPropertyOp20
 70
     1
102
RTVSPropertyOp21
 70
     1
102
RTVSPropertyOp22
 70
     1
102
RTVSPropertyOp23
 70
     1
102
RTVSPropertyOp24
 70
     1
102
RTVSPropertyOp25
 70
     1
102
RTVSPropertyOp26
 70
     1
102
RTVSPropertyOp27
 70
     1
  0
XRECORD
  5
128
102
{ACAD_REACTORS
330
127
102
}
330
127
100
AcDbXrecord
280
     1
102
RTVSPropertyOp0
 70
     1
102
RTVSPropertyOp1
 70
     1
102
RTVSPropertyOp2
 70
     1
102
RTVSPropertyOp3
 70
     1
102
RTVSPropertyOp4
 70
     1
102
RTVSPropertyOp5
 70
     1
102
RTVSPropertyOp6
 70
     1
102
RTVSPropertyOp7
 70
     1
102
RTVSPropertyOp8
 70
     1
102
RTVSPropertyOp9
 70
     1
102
RTVSPropertyOp10
 70
     1
102
RTVSPropertyOp11
 70
     1
102
RTVSPropertyOp12
 70
     1
102
RTVSPropertyOp13
 70
     1
102
RTVSPropertyOp14
 70
     1
102
RTVSPropertyOp15
 70
     1
102
RTVSPropertyOp16
 70
     1
102
RTVSPropertyOp17
 70
     1
102
RTVSPropertyOp18
 70
     1
102
RTVSPropertyOp19
 70
     1
102
RTVSPropertyOp20
 70
     1
102
RTVSPropertyOp21
 70
     1
102
RTVSPropertyOp22
 70
     1
102
RTVSPropertyOp23
 70
     1
102
RTVSPropertyOp24
 70
     1
102
RTVSPropertyOp25
 70
     1
102
RTVSPropertyOp26
 70
     1
102
RTVSPropertyOp27
 70
     1
  0
XRECORD
  5
126
102
{ACAD_REACTORS
330
125
102
}
330
125
100
AcDbXrecord
280
     1
102
RTVSPropertyOp0
 70
     1
102
RTVSPropertyOp1
 70
     1
102
RTVSPropertyOp2
 70
     1
102
RTVSPropertyOp3
 70
     1
102
RTVSPropertyOp4
 70
     1
102
RTVSPropertyOp5
 70
     1
102
RTVSPropertyOp6
 70
     1
102
RTVSPropertyOp7
 70
     1
102
RTVSPropertyOp8
 70
     1
102
RTVSPropertyOp9
 70
     1
102
RTVSPropertyOp10
 70
     1
102
RTVSPropertyOp11
 70
     1
102
RTVSPropertyOp12
 70
     1
102
RTVSPropertyOp13
 70
     1
102
RTVSPropertyOp14
 70
     1
102
RTVSPropertyOp15
 70
     1
102
RTVSPropertyOp16
 70
     1
102
RTVSPropertyOp17
 70
     1
102
RTVSPropertyOp18
 70
     1
102
RTVSPropertyOp19
 70
     1
102
RTVSPropertyOp20
 70
     1
102
RTVSPropertyOp21
 70
     1
102
RTVSPropertyOp22
 70
     1
102
RTVSPropertyOp23
 70
     1
102
RTVSPropertyOp24
 70
     1
102
RTVSPropertyOp25
 70
     1
102
RTVSPropertyOp26
 70
     1
102
RTVSPropertyOp27
 70
     1
  0
XRECORD
  5
12A
102
{ACAD_REACTORS
330
129
102
}
330
129
100
AcDbXrecord
280
     1
102
RTVSPropertyOp0
 70
     1
102
RTVSPropertyOp1
 70
     1
102
RTVSPropertyOp2
 70
     1
102
RTVSPropertyOp3
 70
     1
102
RTVSPropertyOp4
 70
     1
102
RTVSPropertyOp5
 70
     1
102
RTVSPropertyOp6
 70
     1
102
RTVSPropertyOp7
 70
     1
102
RTVSPropertyOp8
 70
     1
102
RTVSPropertyOp9
 70
     1
102
RTVSPropertyOp10
 70
     1
102
RTVSPropertyOp11
 70
     1
102
RTVSPropertyOp12
 70
     1
102
RTVSPropertyOp13
 70
     1
102
RTVSPropertyOp14
 70
     1
102
RTVSPropertyOp15
 70
     1
102
RTVSPropertyOp16
 70
     1
102
RTVSPropertyOp17
 70
     1
102
RTVSPropertyOp18
 70
     1
102
RTVSPropertyOp19
 70
     1
102
RTVSPropertyOp20
 70
     1
102
RTVSPropertyOp21
 70
     1
102
RTVSPropertyOp22
 70
     1
102
RTVSPropertyOp23
 70
     1
102
RTVSPropertyOp24
 70
     1
102
RTVSPropertyOp25
 70
     1
102
RTVSPropertyOp26
 70
     1
102
RTVSPropertyOp27
 70
     1
  0
XRECORD
  5
132
102
{ACAD_REACTORS
330
131
102
}
330
131
100
AcDbXrecord
280
     1
102
RTVSPropertyOp0
 70
     1
102
RTVSPropertyOp1
 70
     1
102
RTVSPropertyOp2
 70
     1
102
RTVSPropertyOp3
 70
     1
102
RTVSPropertyOp4
 70
     1
102
RTVSPropertyOp5
 70
     1
102
RTVSPropertyOp6
 70
     1
102
RTVSPropertyOp7
 70
     1
102
RTVSPropertyOp8
 70
     1
102
RTVSPropertyOp9
 70
     1
102
RTVSPropertyOp10
 70
     1
102
RTVSPropertyOp11
 70
     1
102
RTVSPropertyOp12
 70
     1
102
RTVSPropertyOp13
 70
     1
102
RTVSPropertyOp14
 70
     1
102
RTVSPropertyOp15
 70
     1
102
RTVSPropertyOp16
 70
     1
102
RTVSPropertyOp17
 70
     1
102
RTVSPropertyOp18
 70
     1
102
RTVSPropertyOp19
 70
     1
102
RTVSPropertyOp20
 70
     1
102
RTVSPropertyOp21
 70
     1
102
RTVSPropertyOp22
 70
     1
102
RTVSPropertyOp23
 70
     1
102
RTVSPropertyOp24
 70
     1
102
RTVSPropertyOp25
 70
     1
102
RTVSPropertyOp26
 70
     1
102
RTVSPropertyOp27
 70
     1
  0
XRECORD
  5
13A
102
{ACAD_REACTORS
330
139
102
}
330
139
100
AcDbXrecord
280
     1
102
RTVSPropertyOp0
 70
     1
102
RTVSPropertyOp1
 70
     1
102
RTVSPropertyOp2
 70
     1
102
RTVSPropertyOp3
 70
     1
102
RTVSPropertyOp4
 70
     1
102
RTVSPropertyOp5
 70
     1
102
RTVSPropertyOp6
 70
     1
102
RTVSPropertyOp7
 70
     1
102
RTVSPropertyOp8
 70
     1
102
RTVSPropertyOp9
 70
     1
102
RTVSPropertyOp10
 70
     1
102
RTVSPropertyOp11
 70
     1
102
RTVSPropertyOp12
 70
     1
102
RTVSPropertyOp13
 70
     1
102
RTVSPropertyOp14
 70
     1
102
RTVSPropertyOp15
 70
     1
102
RTVSPropertyOp16
 70
     1
102
RTVSPropertyOp17
 70
     1
102
RTVSPropertyOp18
 70
     1
102
RTVSPropertyOp19
 70
     1
102
RTVSPropertyOp20
 70
     1
102
RTVSPropertyOp21
 70
     1
102
RTVSPropertyOp22
 70
     1
102
RTVSPropertyOp23
 70
     1
102
RTVSPropertyOp24
 70
     1
102
RTVSPropertyOp25
 70
     1
102
RTVSPropertyOp26
 70
     1
102
RTVSPropertyOp27
 70
     1
  0
XRECORD
  5
12E
102
{ACAD_REACTORS
330
12D
102
}
330
12D
100
AcDbXrecord
280
     1
102
RTVSPropertyOp0
 70
     1
102
RTVSPropertyOp1
 70
     1
102
RTVSPropertyOp2
 70
     1
102
RTVSPropertyOp3
 70
     1
102
RTVSPropertyOp4
 70
     1
102
RTVSPropertyOp5
 70
     1
102
RTVSPropertyOp6
 70
     1
102
RTVSPropertyOp7
 70
     1
102
RTVSPropertyOp8
 70
     1
102
RTVSPropertyOp9
 70
     1
102
RTVSPropertyOp10
 70
     1
102
RTVSPropertyOp11
 70
     1
102
RTVSPropertyOp12
 70
     1
102
RTVSPropertyOp13
 70
     1
102
RTVSPropertyOp14
 70
     1
102
RTVSPropertyOp15
 70
     1
102
RTVSPropertyOp16
 70
     1
102
RTVSPropertyOp17
 70
     1
102
RTVSPropertyOp18
 70
     1
102
RTVSPropertyOp19
 70
     1
102
RTVSPropertyOp20
 70
     1
102
RTVSPropertyOp21
 70
     1
102
RTVSPropertyOp22
 70
     1
102
RTVSPropertyOp23
 70
     1
102
RTVSPropertyOp24
 70
     1
102
RTVSPropertyOp25
 70
     1
102
RTVSPropertyOp26
 70
     1
102
RTVSPropertyOp27
 70
     1
  0
XRECORD
  5
130
102
{ACAD_REACTORS
330
12F
102
}
330
12F
100
AcDbXrecord
280
     1
102
RTVSPropertyOp0
 70
     1
102
RTVSPropertyOp1
 70
     1
102
RTVSPropertyOp2
 70
     1
102
RTVSPropertyOp3
 70
     1
102
RTVSPropertyOp4
 70
     1
102
RTVSPropertyOp5
 70
     1
102
RTVSPropertyOp6
 70
     1
102
RTVSPropertyOp7
 70
     1
102
RTVSPropertyOp8
 70
     1
102
RTVSPropertyOp9
 70
     1
102
RTVSPropertyOp10
 70
     1
102
RTVSPropertyOp11
 70
     1
102
RTVSPropertyOp12
 70
     1
102
RTVSPropertyOp13
 70
     1
102
RTVSPropertyOp14
 70
     1
102
RTVSPropertyOp15
 70
     1
102
RTVSPropertyOp16
 70
     1
102
RTVSPropertyOp17
 70
     1
102
RTVSPropertyOp18
 70
     1
102
RTVSPropertyOp19
 70
     1
102
RTVSPropertyOp20
 70
     1
102
RTVSPropertyOp21
 70
     1
102
RTVSPropertyOp22
 70
     1
102
RTVSPropertyOp23
 70
     1
102
RTVSPropertyOp24
 70
     1
102
RTVSPropertyOp25
 70
     1
102
RTVSPropertyOp26
 70
     1
102
RTVSPropertyOp27
 70
     1
  0
XRECORD
  5
138
102
{ACAD_REACTORS
330
137
102
}
330
137
100
AcDbXrecord
280
     1
102
RTVSPropertyOp0
 70
     1
102
RTVSPropertyOp1
 70
     1
102
RTVSPropertyOp2
 70
     1
102
RTVSPropertyOp3
 70
     1
102
RTVSPropertyOp4
 70
     1
102
RTVSPropertyOp5
 70
     1
102
RTVSPropertyOp6
 70
     1
102
RTVSPropertyOp7
 70
     1
102
RTVSPropertyOp8
 70
     1
102
RTVSPropertyOp9
 70
     1
102
RTVSPropertyOp10
 70
     1
102
RTVSPropertyOp11
 70
     1
102
RTVSPropertyOp12
 70
     1
102
RTVSPropertyOp13
 70
     1
102
RTVSPropertyOp14
 70
     1
102
RTVSPropertyOp15
 70
     1
102
RTVSPropertyOp16
 70
     1
102
RTVSPropertyOp17
 70
     1
102
RTVSPropertyOp18
 70
     1
102
RTVSPropertyOp19
 70
     1
102
RTVSPropertyOp20
 70
     1
102
RTVSPropertyOp21
 70
     1
102
RTVSPropertyOp22
 70
     1
102
RTVSPropertyOp23
 70
     1
102
RTVSPropertyOp24
 70
     1
102
RTVSPropertyOp25
 70
     1
102
RTVSPropertyOp26
 70
     1
102
RTVSPropertyOp27
 70
     1
  0
XRECORD
  5
11C
102
{ACAD_REACTORS
330
11B
102
}
330
11B
100
AcDbXrecord
280
     1
102
RTVSPropertyOp0
 70
     1
102
RTVSPropertyOp1
 70
     1
102
RTVSPropertyOp2
 70
     1
102
RTVSPropertyOp3
 70
     1
102
RTVSPropertyOp4
 70
     1
102
RTVSPropertyOp5
 70
     1
102
RTVSPropertyOp6
 70
     1
102
RTVSPropertyOp7
 70
     1
102
RTVSPropertyOp8
 70
     1
102
RTVSPropertyOp9
 70
     1
102
RTVSPropertyOp10
 70
     1
102
RTVSPropertyOp11
 70
     1
102
RTVSPropertyOp12
 70
     1
102
RTVSPropertyOp13
 70
     1
102
RTVSPropertyOp14
 70
     1
102
RTVSPropertyOp15
 70
     1
102
RTVSPropertyOp16
 70
     1
102
RTVSPropertyOp17
 70
     1
102
RTVSPropertyOp18
 70
     1
102
RTVSPropertyOp19
 70
     1
102
RTVSPropertyOp20
 70
     1
102
RTVSPropertyOp21
 70
     1
102
RTVSPropertyOp22
 70
     1
102
RTVSPropertyOp23
 70
     1
102
RTVSPropertyOp24
 70
     1
102
RTVSPropertyOp25
 70
     1
102
RTVSPropertyOp26
 70
     1
102
RTVSPropertyOp27
 70
     1
  0
XRECORD
  5
11E
102
{ACAD_REACTORS
330
11D
102
}
330
11D
100
AcDbXrecord
280
     1
102
RTVSPropertyOp0
 70
     1
102
RTVSPropertyOp1
 70
     1
102
RTVSPropertyOp2
 70
     1
102
RTVSPropertyOp3
 70
     1
102
RTVSPropertyOp4
 70
     1
102
RTVSPropertyOp5
 70
     1
102
RTVSPropertyOp6
 70
     1
102
RTVSPropertyOp7
 70
     1
102
RTVSPropertyOp8
 70
     1
102
RTVSPropertyOp9
 70
     1
102
RTVSPropertyOp10
 70
     1
102
RTVSPropertyOp11
 70
     1
102
RTVSPropertyOp12
 70
     1
102
RTVSPropertyOp13
 70
     1
102
RTVSPropertyOp14
 70
     1
102
RTVSPropertyOp15
 70
     1
102
RTVSPropertyOp16
 70
     1
102
RTVSPropertyOp17
 70
     1
102
RTVSPropertyOp18
 70
     1
102
RTVSPropertyOp19
 70
     1
102
RTVSPropertyOp20
 70
     1
102
RTVSPropertyOp21
 70
     1
102
RTVSPropertyOp22
 70
     1
102
RTVSPropertyOp23
 70
     1
102
RTVSPropertyOp24
 70
     1
102
RTVSPropertyOp25
 70
     1
102
RTVSPropertyOp26
 70
     1
102
RTVSPropertyOp27
 70
     1
  0
XRECORD
  5
120
102
{ACAD_REACTORS
330
11F
102
}
330
11F
100
AcDbXrecord
280
     1
102
RTVSPropertyOp0
 70
     1
102
RTVSPropertyOp1
 70
     1
102
RTVSPropertyOp2
 70
     1
102
RTVSPropertyOp3
 70
     1
102
RTVSPropertyOp4
 70
     1
102
RTVSPropertyOp5
 70
     1
102
RTVSPropertyOp6
 70
     1
102
RTVSPropertyOp7
 70
     1
102
RTVSPropertyOp8
 70
     1
102
RTVSPropertyOp9
 70
     1
102
RTVSPropertyOp10
 70
     1
102
RTVSPropertyOp11
 70
     1
102
RTVSPropertyOp12
 70
     1
102
RTVSPropertyOp13
 70
     1
102
RTVSPropertyOp14
 70
     1
102
RTVSPropertyOp15
 70
     1
102
RTVSPropertyOp16
 70
     1
102
RTVSPropertyOp17
 70
     1
102
RTVSPropertyOp18
 70
     1
102
RTVSPropertyOp19
 70
     1
102
RTVSPropertyOp20
 70
     1
102
RTVSPropertyOp21
 70
     1
102
RTVSPropertyOp22
 70
     1
102
RTVSPropertyOp23
 70
     1
102
RTVSPropertyOp24
 70
     1
102
RTVSPropertyOp25
 70
     1
102
RTVSPropertyOp26
 70
     1
102
RTVSPropertyOp27
 70
     1
  0
XRECORD
  5
122
102
{ACAD_REACTORS
330
121
102
}
330
121
100
AcDbXrecord
280
     1
102
RTVSPropertyOp0
 70
     1
102
RTVSPropertyOp1
 70
     1
102
RTVSPropertyOp2
 70
     1
102
RTVSPropertyOp3
 70
     1
102
RTVSPropertyOp4
 70
     1
102
RTVSPropertyOp5
 70
     1
102
RTVSPropertyOp6
 70
     1
102
RTVSPropertyOp7
 70
     1
102
RTVSPropertyOp8
 70
     1
102
RTVSPropertyOp9
 70
     1
102
RTVSPropertyOp10
 70
     1
102
RTVSPropertyOp11
 70
     1
102
RTVSPropertyOp12
 70
     1
102
RTVSPropertyOp13
 70
     1
102
RTVSPropertyOp14
 70
     1
102
RTVSPropertyOp15
 70
     1
102
RTVSPropertyOp16
 70
     1
102
RTVSPropertyOp17
 70
     1
102
RTVSPropertyOp18
 70
     1
102
RTVSPropertyOp19
 70
     1
102
RTVSPropertyOp20
 70
     1
102
RTVSPropertyOp21
 70
     1
102
RTVSPropertyOp22
 70
     1
102
RTVSPropertyOp23
 70
     1
102
RTVSPropertyOp24
 70
     1
102
RTVSPropertyOp25
 70
     1
102
RTVSPropertyOp26
 70
     1
102
RTVSPropertyOp27
 70
     1
  0
XRECORD
  5
136
102
{ACAD_REACTORS
330
135
102
}
330
135
100
AcDbXrecord
280
     1
102
RTVSPropertyOp0
 70
     1
102
RTVSPropertyOp1
 70
     1
102
RTVSPropertyOp2
 70
     1
102
RTVSPropertyOp3
 70
     1
102
RTVSPropertyOp4
 70
     1
102
RTVSPropertyOp5
 70
     1
102
RTVSPropertyOp6
 70
     1
102
RTVSPropertyOp7
 70
     1
102
RTVSPropertyOp8
 70
     1
102
RTVSPropertyOp9
 70
     1
102
RTVSPropertyOp10
 70
     1
102
RTVSPropertyOp11
 70
     1
102
RTVSPropertyOp12
 70
     1
102
RTVSPropertyOp13
 70
     1
102
RTVSPropertyOp14
 70
     1
102
RTVSPropertyOp15
 70
     1
102
RTVSPropertyOp16
 70
     1
102
RTVSPropertyOp17
 70
     1
102
RTVSPropertyOp18
 70
     1
102
RTVSPropertyOp19
 70
     1
102
RTVSPropertyOp20
 70
     1
102
RTVSPropertyOp21
 70
     1
102
RTVSPropertyOp22
 70
     1
102
RTVSPropertyOp23
 70
     1
102
RTVSPropertyOp24
 70
     1
102
RTVSPropertyOp25
 70
     1
102
RTVSPropertyOp26
 70
     1
102
RTVSPropertyOp27
 70
     1
  0
XRECORD
  5
12C
102
{ACAD_REACTORS
330
12B
102
}
330
12B
100
AcDbXrecord
280
     1
102
RTVSPropertyOp0
 70
     1
102
RTVSPropertyOp1
 70
     1
102
RTVSPropertyOp2
 70
     1
102
RTVSPropertyOp3
 70
     1
102
RTVSPropertyOp4
 70
     1
102
RTVSPropertyOp5
 70
     1
102
RTVSPropertyOp6
 70
     1
102
RTVSPropertyOp7
 70
     1
102
RTVSPropertyOp8
 70
     1
102
RTVSPropertyOp9
 70
     1
102
RTVSPropertyOp10
 70
     1
102
RTVSPropertyOp11
 70
     1
102
RTVSPropertyOp12
 70
     1
102
RTVSPropertyOp13
 70
     1
102
RTVSPropertyOp14
 70
     1
102
RTVSPropertyOp15
 70
     1
102
RTVSPropertyOp16
 70
     1
102
RTVSPropertyOp17
 70
     1
102
RTVSPropertyOp18
 70
     1
102
RTVSPropertyOp19
 70
     1
102
RTVSPropertyOp20
 70
     1
102
RTVSPropertyOp21
 70
     1
102
RTVSPropertyOp22
 70
     1
102
RTVSPropertyOp23
 70
     1
102
RTVSPropertyOp24
 70
     1
102
RTVSPropertyOp25
 70
     1
102
RTVSPropertyOp26
 70
     1
102
RTVSPropertyOp27
 70
     1
  0
XRECORD
  5
134
102
{ACAD_REACTORS
330
133
102
}
330
133
100
AcDbXrecord
280
     1
102
RTVSPropertyOp0
 70
     1
102
RTVSPropertyOp1
 70
     1
102
RTVSPropertyOp2
 70
     1
102
RTVSPropertyOp3
 70
     1
102
RTVSPropertyOp4
 70
     1
102
RTVSPropertyOp5
 70
     1
102
RTVSPropertyOp6
 70
     1
102
RTVSPropertyOp7
 70
     1
102
RTVSPropertyOp8
 70
     1
102
RTVSPropertyOp9
 70
     1
102
RTVSPropertyOp10
 70
     1
102
RTVSPropertyOp11
 70
     1
102
RTVSPropertyOp12
 70
     1
102
RTVSPropertyOp13
 70
     1
102
RTVSPropertyOp14
 70
     1
102
RTVSPropertyOp15
 70
     1
102
RTVSPropertyOp16
 70
     1
102
RTVSPropertyOp17
 70
     1
102
RTVSPropertyOp18
 70
     1
102
RTVSPropertyOp19
 70
     1
102
RTVSPropertyOp20
 70
     1
102
RTVSPropertyOp21
 70
     1
102
RTVSPropertyOp22
 70
     1
102
RTVSPropertyOp23
 70
     1
102
RTVSPropertyOp24
 70
     1
102
RTVSPropertyOp25
 70
     1
102
RTVSPropertyOp26
 70
     1
102
RTVSPropertyOp27
 70
     1
  0
ENDSEC
  0
EOF
