  0
SECTION
  2
HEADER
  9
$ACADVER
  1
AC1015
  9
$ACADMAINTVER
 70
     6
  9
$DWGCODEPAGE
  3
ANSI_1252
  9
$INSBASE
 10
0.0
 20
0.0
 30
0.0
  9
$EXTMIN
 10
-1119.182477790281
 20
133.2174250364539
 30
0.0
  9
$EXTMAX
 10
1328.92899397956
 20
1262.96590663182
 30
0.0
  9
$LIMMIN
 10
0.0
 20
0.0
  9
$LIMMAX
 10
12.0
 20
9.0
  9
$ORTHOMODE
 70
     0
  9
$REGENMODE
 70
     1
  9
$FILLMODE
 70
     1
  9
$QTEXTMODE
 70
     0
  9
$MIRRTEXT
 70
     1
  9
$LTSCALE
 40
1.0
  9
$ATTMODE
 70
     1
  9
$TEXTSIZE
 40
0.2
  9
$TRACEWID
 40
0.05
  9
$TEXTSTYLE
  7
Standard
  9
$CLAYER
  8
0
  9
$CELTYPE
  6
ByLayer
  9
$CECOLOR
 62
   256
  9
$CELTSCALE
 40
1.0
  9
$DISPSILH
 70
     0
  9
$DIMSCALE
 40
1.0
  9
$DIMASZ
 40
0.18
  9
$DIMEXO
 40
0.0625
  9
$DIMDLI
 40
0.38
  9
$DIMRND
 40
0.0
  9
$DIMDLE
 40
0.0
  9
$DIMEXE
 40
0.18
  9
$DIMTP
 40
0.0
  9
$DIMTM
 40
0.0
  9
$DIMTXT
 40
0.18
  9
$DIMCEN
 40
0.09
  9
$DIMTSZ
 40
0.0
  9
$DIMTOL
 70
     0
  9
$DIMLIM
 70
     0
  9
$DIMTIH
 70
     1
  9
$DIMTOH
 70
     1
  9
$DIMSE1
 70
     0
  9
$DIMSE2
 70
     0
  9
$DIMTAD
 70
     0
  9
$DIMZIN
 70
     0
  9
$DIMBLK
  1

  9
$DIMASO
 70
     1
  9
$DIMSHO
 70
     1
  9
$DIMPOST
  1

  9
$DIMAPOST
  1

  9
$DIMALT
 70
     0
  9
$DIMALTD
 70
     2
  9
$DIMALTF
 40
25.4
  9
$DIMLFAC
 40
1.0
  9
$DIMTOFL
 70
     0
  9
$DIMTVP
 40
0.0
  9
$DIMTIX
 70
     0
  9
$DIMSOXD
 70
     0
  9
$DIMSAH
 70
     0
  9
$DIMBLK1
  1

  9
$DIMBLK2
  1

  9
$DIMSTYLE
  2
Standard
  9
$DIMCLRD
 70
     0
  9
$DIMCLRE
 70
     0
  9
$DIMCLRT
 70
     0
  9
$DIMTFAC
 40
1.0
  9
$DIMGAP
 40
0.09
  9
$DIMJUST
 70
     0
  9
$DIMSD1
 70
     0
  9
$DIMSD2
 70
     0
  9
$DIMTOLJ
 70
     1
  9
$DIMTZIN
 70
     0
  9
$DIMALTZ
 70
     0
  9
$DIMALTTZ
 70
     0
  9
$DIMUPT
 70
     0
  9
$DIMDEC
 70
     4
  9
$DIMTDEC
 70
     4
  9
$DIMALTU
 70
     2
  9
$DIMALTTD
 70
     2
  9
$DIMTXSTY
  7
Standard
  9
$DIMAUNIT
 70
     0
  9
$DIMADEC
 70
     0
  9
$DIMALTRND
 40
0.0
  9
$DIMAZIN
 70
     0
  9
$DIMDSEP
 70
    46
  9
$DIMATFIT
 70
     3
  9
$DIMFRAC
 70
     0
  9
$DIMLDRBLK
  1

  9
$DIMLUNIT
 70
     2
  9
$DIMLWD
 70
    -2
  9
$DIMLWE
 70
    -2
  9
$DIMTMOVE
 70
     0
  9
$LUNITS
 70
     2
  9
$LUPREC
 70
     4
  9
$SKETCHINC
 40
0.1
  9
$FILLETRAD
 40
0.5
  9
$AUNITS
 70
     0
  9
$AUPREC
 70
     0
  9
$MENU
  1
.
  9
$ELEVATION
 40
0.0
  9
$PELEVATION
 40
0.0
  9
$THICKNESS
 40
0.0
  9
$LIMCHECK
 70
     0
  9
$CHAMFERA
 40
0.5
  9
$CHAMFERB
 40
0.5
  9
$CHAMFERC
 40
1.0
  9
$CHAMFERD
 40
0.0
  9
$SKPOLY
 70
     0
  9
$TDCREATE
 40
2455572.585067454
  9
$TDUCREATE
 40
2455572.543400787
  9
$TDUPDATE
 40
2455572.585067465
  9
$TDUUPDATE
 40
2455572.543400799
  9
$TDINDWG
 40
0.0000000116
  9
$TDUSRTIMER
 40
0.0000000116
  9
$USRTIMER
 70
     1
  9
$ANGBASE
 50
0.0
  9
$ANGDIR
 70
     0
  9
$PDMODE
 70
     0
  9
$PDSIZE
 40
0.0
  9
$PLINEWID
 40
0.0
  9
$SPLFRAME
 70
     0
  9
$SPLINETYPE
 70
     6
  9
$SPLINESEGS
 70
     8
  9
$HANDSEED
  5
192
  9
$SURFTAB1
 70
     6
  9
$SURFTAB2
 70
     6
  9
$SURFTYPE
 70
     6
  9
$SURFU
 70
     6
  9
$SURFV
 70
     6
  9
$UCSBASE
  2

  9
$UCSNAME
  2

  9
$UCSORG
 10
0.0
 20
0.0
 30
0.0
  9
$UCSXDIR
 10
1.0
 20
0.0
 30
0.0
  9
$UCSYDIR
 10
0.0
 20
1.0
 30
0.0
  9
$UCSORTHOREF
  2

  9
$UCSORTHOVIEW
 70
     0
  9
$UCSORGTOP
 10
0.0
 20
0.0
 30
0.0
  9
$UCSORGBOTTOM
 10
0.0
 20
0.0
 30
0.0
  9
$UCSORGLEFT
 10
0.0
 20
0.0
 30
0.0
  9
$UCSORGRIGHT
 10
0.0
 20
0.0
 30
0.0
  9
$UCSORGFRONT
 10
0.0
 20
0.0
 30
0.0
  9
$UCSORGBACK
 10
0.0
 20
0.0
 30
0.0
  9
$PUCSBASE
  2

  9
$PUCSNAME
  2

  9
$PUCSORG
 10
0.0
 20
0.0
 30
0.0
  9
$PUCSXDIR
 10
1.0
 20
0.0
 30
0.0
  9
$PUCSYDIR
 10
0.0
 20
1.0
 30
0.0
  9
$PUCSORTHOREF
  2

  9
$PUCSORTHOVIEW
 70
     0
  9
$PUCSORGTOP
 10
0.0
 20
0.0
 30
0.0
  9
$PUCSORGBOTTOM
 10
0.0
 20
0.0
 30
0.0
  9
$PUCSORGLEFT
 10
0.0
 20
0.0
 30
0.0
  9
$PUCSORGRIGHT
 10
0.0
 20
0.0
 30
0.0
  9
$PUCSORGFRONT
 10
0.0
 20
0.0
 30
0.0
  9
$PUCSORGBACK
 10
0.0
 20
0.0
 30
0.0
  9
$USERI1
 70
     0
  9
$USERI2
 70
     0
  9
$USERI3
 70
     0
  9
$USERI4
 70
     0
  9
$USERI5
 70
     0
  9
$USERR1
 40
13.01
  9
$USERR2
 40
0.0
  9
$USERR3
 40
0.0
  9
$USERR4
 40
0.0
  9
$USERR5
 40
0.0
  9
$WORLDVIEW
 70
     1
  9
$SHADEDGE
 70
     3
  9
$SHADEDIF
 70
    70
  9
$TILEMODE
 70
     1
  9
$MAXACTVP
 70
    64
  9
$PINSBASE
 10
0.0
 20
0.0
 30
0.0
  9
$PLIMCHECK
 70
     0
  9
$PEXTMIN
 10
1.00000000000000E+20
 20
1.00000000000000E+20
 30
1.00000000000000E+20
  9
$PEXTMAX
 10
-1.00000000000000E+20
 20
-1.00000000000000E+20
 30
-1.00000000000000E+20
  9
$PLIMMIN
 10
0.0
 20
0.0
  9
$PLIMMAX
 10
12.0
 20
9.0
  9
$UNITMODE
 70
     0
  9
$VISRETAIN
 70
     1
  9
$PLINEGEN
 70
     0
  9
$PSLTSCALE
 70
     1
  9
$TREEDEPTH
 70
  3020
  9
$CMLSTYLE
  2
Standard
  9
$CMLJUST
 70
     0
  9
$CMLSCALE
 40
1.0
  9
$PROXYGRAPHICS
 70
     1
  9
$MEASUREMENT
 70
     1
  9
$CELWEIGHT
370
    -1
  9
$ENDCAPS
280
     0
  9
$JOINSTYLE
280
     0
  9
$LWDISPLAY
290
     0
  9
$INSUNITS
 70
     1
  9
$HYPERLINKBASE
  1

  9
$STYLESHEET
  1

  9
$XEDIT
290
     1
  9
$CEPSNTYPE
380
     0
  9
$PSTYLEMODE
290
     0
  9
$FINGERPRINTGUID
  2
{FAEB1C30-E019-11D5-929B-00C0DF256EC4}
  9
$VERSIONGUID
  2
{FAEB1C32-E019-11D5-929B-00C0DF256EC4}
  9
$EXTNAMES
290
     1
  9
$PSVPSCALE
 40
0.0
  9
$OLESTARTUP
290
     0
  0
ENDSEC
  0
SECTION
  2
CLASSES
  0
CLASS
  1
ACDBDICTIONARYWDFLT
  2
AcDbDictionaryWithDefault
  3
ObjectDBX Classes
 90
        0
280
     0
281
     0
  0
CLASS
  1
TABLESTYLE
  2
AcDbTableStyle
  3
ObjectDBX Classes
 90
     2047
280
     0
281
     0
  0
CLASS
  1
DICTIONARYVAR
  2
AcDbDictionaryVar
  3
ObjectDBX Classes
 90
        0
280
     0
281
     0
  0
CLASS
  1

  2
exOdDbCircle
  3

 90
        0
280
     0
281
     1
  0
CLASS
  1

  2
exOdDbSpline
  3

 90
        0
280
     0
281
     1
  0
CLASS
  1
ACDBPLACEHOLDER
  2
AcDbPlaceHolder
  3
ObjectDBX Classes
 90
        0
280
     0
281
     0
  0
CLASS
  1
LAYOUT
  2
AcDbLayout
  3
ObjectDBX Classes
 90
        0
280
     0
281
     0
  0
ENDSEC
  0
SECTION
  2
TABLES
  0
TABLE
  2
VPORT
  5
8
330
0
100
AcDbSymbolTable
 70
     2
  0
VPORT
  5
29
330
8
100
AcDbSymbolTableRecord
100
AcDbViewportTableRecord
  2
*Active
 70
     0
 10
0.0
 20
0.0
 11
1.0
 21
1.0
 12
104.8732580946395
 22
698.091665834137
 13
0.0
 23
0.0
 14
0.5
 24
0.5
 15
0.5
 25
0.5
 16
0.0
 26
0.0
 36
1.0
 17
0.0
 27
0.0
 37
0.0
 40
1680.263695387435
 41
1.60267857142857
 42
50.0
 43
0.0
 44
0.0
 50
0.0
 51
0.0
 71
     0
 72
   100
 73
     1
 74
     3
 75
     0
 76
     0
 77
     0
 78
     0
281
     0
 65
     1
110
0.0
120
0.0
130
0.0
111
1.0
121
0.0
131
0.0
112
0.0
122
1.0
132
0.0
 79
     0
146
0.0
  0
ENDTAB
  0
TABLE
  2
LTYPE
  5
5
330
0
100
AcDbSymbolTable
 70
     8
  0
LTYPE
  5
14
330
5
100
AcDbSymbolTableRecord
100
AcDbLinetypeTableRecord
  2
ByBlock
 70
     0
  3

 72
    65
 73
     0
 40
0.0
  0
LTYPE
  5
15
330
5
100
AcDbSymbolTableRecord
100
AcDbLinetypeTableRecord
  2
ByLayer
 70
     0
  3

 72
    65
 73
     0
 40
0.0
  0
LTYPE
  5
16
330
5
100
AcDbSymbolTableRecord
100
AcDbLinetypeTableRecord
  2
Continuous
 70
     0
  3
Solid line
 72
    65
 73
     0
 40
0.0
  0
LTYPE
  5
2E
330
5
100
AcDbSymbolTableRecord
100
AcDbLinetypeTableRecord
  2
DASHED
 70
     0
  3
Dashed
 72
    65
 73
     2
 40
15.0
 49
7.0
 74
     0
 49
-8.0
 74
     0
  0
LTYPE
  5
2F
330
5
100
AcDbSymbolTableRecord
100
AcDbLinetypeTableRecord
  2
DOTTED
 70
     0
  3
Dotted
 72
    65
 73
     2
 40
1.0
 49
0.0
 74
     0
 49
-1.0
 74
     0
  0
LTYPE
  5
30
330
5
100
AcDbSymbolTableRecord
100
AcDbLinetypeTableRecord
  2
DOT_CENTER
 70
     0
  3
Dot_Center
 72
    65
 73
     4
 40
14.0
 49
12.0
 74
     0
 49
-1.0
 74
     0
 49
0.0
 74
     0
 49
-1.0
 74
     0
  0
LTYPE
  5
31
330
5
100
AcDbSymbolTableRecord
100
AcDbLinetypeTableRecord
  2
LONG_DASHED
 70
     0
  3
Long_Dashed
 72
    65
 73
     2
 40
15.0
 49
10.0
 74
     0
 49
-5.0
 74
     0
  0
LTYPE
  5
32
330
5
100
AcDbSymbolTableRecord
100
AcDbLinetypeTableRecord
  2
DASH_CENTER
 70
     0
  3
Dash_Center
 72
    65
 73
     4
 40
14.0
 49
11.0
 74
     0
 49
-1.0
 74
     0
 49
1.0
 74
     0
 49
-1.0
 74
     0
  0
LTYPE
  5
33
330
5
100
AcDbSymbolTableRecord
100
AcDbLinetypeTableRecord
  2
PHANTOM
 70
     0
  3
Phantom
 72
    65
 73
     6
 40
13.0
 49
10.0
 74
     0
 49
-1.0
 74
     0
 49
0.0
 74
     0
 49
-1.0
 74
     0
 49
0.0
 74
     0
 49
-1.0
 74
     0
  0
LTYPE
  5
34
330
5
100
AcDbSymbolTableRecord
100
AcDbLinetypeTableRecord
  2
CENTER_DASH_DASH
 70
     0
  3
Center_Dash_Dash
 72
    65
 73
     6
 40
14.0
 49
9.0
 74
     0
 49
-1.0
 74
     0
 49
1.0
 74
     0
 49
-1.0
 74
     0
 49
1.0
 74
     0
 49
-1.0
 74
     0
  0
ENDTAB
  0
TABLE
  2
LAYER
  5
2
330
0
100
AcDbSymbolTable
 70
     2
  0
LAYER
  5
10
330
2
100
AcDbSymbolTableRecord
100
AcDbLayerTableRecord
  2
0
 70
     0
 62
     7
  6
Continuous
370
    -3
390
F
  0
LAYER
  5
35
330
2
100
AcDbSymbolTableRecord
100
AcDbLayerTableRecord
  2
1
 70
     0
 62
     7
  6
Continuous
370
    -3
390
F
  0
ENDTAB
  0
TABLE
  2
STYLE
  5
3
330
0
100
AcDbSymbolTable
 70
     1
  0
STYLE
  5
11
330
3
100
AcDbSymbolTableRecord
100
AcDbTextStyleTableRecord
  2
Standard
 70
     0
 40
0.0
 41
1.0
 50
0.0
 71
     0
 42
0.2
  3
txt
  4

  0
ENDTAB
  0
TABLE
  2
VIEW
  5
6
330
0
100
AcDbSymbolTable
 70
     0
  0
ENDTAB
  0
TABLE
  2
UCS
  5
7
330
0
100
AcDbSymbolTable
 70
     0
  0
ENDTAB
  0
TABLE
  2
APPID
  5
9
330
0
100
AcDbSymbolTable
 70
     1
  0
APPID
  5
12
330
9
100
AcDbSymbolTableRecord
100
AcDbRegAppTableRecord
  2
ACAD
 70
     0
  0
ENDTAB
  0
TABLE
  2
DIMSTYLE
  5
A
330
0
100
AcDbSymbolTable
 70
     1
100
AcDbDimStyleTable
  0
DIMSTYLE
105
27
330
A
100
AcDbSymbolTableRecord
100
AcDbDimStyleTableRecord
  2
Standard
 70
     0
340
11
  0
ENDTAB
  0
TABLE
  2
BLOCK_RECORD
  5
1
330
0
100
AcDbSymbolTable
 70
     1
  0
BLOCK_RECORD
  5
1F
330
1
100
AcDbSymbolTableRecord
100
AcDbBlockTableRecord
  2
*Model_Space
340
22
  0
BLOCK_RECORD
  5
1B
330
1
100
AcDbSymbolTableRecord
100
AcDbBlockTableRecord
  2
*Paper_Space
340
1E
  0
BLOCK_RECORD
  5
23
330
1
100
AcDbSymbolTableRecord
100
AcDbBlockTableRecord
  2
*Paper_Space0
340
26
  0
ENDTAB
  0
ENDSEC
  0
SECTION
  2
BLOCKS
  0
BLOCK
  5
20
330
1F
100
AcDbEntity
  8
0
100
AcDbBlockBegin
  2
*Model_Space
 70
     0
 71
     0
 10
0.0
 20
0.0
 30
0.0
  3
*Model_Space
  1

  0
ENDBLK
  5
21
330
1F
100
AcDbEntity
  8
0
100
AcDbBlockEnd
  0
BLOCK
  5
1C
330
1B
100
AcDbEntity
 67
     1
  8
0
100
AcDbBlockBegin
  2
*Paper_Space
 70
     0
 71
     0
 10
0.0
 20
0.0
 30
0.0
  3
*Paper_Space
  1

  0
ENDBLK
  5
1D
330
1B
100
AcDbEntity
 67
     1
  8
0
100
AcDbBlockEnd
  0
BLOCK
  5
24
330
23
100
AcDbEntity
  8
0
100
AcDbBlockBegin
  2
*Paper_Space0
 70
     0
 71
     0
 10
0.0
 20
0.0
 30
0.0
  3
*Paper_Space0
  1

  0
ENDBLK
  5
25
330
23
100
AcDbEntity
  8
0
100
AcDbBlockEnd
  0
ENDSEC
  0
SECTION
  2
ENTITIES
  0
LINE
  5
36
330
1F
100
AcDbEntity
  8
1
  6
Continuous
 62
     7
100
AcDbLine
 10
-1111.586914302256
 20
263.143684806556
 30
0.0
 11
-1119.182477790281
 21
296.043684806518
 31
0.0
  0
LINE
  5
37
330
1F
100
AcDbEntity
  8
1
  6
Continuous
 62
     7
100
AcDbLine
 10
-1063.966447219029
 20
296.043684806518
 30
0.0
 11
-1071.562010707055
 21
263.143684806556
 31
0.0
  0
LINE
  5
38
330
1F
100
AcDbEntity
  8
1
  6
Continuous
 62
     1
100
AcDbLine
 10
-1119.182477790281
 20
296.043684806518
 30
0.0
 11
-1063.966447219029
 21
296.043684806518
 31
0.0
  0
LINE
  5
39
330
1F
100
AcDbEntity
  8
1
  6
Continuous
 62
     5
100
AcDbLine
 10
-1089.074462504655
 20
263.143684806556
 30
0.0
 11
-1089.074462504655
 21
260.143684806556
 31
0.0
  0
LINE
  5
3A
330
1F
100
AcDbEntity
  8
1
  6
Continuous
 62
     5
100
AcDbLine
 10
-1094.074462504655
 20
263.143684806556
 30
0.0
 11
-1094.074462504655
 21
260.143684806556
 31
0.0
  0
LINE
  5
3B
330
1F
100
AcDbEntity
  8
1
  6
Continuous
 62
     5
100
AcDbLine
 10
-1071.574462504655
 20
260.143684806556
 30
0.0
 11
-1111.574462504655
 21
260.143684806556
 31
0.0
  0
LINE
  5
3C
330
1F
100
AcDbEntity
  8
1
  6
Continuous
 62
     5
100
AcDbLine
 10
-1111.574462504655
 20
260.143684806556
 30
0.0
 11
-1111.574462504655
 21
259.343684806556
 31
0.0
  0
LINE
  5
3D
330
1F
100
AcDbEntity
  8
1
  6
Continuous
 62
     5
100
AcDbLine
 10
-1111.574462504655
 20
259.343684806556
 30
0.0
 11
-1071.574462504655
 21
259.343684806556
 31
0.0
  0
LINE
  5
3E
330
1F
100
AcDbEntity
  8
1
  6
Continuous
 62
     5
100
AcDbLine
 10
-1071.574462504655
 20
259.343684806556
 30
0.0
 11
-1071.574462504655
 21
260.143684806556
 31
0.0
  0
LINE
  5
3F
330
1F
100
AcDbEntity
  8
1
  6
Continuous
 62
     7
100
AcDbLine
 10
-1091.574462504655
 20
263.143684806556
 30
0.0
 11
-1111.586914302256
 21
263.143684806556
 31
0.0
  0
LINE
  5
40
330
1F
100
AcDbEntity
  8
1
  6
Continuous
 62
     7
100
AcDbLine
 10
-1071.562010707055
 20
263.143684806556
 30
0.0
 11
-1091.574462504655
 21
263.143684806556
 31
0.0
  0
LINE
  5
41
330
1F
100
AcDbEntity
  8
1
  6
Continuous
 62
     7
100
AcDbLine
 10
-493.175316831141
 20
322.649873440439
 30
0.0
 11
-500.807788544007
 21
263.143684806556
 31
0.0
  0
LINE
  5
42
330
1F
100
AcDbEntity
  8
1
  6
Continuous
 62
     7
100
AcDbLine
 10
-500.807788544007
 20
263.143684806556
 30
0.0
 11
-539.716414014228
 21
263.143684806556
 31
0.0
  0
LINE
  5
43
330
1F
100
AcDbEntity
  8
1
  6
Continuous
 62
     7
100
AcDbLine
 10
-539.716414014228
 20
263.143684806556
 30
0.0
 11
-555.813896766818
 21
332.869542986104
 31
0.0
  0
LINE
  5
44
330
1F
100
AcDbEntity
  8
1
  6
Continuous
 62
     7
100
AcDbLine
 10
-484.621548921434
 20
294.884005983986
 30
0.0
 11
-491.949379457412
 21
263.143684806556
 31
0.0
  0
LINE
  5
45
330
1F
100
AcDbEntity
  8
1
  6
Continuous
 62
     7
100
AcDbLine
 10
-500.807788544007
 20
263.143684806556
 30
0.0
 11
-491.949379457412
 21
263.143684806556
 31
0.0
  0
LINE
  5
46
330
1F
100
AcDbEntity
  8
1
  6
Continuous
 62
     1
100
AcDbLine
 10
-506.944868957768
 20
324.896416587976
 30
0.0
 11
-509.72623061717
 21
263.143684806556
 31
0.0
  0
LINE
  5
47
330
1F
100
AcDbEntity
  8
1
  6
Continuous
 62
     1
100
AcDbLine
 10
-522.3803252273
 20
327.414756922689
 30
0.0
 11
-519.485536776371
 21
263.143684806556
 31
0.0
  0
LINE
  5
48
330
1F
100
AcDbEntity
  8
1
  6
Continuous
 62
     1
100
AcDbLine
 10
-537.067913472012
 20
329.811080377625
 30
0.0
 11
-528.516891603093
 21
263.143684806556
 31
0.0
  0
LINE
  5
49
330
1F
100
AcDbEntity
  8
1
  6
Continuous
 62
     1
100
AcDbLine
 10
-535.4453531193871
 20
263.143684806556
 30
0.0
 11
-548.604164766974
 21
331.69325389036
 31
0.0
  0
LINE
  5
4A
330
1F
100
AcDbEntity
  8
1
  6
Continuous
 62
     1
100
AcDbLine
 10
-554.973298701771
 20
332.732396926051
 30
0.0
 11
-539.216126001723
 21
263.143684806556
 31
0.0
  0
LINE
  5
4B
330
1F
100
AcDbEntity
  8
1
  6
Continuous
 62
     7
100
AcDbLine
 10
-652.047526902084
 20
326.012821235445
 30
0.0
 11
-666.562010707055
 21
263.143684806556
 31
0.0
  0
LINE
  5
4C
330
1F
100
AcDbEntity
  8
1
  6
Continuous
 62
     1
100
AcDbLine
 10
-667.02328069595
 20
263.143684806556
 30
0.0
 11
-653.0393972027611
 21
324.900984689622
 31
0.0
  0
LINE
  5
4D
330
1F
100
AcDbEntity
  8
1
  6
Continuous
 62
     1
100
AcDbLine
 10
-658.22214797601
 20
329.882749109733
 30
0.0
 11
-671.03337110925
 21
263.143684806556
 31
0.0
  0
LINE
  5
4E
330
1F
100
AcDbEntity
  8
1
  6
Continuous
 62
     1
100
AcDbLine
 10
-668.975760919664
 20
331.678418276379
 30
0.0
 11
-673.437845141843
 21
296.890119119666
 31
0.0
  0
LINE
  5
4F
330
1F
100
AcDbEntity
  8
1
  6
Continuous
 62
     1
100
AcDbLine
 10
-683.52458610782
 20
332.686105594584
 30
0.0
 11
-685.1299314763
 21
297.043684806539
 31
0.0
  0
LINE
  5
50
330
1F
100
AcDbEntity
  8
1
  6
Continuous
 62
     7
100
AcDbLine
 10
-666.562010707055
 20
263.143684806556
 30
0.0
 11
-691.574462504655
 21
263.143684806556
 31
0.0
  0
LINE
  5
51
330
1F
100
AcDbEntity
  8
1
  6
Continuous
 62
     7
100
AcDbLine
 10
-691.574462504655
 20
263.143684806556
 30
0.0
 11
-716.586914302256
 21
263.143684806556
 31
0.0
  0
LINE
  5
52
330
1F
100
AcDbEntity
  8
1
  6
Continuous
 62
     1
100
AcDbLine
 10
-698.01899353301
 20
297.043684806539
 30
0.0
 11
-699.62433890149
 21
332.686105594583
 31
0.0
  0
LINE
  5
53
330
1F
100
AcDbEntity
  8
1
  6
Continuous
 62
     1
100
AcDbLine
 10
-709.711079867467
 20
296.890119119666
 30
0.0
 11
-714.173164089647
 21
331.678418276379
 31
0.0
  0
LINE
  5
54
330
1F
100
AcDbEntity
  8
1
  6
Continuous
 62
     1
100
AcDbLine
 10
-712.11555390006
 20
263.143684806556
 30
0.0
 11
-724.926777033258
 21
329.882749109744
 31
0.0
  0
LINE
  5
55
330
1F
100
AcDbEntity
  8
1
  6
Continuous
 62
     1
100
AcDbLine
 10
-730.109527806549
 20
324.900984689622
 30
0.0
 11
-716.12564431336
 21
263.143684806556
 31
0.0
  0
LINE
  5
56
330
1F
100
AcDbEntity
  8
1
  6
Continuous
 62
     7
100
AcDbLine
 10
-716.586914302256
 20
263.143684806556
 30
0.0
 11
-731.101398107226
 21
326.012821235445
 31
0.0
  0
LINE
  5
57
330
1F
100
AcDbEntity
  8
1
  6
Continuous
 62
     5
100
AcDbLine
 10
-489.703962217247
 20
260.143684806556
 30
0.0
 11
-539.703962217247
 21
260.143684806556
 31
0.0
  0
LINE
  5
58
330
1F
100
AcDbEntity
  8
1
  6
Continuous
 62
     5
100
AcDbLine
 10
-539.703962217247
 20
260.143684806556
 30
0.0
 11
-539.703962217247
 21
259.343684806556
 31
0.0
  0
LINE
  5
59
330
1F
100
AcDbEntity
  8
1
  6
Continuous
 62
     5
100
AcDbLine
 10
-539.703962217247
 20
259.343684806556
 30
0.0
 11
-489.703962217247
 21
259.343684806556
 31
0.0
  0
LINE
  5
5A
330
1F
100
AcDbEntity
  8
1
  6
Continuous
 62
     5
100
AcDbLine
 10
-489.703962217247
 20
259.343684806556
 30
0.0
 11
-489.703962217247
 21
260.143684806556
 31
0.0
  0
LINE
  5
5B
330
1F
100
AcDbEntity
  8
1
  6
Continuous
 62
     5
100
AcDbLine
 10
-517.203962217247
 20
263.143684806556
 30
0.0
 11
-517.203962217247
 21
260.143684806556
 31
0.0
  0
LINE
  5
5C
330
1F
100
AcDbEntity
  8
1
  6
Continuous
 62
     5
100
AcDbLine
 10
-512.203962217247
 20
263.143684806556
 30
0.0
 11
-512.203962217247
 21
260.143684806556
 31
0.0
  0
LINE
  5
5D
330
1F
100
AcDbEntity
  8
1
  6
Continuous
 62
     5
100
AcDbLine
 10
-666.574462504655
 20
259.343684806556
 30
0.0
 11
-666.574462504655
 21
260.143684806556
 31
0.0
  0
LINE
  5
5E
330
1F
100
AcDbEntity
  8
1
  6
Continuous
 62
     5
100
AcDbLine
 10
-716.574462504655
 20
259.343684806556
 30
0.0
 11
-666.574462504655
 21
259.343684806556
 31
0.0
  0
LINE
  5
5F
330
1F
100
AcDbEntity
  8
1
  6
Continuous
 62
     5
100
AcDbLine
 10
-716.574462504655
 20
260.143684806556
 30
0.0
 11
-716.574462504655
 21
259.343684806556
 31
0.0
  0
LINE
  5
60
330
1F
100
AcDbEntity
  8
1
  6
Continuous
 62
     5
100
AcDbLine
 10
-666.574462504655
 20
260.143684806556
 30
0.0
 11
-716.574462504655
 21
260.143684806556
 31
0.0
  0
LINE
  5
61
330
1F
100
AcDbEntity
  8
1
  6
Continuous
 62
     5
100
AcDbLine
 10
-694.074462504655
 20
263.143684806556
 30
0.0
 11
-694.074462504655
 21
260.143684806556
 31
0.0
  0
LINE
  5
62
330
1F
100
AcDbEntity
  8
1
  6
Continuous
 62
     5
100
AcDbLine
 10
-689.074462504655
 20
263.143684806556
 30
0.0
 11
-689.074462504655
 21
260.143684806556
 31
0.0
  0
LINE
  5
63
330
1F
100
AcDbEntity
  8
1
  6
Continuous
 62
     7
100
AcDbLine
 10
-723.619584237995
 20
142.668857552108
 30
0.0
 11
-717.2363571789321
 21
146.933993513111
 31
0.0
  0
LINE
  5
64
330
1F
100
AcDbEntity
  8
1
  6
Continuous
 62
     1
100
AcDbLine
 10
-729.83663008297
 20
156.357164000714
 30
0.0
 11
-721.8275531568891
 21
157.973867518005
 31
0.0
  0
LINE
  5
65
330
1F
100
AcDbEntity
  8
1
  6
Continuous
 62
     1
100
AcDbLine
 10
-730.378472122407
 20
171.91797149857
 30
0.0
 11
-721.826900780306
 21
170.190810121362
 31
0.0
  0
LINE
  5
66
330
1F
100
AcDbEntity
  8
1
  6
Continuous
 62
     1
100
AcDbLine
 10
-724.911724930381
 20
186.355969944501
 30
0.0
 11
-717.236357177351
 21
181.227453173752
 31
0.0
  0
LINE
  5
67
330
1F
100
AcDbEntity
  8
1
  6
Continuous
 62
     1
100
AcDbLine
 10
-714.156555995444
 20
197.685791033873
 30
0.0
 11
-708.788539449209
 21
189.697490060975
 31
0.0
  0
LINE
  5
68
330
1F
100
AcDbEntity
  8
1
  6
Continuous
 62
     1
100
AcDbLine
 10
-699.628629632449
 20
203.980465369177
 30
0.0
 11
-697.681353880286
 21
194.333806821289
 31
0.0
  0
LINE
  5
69
330
1F
100
AcDbEntity
  8
1
  6
Continuous
 62
     1
100
AcDbLine
 10
-683.518144956455
 20
203.980015453939
 30
0.0
 11
-685.465938299962
 21
194.333477173957
 31
0.0
  0
LINE
  5
6A
330
1F
100
AcDbEntity
  8
1
  6
Continuous
 62
     1
100
AcDbLine
 10
-668.9804131341911
 20
197.677404661586
 30
0.0
 11
-674.3511484876281
 21
189.69128047639
 31
0.0
  0
LINE
  5
6B
330
1F
100
AcDbEntity
  8
1
  6
Continuous
 62
     1
100
AcDbLine
 10
-658.237200073767
 20
186.355969938157
 30
0.0
 11
-665.912567822376
 21
181.227453171385
 31
0.0
  0
LINE
  5
6C
330
1F
100
AcDbEntity
  8
1
  6
Continuous
 62
     1
100
AcDbLine
 10
-652.769760629288
 20
171.913798062577
 30
0.0
 11
-661.32137184442
 21
170.187579166491
 31
0.0
  0
LINE
  5
6D
330
1F
100
AcDbEntity
  8
1
  6
Continuous
 62
     1
100
AcDbLine
 10
-653.313262512416
 20
156.353106488377
 30
0.0
 11
-661.322024219413
 21
157.970636571005
 31
0.0
  0
LINE
  5
6E
330
1F
100
AcDbEntity
  8
1
  6
Continuous
 62
     7
100
AcDbLine
 10
-659.529340769992
 20
142.668857552296
 30
0.0
 11
-665.9125678239581
 21
146.933993510744
 31
0.0
  0
LINE
  5
6F
330
1F
100
AcDbEntity
  8
1
  6
Continuous
 62
     7
100
AcDbLine
 10
538.64853079029
 20
143.886364851261
 30
0.0
 11
534.0874321760419
 21
146.933993510744
 31
0.0
  0
LINE
  5
70
330
1F
100
AcDbEntity
  8
1
  6
Continuous
 62
     1
100
AcDbLine
 10
546.05652420592
 20
156.480390702698
 30
0.0
 11
538.677975780587
 21
157.970636571005
 31
0.0
  0
LINE
  5
71
330
1F
100
AcDbEntity
  8
1
  6
Continuous
 62
     1
100
AcDbLine
 10
545.677578787285
 20
171.6003796937
 30
0.0
 11
538.67862815558
 21
170.187579166491
 31
0.0
  0
LINE
  5
72
330
1F
100
AcDbEntity
  8
1
  6
Continuous
 62
     1
100
AcDbLine
 10
539.737150927221
 20
185.002474549364
 30
0.0
 11
534.087432177624
 21
181.227453171385
 31
0.0
  0
LINE
  5
73
330
1F
100
AcDbEntity
  8
1
  6
Continuous
 62
     1
100
AcDbLine
 10
530.08850986369
 20
196.292920773333
 30
0.0
 11
525.648851512372
 21
189.69128047639
 31
0.0
  0
LINE
  5
74
330
1F
100
AcDbEntity
  8
1
  6
Continuous
 62
     1
100
AcDbLine
 10
516.599941232647
 20
204.564842867637
 30
0.0
 11
514.534061700038
 21
194.333477173957
 31
0.0
  0
LINE
  5
75
330
1F
100
AcDbEntity
  8
1
  6
Continuous
 62
     1
100
AcDbLine
 10
500.004314782163
 20
205.798831307541
 30
0.0
 11
502.318646119714
 21
194.333806821289
 31
0.0
  0
LINE
  5
76
330
1F
100
AcDbEntity
  8
1
  6
Continuous
 62
     1
100
AcDbLine
 10
485.116891593362
 20
198.766994730474
 30
0.0
 11
491.211460550791
 21
189.697490060975
 31
0.0
  0
LINE
  5
77
330
1F
100
AcDbEntity
  8
1
  6
Continuous
 62
     1
100
AcDbLine
 10
473.644647447071
 20
187.320571082998
 30
0.0
 11
482.763642822649
 21
181.227453173752
 31
0.0
  0
LINE
  5
78
330
1F
100
AcDbEntity
  8
1
  6
Continuous
 62
     1
100
AcDbLine
 10
465.439507673612
 20
172.762614370163
 30
0.0
 11
478.173099219694
 21
170.190810121362
 31
0.0
  0
LINE
  5
79
330
1F
100
AcDbEntity
  8
1
  6
Continuous
 62
     1
100
AcDbLine
 10
461.975881683235
 20
154.704446571787
 30
0.0
 11
478.172446843111
 21
157.973867518005
 31
0.0
  0
LINE
  5
7A
330
1F
100
AcDbEntity
  8
1
  6
Continuous
 62
     7
100
AcDbLine
 10
467.834054534325
 20
136.958361548971
 30
0.0
 11
482.763642821068
 21
146.933993513111
 31
0.0
  0
LINE
  5
7B
330
1F
100
AcDbEntity
  8
1
  6
Continuous
 62
     5
100
AcDbLine
 10
510.925537495345
 20
263.143684806556
 30
0.0
 11
510.925537495345
 21
260.143684806556
 31
0.0
  0
LINE
  5
7C
330
1F
100
AcDbEntity
  8
1
  6
Continuous
 62
     5
100
AcDbLine
 10
505.925537495345
 20
263.143684806556
 30
0.0
 11
505.925537495345
 21
260.143684806556
 31
0.0
  0
LINE
  5
7D
330
1F
100
AcDbEntity
  8
1
  6
Continuous
 62
     5
100
AcDbLine
 10
533.425537495345
 20
260.143684806556
 30
0.0
 11
483.425537495345
 21
260.143684806556
 31
0.0
  0
LINE
  5
7E
330
1F
100
AcDbEntity
  8
1
  6
Continuous
 62
     5
100
AcDbLine
 10
483.425537495345
 20
260.143684806556
 30
0.0
 11
483.425537495345
 21
259.343684806556
 31
0.0
  0
LINE
  5
7F
330
1F
100
AcDbEntity
  8
1
  6
Continuous
 62
     5
100
AcDbLine
 10
483.425537495345
 20
259.343684806556
 30
0.0
 11
533.425537495345
 21
259.343684806556
 31
0.0
  0
LINE
  5
80
330
1F
100
AcDbEntity
  8
1
  6
Continuous
 62
     5
100
AcDbLine
 10
533.425537495345
 20
259.343684806556
 30
0.0
 11
533.425537495345
 21
260.143684806556
 31
0.0
  0
LINE
  5
81
330
1F
100
AcDbEntity
  8
1
  6
Continuous
 62
     5
100
AcDbLine
 10
687.7960377827531
 20
263.143684806556
 30
0.0
 11
687.7960377827531
 21
260.143684806556
 31
0.0
  0
LINE
  5
82
330
1F
100
AcDbEntity
  8
1
  6
Continuous
 62
     5
100
AcDbLine
 10
682.7960377827531
 20
263.143684806556
 30
0.0
 11
682.7960377827531
 21
260.143684806556
 31
0.0
  0
LINE
  5
83
330
1F
100
AcDbEntity
  8
1
  6
Continuous
 62
     5
100
AcDbLine
 10
710.2960377827531
 20
259.343684806556
 30
0.0
 11
710.2960377827531
 21
260.143684806556
 31
0.0
  0
LINE
  5
84
330
1F
100
AcDbEntity
  8
1
  6
Continuous
 62
     5
100
AcDbLine
 10
660.2960377827531
 20
259.343684806556
 30
0.0
 11
710.2960377827531
 21
259.343684806556
 31
0.0
  0
LINE
  5
85
330
1F
100
AcDbEntity
  8
1
  6
Continuous
 62
     5
100
AcDbLine
 10
660.2960377827531
 20
260.143684806556
 30
0.0
 11
660.2960377827531
 21
259.343684806556
 31
0.0
  0
LINE
  5
86
330
1F
100
AcDbEntity
  8
1
  6
Continuous
 62
     5
100
AcDbLine
 10
710.2960377827531
 20
260.143684806556
 30
0.0
 11
660.2960377827531
 21
260.143684806556
 31
0.0
  0
LINE
  5
87
330
1F
100
AcDbEntity
  8
1
  6
Continuous
 62
     7
100
AcDbLine
 10
483.413085697745
 20
263.143684806556
 30
0.0
 11
462.852273698711
 21
352.202345936022
 31
0.0
  0
LINE
  5
88
330
1F
100
AcDbEntity
  8
1
  6
Continuous
 62
     1
100
AcDbLine
 10
462.987829263963
 20
355.385262507705
 30
0.0
 11
483.87435568664
 21
263.143684806556
 31
0.0
  0
LINE
  5
89
330
1F
100
AcDbEntity
  8
1
  6
Continuous
 62
     7
100
AcDbLine
 10
487.88444609994
 20
263.143684806556
 30
0.0
 11
468.090056739633
 21
366.261007065489
 31
0.0
  0
LINE
  5
8A
330
1F
100
AcDbEntity
  8
1
  6
Continuous
 62
     1
100
AcDbLine
 10
490.288920132533
 20
296.890119119666
 30
0.0
 11
484.567454305176
 21
341.49709086342
 31
0.0
  0
LINE
  5
8B
330
1F
100
AcDbEntity
  8
1
  6
Continuous
 62
     1
100
AcDbLine
 10
501.98100646699
 20
297.043684806539
 30
0.0
 11
500.07095795763
 21
339.451227776962
 31
0.0
  0
LINE
  5
8C
330
1F
100
AcDbEntity
  8
1
  6
Continuous
 62
     7
100
AcDbLine
 10
508.425537495345
 20
263.143684806556
 30
0.0
 11
483.413085697745
 21
263.143684806556
 31
0.0
  0
LINE
  5
8D
330
1F
100
AcDbEntity
  8
1
  6
Continuous
 62
     7
100
AcDbLine
 10
533.437989292945
 20
263.143684806556
 30
0.0
 11
508.425537495345
 21
263.143684806556
 31
0.0
  0
LINE
  5
8E
330
1F
100
AcDbEntity
  8
1
  6
Continuous
 62
     1
100
AcDbLine
 10
516.646893832747
 20
336.493361228413
 30
0.0
 11
514.8700685237
 21
297.043684806539
 31
0.0
  0
LINE
  5
8F
330
1F
100
AcDbEntity
  8
1
  6
Continuous
 62
     1
100
AcDbLine
 10
531.1173952014671
 20
332.404702866451
 30
0.0
 11
526.562154858157
 21
296.890119119666
 31
0.0
  0
LINE
  5
90
330
1F
100
AcDbEntity
  8
1
  6
Continuous
 62
     7
100
AcDbLine
 10
538.392528586134
 20
312.247171596524
 30
0.0
 11
528.96662889075
 21
263.143684806556
 31
0.0
  0
LINE
  5
91
330
1F
100
AcDbEntity
  8
1
  6
Continuous
 62
     1
100
AcDbLine
 10
532.97671930405
 20
263.143684806556
 30
0.0
 11
545.161800615415
 21
316.956899212414
 31
0.0
  0
LINE
  5
92
330
1F
100
AcDbEntity
  8
1
  6
Continuous
 62
     7
100
AcDbLine
 10
546.7909540729009
 20
320.981729601072
 30
0.0
 11
533.437989292945
 21
263.143684806556
 31
0.0
  0
LINE
  5
93
330
1F
100
AcDbEntity
  8
1
  6
Continuous
 62
     1
100
AcDbLine
 10
643.800622435308
 20
338.147153154964
 30
0.0
 11
660.783873998277
 21
263.143684806556
 31
0.0
  0
LINE
  5
94
330
1F
100
AcDbEntity
  8
1
  6
Continuous
 62
     1
100
AcDbLine
 10
664.554646880613
 20
263.143684806556
 30
0.0
 11
649.832436510938
 21
339.837629809364
 31
0.0
  0
LINE
  5
95
330
1F
100
AcDbEntity
  8
1
  6
Continuous
 62
     1
100
AcDbLine
 10
661.223395387224
 20
343.132761684999
 30
0.0
 11
671.483108396907
 21
263.143684806556
 31
0.0
  0
LINE
  5
96
330
1F
100
AcDbEntity
  8
1
  6
Continuous
 62
     1
100
AcDbLine
 10
676.665132569651
 20
348.607825711661
 30
0.0
 11
680.514463223629
 21
263.143684806556
 31
0.0
  0
LINE
  5
97
330
1F
100
AcDbEntity
  8
1
  6
Continuous
 62
     1
100
AcDbLine
 10
694.477364737913
 20
356.473329875399
 30
0.0
 11
690.27376938283
 21
263.143684806556
 31
0.0
  0
LINE
  5
98
330
1F
100
AcDbEntity
  8
1
  6
Continuous
 62
     7
100
AcDbLine
 10
699.192211455993
 20
263.143684806556
 30
0.0
 11
708.050620542588
 21
263.143684806556
 31
0.0
  0
LINE
  5
99
330
1F
100
AcDbEntity
  8
1
  6
Continuous
 62
     7
100
AcDbLine
 10
715.3784510785659
 20
294.884005983986
 30
0.0
 11
708.050620542588
 21
263.143684806556
 31
0.0
  0
LINE
  5
9A
330
1F
100
AcDbEntity
  8
1
  6
Continuous
 62
     7
100
AcDbLine
 10
660.283585985772
 20
263.143684806556
 30
0.0
 11
642.968471651355
 21
338.143684806556
 31
0.0
  0
LINE
  5
9B
330
1F
100
AcDbEntity
  8
1
  6
Continuous
 62
     7
100
AcDbLine
 10
699.192211455993
 20
263.143684806556
 30
0.0
 11
660.283585985772
 21
263.143684806556
 31
0.0
  0
LINE
  5
9C
330
1F
100
AcDbEntity
  8
1
  6
Continuous
 62
     7
100
AcDbLine
 10
712.4183995772
 20
366.261007065489
 30
0.0
 11
699.192211455993
 21
263.143684806556
 31
0.0
  0
LINE
  5
9D
330
1F
100
AcDbEntity
  8
1
  6
Continuous
 62
     7
100
AcDbLine
 10
-55.4298745364018
 20
139.92968178814
 30
0.0
 11
-65.9125678239577
 21
146.933993510744
 31
0.0
  0
LINE
  5
9E
330
1F
100
AcDbEntity
  8
1
  6
Continuous
 62
     1
100
AcDbLine
 10
-49.5076190322196
 20
155.584480446276
 30
0.0
 11
-61.3220242194128
 21
157.970636571005
 31
0.0
  0
LINE
  5
9F
330
1F
100
AcDbEntity
  8
1
  6
Continuous
 62
     1
100
AcDbLine
 10
-50.1003115174171
 20
172.452650143562
 30
0.0
 11
-61.3213718444196
 21
170.187579166491
 31
0.0
  0
LINE
  5
A0
330
1F
100
AcDbEntity
  8
1
  6
Continuous
 62
     1
100
AcDbLine
 10
-56.8432597456284
 20
187.287371087767
 30
0.0
 11
-65.9125678223763
 21
181.227453171385
 31
0.0
  0
LINE
  5
A1
330
1F
100
AcDbEntity
  8
1
  6
Continuous
 62
     1
100
AcDbLine
 10
-68.4924671247454
 20
198.402965906119
 30
0.0
 11
-74.35114848762819
 21
189.69128047639
 31
0.0
  0
LINE
  5
A2
330
1F
100
AcDbEntity
  8
1
  6
Continuous
 62
     1
100
AcDbLine
 10
-83.4321270239376
 20
204.406023316403
 30
0.0
 11
-85.46593829996191
 21
194.333477173957
 31
0.0
  0
LINE
  5
A3
330
1F
100
AcDbEntity
  8
1
  6
Continuous
 62
     1
100
AcDbLine
 10
-99.7146183937874
 20
204.406447266538
 30
0.0
 11
-97.6813538802862
 21
194.333806821289
 31
0.0
  0
LINE
  5
A4
330
1F
100
AcDbEntity
  8
1
  6
Continuous
 62
     1
100
AcDbLine
 10
-114.643912170914
 20
198.411039880839
 30
0.0
 11
-108.788539449209
 21
189.697490060975
 31
0.0
  0
LINE
  5
A5
330
1F
100
AcDbEntity
  8
1
  6
Continuous
 62
     1
100
AcDbLine
 10
-126.30566525806
 20
187.28737109399
 30
0.0
 11
-117.236357177351
 21
181.227453173752
 31
0.0
  0
LINE
  5
A6
330
1F
100
AcDbEntity
  8
1
  6
Continuous
 62
     1
100
AcDbLine
 10
-133.047563276328
 20
172.45704799912
 30
0.0
 11
-121.826900780306
 21
170.190810121362
 31
0.0
  0
LINE
  5
A7
330
1F
100
AcDbEntity
  8
1
  6
Continuous
 62
     1
100
AcDbLine
 10
-133.642055020069
 20
155.589005080857
 30
0.0
 11
-121.827553156889
 21
157.973867518005
 31
0.0
  0
LINE
  5
A8
330
1F
100
AcDbEntity
  8
1
  6
Continuous
 62
     7
100
AcDbLine
 10
-127.719050471838
 20
139.92968178833
 30
0.0
 11
-117.236357178932
 21
146.933993513111
 31
0.0
  0
LINE
  5
A9
330
1F
100
AcDbEntity
  8
1
  6
Continuous
 62
     5
100
AcDbLine
 10
-89.0744625046551
 20
263.143684806556
 30
0.0
 11
-89.0744625046551
 21
260.143684806556
 31
0.0
  0
LINE
  5
AA
330
1F
100
AcDbEntity
  8
1
  6
Continuous
 62
     5
100
AcDbLine
 10
-94.0744625046551
 20
263.143684806556
 30
0.0
 11
-94.0744625046551
 21
260.143684806556
 31
0.0
  0
LINE
  5
AB
330
1F
100
AcDbEntity
  8
1
  6
Continuous
 62
     5
100
AcDbLine
 10
-66.5744625046551
 20
260.143684806556
 30
0.0
 11
-116.574462504655
 21
260.143684806556
 31
0.0
  0
LINE
  5
AC
330
1F
100
AcDbEntity
  8
1
  6
Continuous
 62
     5
100
AcDbLine
 10
-116.574462504655
 20
260.143684806556
 30
0.0
 11
-116.574462504655
 21
259.343684806556
 31
0.0
  0
LINE
  5
AD
330
1F
100
AcDbEntity
  8
1
  6
Continuous
 62
     5
100
AcDbLine
 10
-116.574462504655
 20
259.343684806556
 30
0.0
 11
-66.5744625046551
 21
259.343684806556
 31
0.0
  0
LINE
  5
AE
330
1F
100
AcDbEntity
  8
1
  6
Continuous
 62
     5
100
AcDbLine
 10
-66.5744625046551
 20
259.343684806556
 30
0.0
 11
-66.5744625046551
 21
260.143684806556
 31
0.0
  0
LINE
  5
AF
330
1F
100
AcDbEntity
  8
1
  6
Continuous
 62
     5
100
AcDbLine
 10
87.7960377827529
 20
263.143684806556
 30
0.0
 11
87.7960377827529
 21
260.143684806556
 31
0.0
  0
LINE
  5
B0
330
1F
100
AcDbEntity
  8
1
  6
Continuous
 62
     5
100
AcDbLine
 10
82.7960377827529
 20
263.143684806556
 30
0.0
 11
82.7960377827529
 21
260.143684806556
 31
0.0
  0
LINE
  5
B1
330
1F
100
AcDbEntity
  8
1
  6
Continuous
 62
     5
100
AcDbLine
 10
110.296037782753
 20
259.343684806556
 30
0.0
 11
110.296037782753
 21
260.143684806556
 31
0.0
  0
LINE
  5
B2
330
1F
100
AcDbEntity
  8
1
  6
Continuous
 62
     5
100
AcDbLine
 10
60.2960377827529
 20
259.343684806556
 30
0.0
 11
110.296037782753
 21
259.343684806556
 31
0.0
  0
LINE
  5
B3
330
1F
100
AcDbEntity
  8
1
  6
Continuous
 62
     5
100
AcDbLine
 10
60.2960377827529
 20
260.143684806556
 30
0.0
 11
60.2960377827529
 21
259.343684806556
 31
0.0
  0
LINE
  5
B4
330
1F
100
AcDbEntity
  8
1
  6
Continuous
 62
     5
100
AcDbLine
 10
110.296037782753
 20
260.143684806556
 30
0.0
 11
60.2960377827529
 21
260.143684806556
 31
0.0
  0
LINE
  5
B5
330
1F
100
AcDbEntity
  8
1
  6
Continuous
 62
     7
100
AcDbLine
 10
-116.586914302255
 20
263.143684806556
 30
0.0
 11
-134.171533799459
 21
339.311039917126
 31
0.0
  0
LINE
  5
B6
330
1F
100
AcDbEntity
  8
1
  6
Continuous
 62
     1
100
AcDbLine
 10
-133.605188203741
 20
340.33893849865
 30
0.0
 11
-116.12564431336
 21
263.143684806556
 31
0.0
  0
LINE
  5
B7
330
1F
100
AcDbEntity
  8
1
  6
Continuous
 62
     7
100
AcDbLine
 10
-112.11555390006
 20
263.143684806556
 30
0.0
 11
-127.401545362368
 21
342.774861044149
 31
0.0
  0
LINE
  5
B8
330
1F
100
AcDbEntity
  8
1
  6
Continuous
 62
     1
100
AcDbLine
 10
-109.711079867467
 20
296.890119119666
 30
0.0
 11
-114.460394794247
 21
333.917790547518
 31
0.0
  0
LINE
  5
B9
330
1F
100
AcDbEntity
  8
1
  6
Continuous
 62
     1
100
AcDbLine
 10
-98.01899353300971
 20
297.043684806539
 30
0.0
 11
-99.6399107435473
 21
333.03183689823
 31
0.0
  0
LINE
  5
BA
330
1F
100
AcDbEntity
  8
1
  6
Continuous
 62
     7
100
AcDbLine
 10
-91.5744625046551
 20
263.143684806556
 30
0.0
 11
-116.586914302255
 21
263.143684806556
 31
0.0
  0
LINE
  5
BB
330
1F
100
AcDbEntity
  8
1
  6
Continuous
 62
     7
100
AcDbLine
 10
-66.5620107070547
 20
263.143684806556
 30
0.0
 11
-91.5744625046551
 21
263.143684806556
 31
0.0
  0
LINE
  5
BC
330
1F
100
AcDbEntity
  8
1
  6
Continuous
 62
     1
100
AcDbLine
 10
44.9679087233247
 20
332.992043732471
 30
0.0
 11
60.7838739982769
 21
263.143684806556
 31
0.0
  0
LINE
  5
BD
330
1F
100
AcDbEntity
  8
1
  6
Continuous
 62
     1
100
AcDbLine
 10
64.55464688061279
 20
263.143684806556
 30
0.0
 11
50.9661038834014
 21
333.93189820168
 31
0.0
  0
LINE
  5
BE
330
1F
100
AcDbEntity
  8
1
  6
Continuous
 62
     1
100
AcDbLine
 10
62.1781978955803
 20
335.68871610862
 30
0.0
 11
71.4831083969068
 21
263.143684806556
 31
0.0
  0
LINE
  5
BF
330
1F
100
AcDbEntity
  8
1
  6
Continuous
 62
     1
100
AcDbLine
 10
77.14141260023619
 20
338.033295409325
 30
0.0
 11
80.51446322362899
 21
263.143684806556
 31
0.0
  0
LINE
  5
C0
330
1F
100
AcDbEntity
  8
1
  6
Continuous
 62
     1
100
AcDbLine
 10
93.7641322821535
 20
340.637901789499
 30
0.0
 11
90.2737693828303
 21
263.143684806556
 31
0.0
  0
LINE
  5
C1
330
1F
100
AcDbEntity
  8
1
  6
Continuous
 62
     7
100
AcDbLine
 10
99.1922114559934
 20
263.143684806556
 30
0.0
 11
108.050620542588
 21
263.143684806556
 31
0.0
  0
LINE
  5
C2
330
1F
100
AcDbEntity
  8
1
  6
Continuous
 62
     7
100
AcDbLine
 10
115.378451078566
 20
294.884005983986
 30
0.0
 11
108.050620542588
 21
263.143684806556
 31
0.0
  0
LINE
  5
C3
330
1F
100
AcDbEntity
  8
1
  6
Continuous
 62
     7
100
AcDbLine
 10
44.1861032331822
 20
332.869542986104
 30
0.0
 11
109.447079339137
 21
343.095255624864
 31
0.0
  0
LINE
  5
C4
330
1F
100
AcDbEntity
  8
1
  6
Continuous
 62
     7
100
AcDbLine
 10
60.2835859857719
 20
263.143684806556
 30
0.0
 11
44.1861032331822
 21
332.869542986104
 31
0.0
  0
LINE
  5
C5
330
1F
100
AcDbEntity
  8
1
  6
Continuous
 62
     7
100
AcDbLine
 10
99.1922114559934
 20
263.143684806556
 30
0.0
 11
60.2835859857719
 21
263.143684806556
 31
0.0
  0
LINE
  5
C6
330
1F
100
AcDbEntity
  8
1
  6
Continuous
 62
     7
100
AcDbLine
 10
109.447079339137
 20
343.095255624864
 30
0.0
 11
99.1922114559934
 21
263.143684806556
 31
0.0
  0
LINE
  5
C7
330
1F
100
AcDbEntity
  8
1
  6
Continuous
 62
     7
100
AcDbLine
 10
-555.813896766818
 20
332.869542986104
 30
0.0
 11
-493.175316831141
 21
322.649873440439
 31
0.0
  0
LINE
  5
C8
330
1F
100
AcDbEntity
  8
1
  6
Continuous
 62
     1
100
AcDbLine
 10
-718.431034128655
 20
296.043684806518
 30
0.0
 11
-664.717890880633
 21
296.043684806518
 31
0.0
  0
LINE
  5
C9
330
1F
100
AcDbEntity
  8
1
  6
Continuous
 62
     7
100
AcDbLine
 10
-659.610569960371
 20
322.649873440443
 30
0.0
 11
-671.03337110925
 21
263.143684806556
 31
0.0
  0
LINE
  5
CA
330
1F
100
AcDbEntity
  8
1
  6
Continuous
 62
     7
100
AcDbLine
 10
-712.11555390006
 20
263.143684806556
 30
0.0
 11
-723.538355048897
 21
322.649873440434
 31
0.0
  0
LINE
  5
CB
330
1F
100
AcDbEntity
  8
1
  6
Continuous
 62
     1
100
AcDbLine
 10
-496.587919567051
 20
296.043684806518
 30
0.0
 11
-485.543170829397
 21
296.043684806518
 31
0.0
  0
LINE
  5
CC
330
1F
100
AcDbEntity
  8
1
  6
Continuous
 62
     7
100
AcDbLine
 10
1096.93799866352
 20
263.143684806556
 30
0.0
 11
1083.58503388357
 21
320.981729601072
 31
0.0
  0
LINE
  5
CD
330
1F
100
AcDbEntity
  8
1
  6
Continuous
 62
     1
100
AcDbLine
 10
1085.21418734105
 20
316.956899212414
 30
0.0
 11
1097.39926865242
 21
263.143684806556
 31
0.0
  0
LINE
  5
CE
330
1F
100
AcDbEntity
  8
1
  6
Continuous
 62
     7
100
AcDbLine
 10
1101.40935906572
 20
263.143684806556
 30
0.0
 11
1091.98345937033
 21
312.247171596524
 31
0.0
  0
LINE
  5
CF
330
1F
100
AcDbEntity
  8
1
  6
Continuous
 62
     1
100
AcDbLine
 10
1103.81383309831
 20
296.890119119666
 30
0.0
 11
1099.258592755
 21
332.404702866451
 31
0.0
  0
LINE
  5
D0
330
1F
100
AcDbEntity
  8
1
  6
Continuous
 62
     1
100
AcDbLine
 10
1115.50591943277
 20
297.043684806539
 30
0.0
 11
1113.72909412372
 21
336.493361228413
 31
0.0
  0
LINE
  5
D1
330
1F
100
AcDbEntity
  8
1
  6
Continuous
 62
     7
100
AcDbLine
 10
1121.95045046112
 20
263.143684806556
 30
0.0
 11
1096.93799866352
 21
263.143684806556
 31
0.0
  0
LINE
  5
D2
330
1F
100
AcDbEntity
  8
1
  6
Continuous
 62
     7
100
AcDbLine
 10
1146.96290225872
 20
263.143684806556
 30
0.0
 11
1121.95045046112
 21
263.143684806556
 31
0.0
  0
LINE
  5
D3
330
1F
100
AcDbEntity
  8
1
  6
Continuous
 62
     1
100
AcDbLine
 10
1130.30502999884
 20
339.451227776962
 30
0.0
 11
1128.39498148948
 21
297.043684806539
 31
0.0
  0
LINE
  5
D4
330
1F
100
AcDbEntity
  8
1
  6
Continuous
 62
     1
100
AcDbLine
 10
1145.80853365129
 20
341.49709086342
 30
0.0
 11
1140.08706782393
 21
296.890119119666
 31
0.0
  0
LINE
  5
D5
330
1F
100
AcDbEntity
  8
1
  6
Continuous
 62
     7
100
AcDbLine
 10
1162.28593121683
 20
366.261007065489
 30
0.0
 11
1142.49154185653
 21
263.143684806556
 31
0.0
  0
LINE
  5
D6
330
1F
100
AcDbEntity
  8
1
  6
Continuous
 62
     1
100
AcDbLine
 10
1146.50163226983
 20
263.143684806556
 30
0.0
 11
1167.3881586925
 21
355.385262507705
 31
0.0
  0
LINE
  5
D7
330
1F
100
AcDbEntity
  8
1
  6
Continuous
 62
     7
100
AcDbLine
 10
1167.52371425776
 20
352.202345936022
 30
0.0
 11
1146.96290225872
 21
263.143684806556
 31
0.0
  0
LINE
  5
D8
330
1F
100
AcDbEntity
  8
1
  6
Continuous
 62
     5
100
AcDbLine
 10
1096.95045046112
 20
260.143684806556
 30
0.0
 11
1096.95045046112
 21
259.343684806556
 31
0.0
  0
LINE
  5
D9
330
1F
100
AcDbEntity
  8
1
  6
Continuous
 62
     5
100
AcDbLine
 10
1096.95045046112
 20
259.343684806556
 30
0.0
 11
1146.95045046112
 21
259.343684806556
 31
0.0
  0
LINE
  5
DA
330
1F
100
AcDbEntity
  8
1
  6
Continuous
 62
     5
100
AcDbLine
 10
1146.95045046112
 20
259.343684806556
 30
0.0
 11
1146.95045046112
 21
260.143684806556
 31
0.0
  0
LINE
  5
DB
330
1F
100
AcDbEntity
  8
1
  6
Continuous
 62
     5
100
AcDbLine
 10
1146.95045046112
 20
260.143684806556
 30
0.0
 11
1096.95045046112
 21
260.143684806556
 31
0.0
  0
LINE
  5
DC
330
1F
100
AcDbEntity
  8
1
  6
Continuous
 62
     5
100
AcDbLine
 10
1124.45045046112
 20
260.143684806556
 30
0.0
 11
1124.45045046112
 21
263.143684806556
 31
0.0
  0
LINE
  5
DD
330
1F
100
AcDbEntity
  8
1
  6
Continuous
 62
     5
100
AcDbLine
 10
1119.45045046112
 20
260.143684806556
 30
0.0
 11
1119.45045046112
 21
263.143684806556
 31
0.0
  0
LINE
  5
DE
330
1F
100
AcDbEntity
  8
1
  6
Continuous
 62
     7
100
AcDbLine
 10
1147.6123451354
 20
146.933993513111
 30
0.0
 11
1162.54193342214
 21
136.958361548971
 31
0.0
  0
LINE
  5
DF
330
1F
100
AcDbEntity
  8
1
  6
Continuous
 62
     1
100
AcDbLine
 10
1152.20354111336
 20
157.973867518005
 30
0.0
 11
1168.40010627323
 21
154.704446571787
 31
0.0
  0
LINE
  5
E0
330
1F
100
AcDbEntity
  8
1
  6
Continuous
 62
     1
100
AcDbLine
 10
1152.20288873677
 20
170.190810121362
 30
0.0
 11
1164.93648028285
 21
172.762614370163
 31
0.0
  0
LINE
  5
E1
330
1F
100
AcDbEntity
  8
1
  6
Continuous
 62
     1
100
AcDbLine
 10
1147.61234513382
 20
181.227453173752
 30
0.0
 11
1156.7313405094
 21
187.320571082998
 31
0.0
  0
LINE
  5
E2
330
1F
100
AcDbEntity
  8
1
  6
Continuous
 62
     1
100
AcDbLine
 10
1139.16452740568
 20
189.697490060975
 30
0.0
 11
1145.2590963631
 21
198.766994730474
 31
0.0
  0
LINE
  5
E3
330
1F
100
AcDbEntity
  8
1
  6
Continuous
 62
     1
100
AcDbLine
 10
1128.05734183675
 20
194.333806821289
 30
0.0
 11
1130.3716731743
 21
205.798831307541
 31
0.0
  0
LINE
  5
E4
330
1F
100
AcDbEntity
  8
1
  6
Continuous
 62
     1
100
AcDbLine
 10
1115.84192625643
 20
194.333477173957
 30
0.0
 11
1113.77604672382
 21
204.564842867637
 31
0.0
  0
LINE
  5
E5
330
1F
100
AcDbEntity
  8
1
  6
Continuous
 62
     1
100
AcDbLine
 10
1104.72713644409
 20
189.69128047639
 30
0.0
 11
1100.28747809278
 21
196.292920773333
 31
0.0
  0
LINE
  5
E6
330
1F
100
AcDbEntity
  8
1
  6
Continuous
 62
     1
100
AcDbLine
 10
1096.28855577884
 20
181.227453171385
 30
0.0
 11
1090.63883702925
 21
185.002474549364
 31
0.0
  0
LINE
  5
E7
330
1F
100
AcDbEntity
  8
1
  6
Continuous
 62
     1
100
AcDbLine
 10
1091.69735980088
 20
170.187579166491
 30
0.0
 11
1084.69840916918
 21
171.6003796937
 31
0.0
  0
LINE
  5
E8
330
1F
100
AcDbEntity
  8
1
  6
Continuous
 62
     1
100
AcDbLine
 10
1091.69801217588
 20
157.970636571005
 30
0.0
 11
1084.31946375055
 21
156.480390702698
 31
0.0
  0
LINE
  5
E9
330
1F
100
AcDbEntity
  8
1
  6
Continuous
 62
     7
100
AcDbLine
 10
1096.28855578042
 20
146.933993510744
 30
0.0
 11
1091.72745716618
 21
143.886364851261
 31
0.0
  0
LINE
  5
EA
330
1F
100
AcDbEntity
  8
1
  6
Continuous
 62
     5
100
AcDbLine
 10
1301.32095074853
 20
263.143684806556
 30
0.0
 11
1301.32095074853
 21
260.143684806556
 31
0.0
  0
LINE
  5
EB
330
1F
100
AcDbEntity
  8
1
  6
Continuous
 62
     5
100
AcDbLine
 10
1296.32095074853
 20
263.143684806556
 30
0.0
 11
1296.32095074853
 21
260.143684806556
 31
0.0
  0
LINE
  5
EC
330
1F
100
AcDbEntity
  8
1
  6
Continuous
 62
     5
100
AcDbLine
 10
1323.82095074853
 20
259.343684806556
 30
0.0
 11
1323.82095074853
 21
260.143684806556
 31
0.0
  0
LINE
  5
ED
330
1F
100
AcDbEntity
  8
1
  6
Continuous
 62
     5
100
AcDbLine
 10
1273.82095074853
 20
259.343684806556
 30
0.0
 11
1323.82095074853
 21
259.343684806556
 31
0.0
  0
LINE
  5
EE
330
1F
100
AcDbEntity
  8
1
  6
Continuous
 62
     5
100
AcDbLine
 10
1273.82095074853
 20
260.143684806556
 30
0.0
 11
1273.82095074853
 21
259.343684806556
 31
0.0
  0
LINE
  5
EF
330
1F
100
AcDbEntity
  8
1
  6
Continuous
 62
     5
100
AcDbLine
 10
1323.82095074853
 20
260.143684806556
 30
0.0
 11
1273.82095074853
 21
260.143684806556
 31
0.0
  0
LINE
  5
F0
330
1F
100
AcDbEntity
  8
1
  6
Continuous
 62
     1
100
AcDbLine
 10
1257.32553540108
 20
338.147153154964
 30
0.0
 11
1274.30878696405
 21
263.143684806556
 31
0.0
  0
LINE
  5
F1
330
1F
100
AcDbEntity
  8
1
  6
Continuous
 62
     1
100
AcDbLine
 10
1278.07955984639
 20
263.143684806556
 30
0.0
 11
1264.54755972717
 21
333.637343493796
 31
0.0
  0
LINE
  5
F2
330
1F
100
AcDbEntity
  8
1
  6
Continuous
 62
     1
100
AcDbLine
 10
1276.75008927846
 20
327.526028027899
 30
0.0
 11
1285.00802136268
 21
263.143684806556
 31
0.0
  0
LINE
  5
F3
330
1F
100
AcDbEntity
  8
1
  6
Continuous
 62
     1
100
AcDbLine
 10
1291.42290034516
 20
321.235566312378
 30
0.0
 11
1294.0393761894
 21
263.143684806556
 31
0.0
  0
LINE
  5
F4
330
1F
100
AcDbEntity
  8
1
  6
Continuous
 62
     1
100
AcDbLine
 10
1306.17879885953
 20
315.987836163418
 30
0.0
 11
1303.79868234861
 21
263.143684806556
 31
0.0
  0
LINE
  5
F5
330
1F
100
AcDbEntity
  8
1
  6
Continuous
 62
     7
100
AcDbLine
 10
1312.71712442177
 20
263.143684806556
 30
0.0
 11
1321.57553350837
 21
263.143684806556
 31
0.0
  0
LINE
  5
F6
330
1F
100
AcDbEntity
  8
1
  6
Continuous
 62
     7
100
AcDbLine
 10
1328.90336404434
 20
294.884005983986
 30
0.0
 11
1321.57553350837
 21
263.143684806556
 31
0.0
  0
LINE
  5
F7
330
1F
100
AcDbEntity
  8
1
  6
Continuous
 62
     7
100
AcDbLine
 10
1273.80849895155
 20
263.143684806556
 30
0.0
 11
1256.49338461713
 21
338.143684806556
 31
0.0
  0
LINE
  5
F8
330
1F
100
AcDbEntity
  8
1
  6
Continuous
 62
     7
100
AcDbLine
 10
1312.71712442177
 20
263.143684806556
 30
0.0
 11
1273.80849895155
 21
263.143684806556
 31
0.0
  0
LINE
  5
F9
330
1F
100
AcDbEntity
  8
1
  6
Continuous
 62
     7
100
AcDbLine
 10
1325.94331254298
 20
366.261007065489
 30
0.0
 11
1312.71712442177
 21
263.143684806556
 31
0.0
  0
LINE
  5
FA
330
1F
100
AcDbEntity
  8
1
  6
Continuous
 62
     1
100
AcDbLine
 10
1264.54755972717
 20
333.637343493796
 30
0.0
 11
1263.35734947671
 21
339.837629809364
 31
0.0
  0
LINE
  5
FB
330
1F
100
AcDbEntity
  8
1
  6
Continuous
 62
     1
100
AcDbLine
 10
1276.75008927846
 20
327.526028027899
 30
0.0
 11
1274.748308353
 21
343.132761684999
 31
0.0
  0
LINE
  5
FC
330
1F
100
AcDbEntity
  8
1
  6
Continuous
 62
     1
100
AcDbLine
 10
1291.42290034516
 20
321.235566312378
 30
0.0
 11
1290.19004553543
 21
348.607825711661
 31
0.0
  0
LINE
  5
FD
330
1F
100
AcDbEntity
  8
1
  6
Continuous
 62
     1
100
AcDbLine
 10
1306.17879885953
 20
315.987836163418
 30
0.0
 11
1308.00227770369
 21
356.473329875399
 31
0.0
  0
LINE
  5
FE
330
1F
100
AcDbEntity
  8
1
  6
Continuous
 62
     1
100
AcDbLine
 10
-118.431034128655
 20
296.043684806518
 30
0.0
 11
-64.71789088063279
 21
296.043684806518
 31
0.0
  0
LINE
  5
FF
330
1F
100
AcDbEntity
  8
1
  6
Continuous
 62
     1
100
AcDbLine
 10
103.412080432949
 20
296.043684806518
 30
0.0
 11
114.456829170603
 21
296.043684806518
 31
0.0
  0
LINE
  5
100
330
1F
100
AcDbEntity
  8
1
  6
Continuous
 62
     1
100
AcDbLine
 10
481.568965871345
 20
296.043684806518
 30
0.0
 11
535.282109119367
 21
296.043684806518
 31
0.0
  0
LINE
  5
101
330
1F
100
AcDbEntity
  8
1
  6
Continuous
 62
     1
100
AcDbLine
 10
703.412080432949
 20
296.043684806518
 30
0.0
 11
714.456829170603
 21
296.043684806518
 31
0.0
  0
LINE
  5
102
330
1F
100
AcDbEntity
  8
1
  6
Continuous
 62
     1
100
AcDbLine
 10
1095.09387883712
 20
296.043684806518
 30
0.0
 11
1148.80702208514
 21
296.043684806518
 31
0.0
  0
LINE
  5
103
330
1F
100
AcDbEntity
  8
1
  6
Continuous
 62
     1
100
AcDbLine
 10
538.392528586134
 20
312.247171596524
 30
0.0
 11
541.357628404365
 21
327.693627050187
 31
0.0
  0
LINE
  5
104
330
1F
100
AcDbEntity
  8
1
  6
Continuous
 62
     1
100
AcDbLine
 10
1091.98345937033
 20
312.247171596524
 30
0.0
 11
1089.0183595521
 21
327.693627050187
 31
0.0
  0
LINE
  5
105
330
1F
100
AcDbEntity
  8
1
  6
Continuous
 62
     1
100
AcDbLine
 10
1316.93699339873
 20
296.043684806518
 30
0.0
 11
1327.98174213638
 21
296.043684806518
 31
0.0
  0
LINE
  5
106
330
1F
100
AcDbEntity
  8
1
  6
Continuous
 62
     1
100
AcDbLine
 10
-67.02328069595011
 20
263.143684806556
 30
0.0
 11
-49.5437368055697
 21
340.33893849865
 31
0.0
  0
LINE
  5
107
330
1F
100
AcDbEntity
  8
1
  6
Continuous
 62
     7
100
AcDbLine
 10
-48.9773912098508
 20
339.311039917126
 30
0.0
 11
-66.5620107070547
 21
263.143684806556
 31
0.0
  0
LINE
  5
108
330
1F
100
AcDbEntity
  8
1
  6
Continuous
 62
     7
100
AcDbLine
 10
-55.7473796469417
 20
342.774861044149
 30
0.0
 11
-71.0333711092503
 21
263.143684806556
 31
0.0
  0
LINE
  5
109
330
1F
100
AcDbEntity
  8
1
  6
Continuous
 62
     1
100
AcDbLine
 10
-83.5090142657629
 20
333.03183689823
 30
0.0
 11
-85.1299314763004
 21
297.043684806539
 31
0.0
  0
LINE
  5
10A
330
1F
100
AcDbEntity
  8
1
  6
Continuous
 62
     1
100
AcDbLine
 10
-68.688530215063
 20
333.917790547518
 30
0.0
 11
-73.4378451418431
 21
296.890119119666
 31
0.0
  0
LINE
  5
10B
330
1F
100
AcDbEntity
  8
1
  6
Continuous
 62
     5
100
AcDbLine
 10
-761.569938912734
 20
1164.47764028286
 30
0.0
 11
-761.569938912734
 21
1167.47764028286
 31
0.0
  0
LINE
  5
10C
330
1F
100
AcDbEntity
  8
1
  6
Continuous
 62
     5
100
AcDbLine
 10
-734.069938912734
 20
1164.47764028286
 30
0.0
 11
-764.0699389127331
 21
1164.47764028286
 31
0.0
  0
LINE
  5
10D
330
1F
100
AcDbEntity
  8
1
  6
Continuous
 62
     5
100
AcDbLine
 10
-764.0699389127331
 20
1163.67764028286
 30
0.0
 11
-734.069938912734
 21
1163.67764028286
 31
0.0
  0
LINE
  5
10E
330
1F
100
AcDbEntity
  8
1
  6
Continuous
 62
     5
100
AcDbLine
 10
-734.069938912734
 20
1163.67764028286
 30
0.0
 11
-734.069938912734
 21
1164.47764028286
 31
0.0
  0
LINE
  5
10F
330
1F
100
AcDbEntity
  8
1
  6
Continuous
 62
     7
100
AcDbLine
 10
-1037.94027607463
 20
1262.96590663182
 30
0.0
 11
-986.108562770884
 21
1262.96590663182
 31
0.0
  0
LINE
  5
110
330
1F
100
AcDbEntity
  8
1
  6
Continuous
 62
     7
100
AcDbLine
 10
-1008.15376609658
 20
1167.47764028286
 30
0.0
 11
-1037.94027607463
 21
1167.47764028286
 31
0.0
  0
LINE
  5
111
330
1F
100
AcDbEntity
  8
1
  6
Continuous
 62
     7
100
AcDbLine
 10
-1008.15376609658
 20
1167.47764028286
 30
0.0
 11
-986.108562770884
 21
1262.96590663182
 31
0.0
  0
LINE
  5
112
330
1F
100
AcDbEntity
  8
1
  6
Continuous
 62
     1
100
AcDbLine
 10
-987.104576757596
 20
1262.96590663182
 30
0.0
 11
-1008.72626243526
 21
1167.47764028286
 31
0.0
  0
LINE
  5
113
330
1F
100
AcDbEntity
  8
1
  6
Continuous
 62
     7
100
AcDbLine
 10
-1013.42970037492
 20
1167.47764028286
 30
0.0
 11
-995.099783712571
 21
1262.96590663182
 31
0.0
  0
LINE
  5
114
330
1F
100
AcDbEntity
  8
1
  6
Continuous
 62
     1
100
AcDbLine
 10
-1017.34303889321
 20
1200.37764028286
 30
0.0
 11
-1009.31522134454
 21
1262.96590663182
 31
0.0
  0
LINE
  5
115
330
1F
100
AcDbEntity
  8
1
  6
Continuous
 62
     1
100
AcDbLine
 10
-1027.88849371472
 20
1262.96590663182
 30
0.0
 11
-1030.70748820765
 21
1200.37764028286
 31
0.0
  0
LINE
  5
116
330
1F
100
AcDbEntity
  8
1
  6
Continuous
 62
     5
100
AcDbLine
 10
-1038.0023302148
 20
1164.47764028286
 30
0.0
 11
-1007.94027607463
 21
1164.47764028286
 31
0.0
  0
LINE
  5
117
330
1F
100
AcDbEntity
  8
1
  6
Continuous
 62
     5
100
AcDbLine
 10
-1038.0023302148
 20
1163.67764028286
 30
0.0
 11
-1007.94027607463
 21
1163.67764028286
 31
0.0
  0
LINE
  5
118
330
1F
100
AcDbEntity
  8
1
  6
Continuous
 62
     5
100
AcDbLine
 10
-1035.44027607463
 20
1164.47764028286
 30
0.0
 11
-1035.44027607463
 21
1167.47764028286
 31
0.0
  0
LINE
  5
119
330
1F
100
AcDbEntity
  8
1
  6
Continuous
 62
     7
100
AcDbLine
 10
-994.8437815088849
 20
944.233275064015
 30
0.0
 11
-1008.39423116414
 21
953.287396057816
 31
0.0
  0
LINE
  5
11A
330
1F
100
AcDbEntity
  8
1
  6
Continuous
 62
     7
100
AcDbLine
 10
-994.8437815088849
 20
944.233275064015
 30
0.0
 11
-1008.39423116414
 21
953.287396057816
 31
0.0
  0
LINE
  5
11B
330
1F
100
AcDbEntity
  8
1
  6
Continuous
 62
     7
100
AcDbLine
 10
-994.8437815088849
 20
944.233275064015
 30
0.0
 11
-1008.39423116414
 21
953.287396057816
 31
0.0
  0
LINE
  5
11C
330
1F
100
AcDbEntity
  8
1
  6
Continuous
 62
     1
100
AcDbLine
 10
-1003.0883398
 20
966.096950949703
 30
0.0
 11
-987.104494608262
 21
962.917566462625
 31
0.0
  0
LINE
  5
11D
330
1F
100
AcDbEntity
  8
1
  6
Continuous
 62
     1
100
AcDbLine
 10
-1003.0883398
 20
979.961913253948
 30
0.0
 11
-987.104494608262
 21
983.141297741025
 31
0.0
  0
LINE
  5
11E
330
1F
100
AcDbEntity
  8
1
  6
Continuous
 62
     1
100
AcDbLine
 10
-1008.39423116413
 20
992.771468145815
 30
0.0
 11
-994.843781509407
 21
1001.82558914042
 31
0.0
  0
LINE
  5
11F
330
1F
100
AcDbEntity
  8
1
  6
Continuous
 62
     1
100
AcDbLine
 10
-1009.14411903667
 20
1016.12592666747
 30
0.0
 11
-1018.19824003049
 21
1002.57547701223
 31
0.0
  0
LINE
  5
120
330
1F
100
AcDbEntity
  8
1
  6
Continuous
 62
     1
100
AcDbLine
 10
-1031.0077949223
 20
1007.88136837642
 30
0.0
 11
-1027.82841043632
 21
1023.86521356837
 31
0.0
  0
LINE
  5
121
330
1F
100
AcDbEntity
  8
1
  6
Continuous
 62
     7
100
AcDbLine
 10
-1067.48632098512
 20
953.287396057816
 30
0.0
 11
-1081.03677064038
 21
944.233275064015
 31
0.0
  0
LINE
  5
122
330
1F
100
AcDbEntity
  8
1
  6
Continuous
 62
     1
100
AcDbLine
 10
-1088.776057541
 20
962.917566462625
 30
0.0
 11
-1072.79221234927
 21
966.096950949703
 31
0.0
  0
LINE
  5
123
330
1F
100
AcDbEntity
  8
1
  6
Continuous
 62
     1
100
AcDbLine
 10
-1088.776057541
 20
983.141297741025
 30
0.0
 11
-1072.79221234927
 21
979.961913253948
 31
0.0
  0
LINE
  5
124
330
1F
100
AcDbEntity
  8
1
  6
Continuous
 62
     1
100
AcDbLine
 10
-1081.03677063985
 20
1001.82558914042
 30
0.0
 11
-1067.48632098513
 21
992.771468145815
 31
0.0
  0
LINE
  5
125
330
1F
100
AcDbEntity
  8
1
  6
Continuous
 62
     1
100
AcDbLine
 10
-1057.68231211877
 20
1002.57547701223
 30
0.0
 11
-1066.73643311259
 21
1016.12592666747
 31
0.0
  0
LINE
  5
126
330
1F
100
AcDbEntity
  8
1
  6
Continuous
 62
     1
100
AcDbLine
 10
-1048.05214171294
 20
1023.86521356837
 30
0.0
 11
-1044.87275722696
 21
1007.88136837642
 31
0.0
  0
LINE
  5
127
330
1F
100
AcDbEntity
  8
1
  6
Continuous
 62
     5
100
AcDbLine
 10
-766.5699389127331
 20
1167.47764028286
 30
0.0
 11
-766.5699389127331
 21
1164.47764028286
 31
0.0
  0
LINE
  5
128
330
1F
100
AcDbEntity
  8
1
  6
Continuous
 62
     5
100
AcDbLine
 10
-794.0699389127331
 20
1164.47764028286
 30
0.0
 11
-794.0699389127331
 21
1163.67764028286
 31
0.0
  0
LINE
  5
129
330
1F
100
AcDbEntity
  8
1
  6
Continuous
 62
     5
100
AcDbLine
 10
-794.0699389127331
 20
1163.67764028286
 30
0.0
 11
-764.0699389127331
 21
1163.67764028286
 31
0.0
  0
LINE
  5
12A
330
1F
100
AcDbEntity
  8
1
  6
Continuous
 62
     5
100
AcDbLine
 10
-764.0699389127331
 20
1164.47764028286
 30
0.0
 11
-794.0699389127331
 21
1164.47764028286
 31
0.0
  0
LINE
  5
12B
330
1F
100
AcDbEntity
  8
1
  6
Continuous
 62
     7
100
AcDbLine
 10
-735.273781874765
 20
1262.96590663182
 30
0.0
 11
-747.521440623388
 21
1167.47764028286
 31
0.0
  0
LINE
  5
12C
330
1F
100
AcDbEntity
  8
1
  6
Continuous
 62
     7
100
AcDbLine
 10
-736.130776328713
 20
1167.47764028286
 30
0.0
 11
-793.8564488907811
 21
1167.47764028286
 31
0.0
  0
LINE
  5
12D
330
1F
100
AcDbEntity
  8
1
  6
Continuous
 62
     7
100
AcDbLine
 10
-736.130776328713
 20
1167.47764028286
 30
0.0
 11
-728.535212840682
 21
1200.37764028286
 31
0.0
  0
LINE
  5
12E
330
1F
100
AcDbEntity
  8
1
  6
Continuous
 62
     7
100
AcDbLine
 10
-743.301571646427
 20
1200.37764028286
 30
0.0
 11
-728.535212840682
 21
1200.37764028286
 31
0.0
  0
LINE
  5
12F
330
1F
100
AcDbEntity
  8
1
  6
Continuous
 62
     1
100
AcDbLine
 10
-758.2589101399921
 20
1167.47764028286
 30
0.0
 11
-753.9580898671881
 21
1262.96590663182
 31
0.0
  0
LINE
  5
130
330
1F
100
AcDbEntity
  8
1
  6
Continuous
 62
     1
100
AcDbLine
 10
-774.181788017263
 20
1262.96590663182
 30
0.0
 11
-769.880967646908
 21
1167.47764028286
 31
0.0
  0
LINE
  5
131
330
1F
100
AcDbEntity
  8
1
  6
Continuous
 62
     1
100
AcDbLine
 10
-780.618348673003
 20
1167.47764028286
 30
0.0
 11
-792.866048855891
 21
1262.96590663182
 31
0.0
  0
LINE
  5
132
330
1F
100
AcDbEntity
  8
1
  6
Continuous
 62
     1
100
AcDbLine
 10
-807.16636292712
 20
1262.96590663182
 30
0.0
 11
-788.836384367606
 21
1167.47764028286
 31
0.0
  0
LINE
  5
133
330
1F
100
AcDbEntity
  8
1
  6
Continuous
 62
     1
100
AcDbLine
 10
-793.2839532147231
 20
1167.47764028286
 30
0.0
 11
-814.905637166699
 21
1262.96590663182
 31
0.0
  0
LINE
  5
134
330
1F
100
AcDbEntity
  8
1
  6
Continuous
 62
     7
100
AcDbLine
 10
-815.90165221648
 20
1262.96590663182
 30
0.0
 11
-793.8564488907811
 21
1167.47764028286
 31
0.0
  0
LINE
  5
135
330
1F
100
AcDbEntity
  8
1
  6
Continuous
 62
     7
100
AcDbLine
 10
-735.273781874765
 20
1262.96590663182
 30
0.0
 11
-815.90165221648
 21
1262.96590663182
 31
0.0
  0
LINE
  5
136
330
1F
100
AcDbEntity
  8
1
  6
Continuous
 62
     5
100
AcDbLine
 10
-1067.94027607463
 20
1164.47764028286
 30
0.0
 11
-1067.94027607463
 21
1163.67764028286
 31
0.0
  0
LINE
  5
137
330
1F
100
AcDbEntity
  8
1
  6
Continuous
 62
     5
100
AcDbLine
 10
-1040.44027607463
 20
1167.47764028286
 30
0.0
 11
-1040.44027607463
 21
1164.47764028286
 31
0.0
  0
LINE
  5
138
330
1F
100
AcDbEntity
  8
1
  6
Continuous
 62
     5
100
AcDbLine
 10
-1067.94027607463
 20
1163.67764028286
 30
0.0
 11
-1037.87822193446
 21
1163.67764028286
 31
0.0
  0
LINE
  5
139
330
1F
100
AcDbEntity
  8
1
  6
Continuous
 62
     5
100
AcDbLine
 10
-1067.94027607463
 20
1164.47764028286
 30
0.0
 11
-1037.87822193446
 21
1164.47764028286
 31
0.0
  0
LINE
  5
13A
330
1F
100
AcDbEntity
  8
1
  6
Continuous
 62
     1
100
AcDbLine
 10
-1045.17306394161
 20
1200.37764028286
 30
0.0
 11
-1047.99205843454
 21
1262.96590663182
 31
0.0
  0
LINE
  5
13B
330
1F
100
AcDbEntity
  8
1
  6
Continuous
 62
     7
100
AcDbLine
 10
-1080.78076843669
 20
1262.96590663182
 30
0.0
 11
-1062.45085177434
 21
1167.47764028286
 31
0.0
  0
LINE
  5
13C
330
1F
100
AcDbEntity
  8
1
  6
Continuous
 62
     1
100
AcDbLine
 10
-1067.154289714
 20
1167.47764028286
 30
0.0
 11
-1088.77597539166
 21
1262.96590663182
 31
0.0
  0
LINE
  5
13D
330
1F
100
AcDbEntity
  8
1
  6
Continuous
 62
     7
100
AcDbLine
 10
-1089.77198937838
 20
1262.96590663182
 30
0.0
 11
-1067.72678605268
 21
1167.47764028286
 31
0.0
  0
LINE
  5
13E
330
1F
100
AcDbEntity
  8
1
  6
Continuous
 62
     7
100
AcDbLine
 10
-1037.94027607463
 20
1167.47764028286
 30
0.0
 11
-1067.72678605268
 21
1167.47764028286
 31
0.0
  0
LINE
  5
13F
330
1F
100
AcDbEntity
  8
1
  6
Continuous
 62
     7
100
AcDbLine
 10
-1089.77198937838
 20
1262.96590663182
 30
0.0
 11
-1037.94027607463
 21
1262.96590663182
 31
0.0
  0
LINE
  5
140
330
1F
100
AcDbEntity
  8
0
  6
Continuous
 62
     7
100
AcDbLine
 10
-1040.44027607463
 20
1166.46602579276
 30
0.0
 11
-1040.44027607463
 21
1167.47764028286
 31
0.0
  0
LINE
  5
141
330
1F
100
AcDbEntity
  8
0
  6
Continuous
 62
     7
100
AcDbLine
 10
-1035.44027607463
 20
1166.47764028286
 30
0.0
 11
-1035.44027607463
 21
1167.47764028286
 31
0.0
  0
LINE
  5
142
330
1F
100
AcDbEntity
  8
0
  6
Continuous
 62
     7
100
AcDbLine
 10
-1035.44027607463
 20
1166.33201371213
 30
0.0
 11
-1035.44027607463
 21
1166.47764028286
 31
0.0
  0
LINE
  5
143
330
1F
100
AcDbEntity
  8
0
  6
Continuous
 62
     7
100
AcDbLine
 10
-1060.1662897689
 20
1164.47764028286
 30
0.0
 11
-1067.94027607463
 21
1164.47764028286
 31
0.0
  0
LINE
  5
144
330
1F
100
AcDbEntity
  8
0
  6
Continuous
 62
     7
100
AcDbLine
 10
-1062.74027607463
 20
1163.67764028286
 30
0.0
 11
-1067.94027607463
 21
1163.67764028286
 31
0.0
  0
LINE
  5
145
330
1F
100
AcDbEntity
  8
0
  6
Continuous
 62
     7
100
AcDbLine
 10
-1067.94027607463
 20
1164.47764028286
 30
0.0
 11
-1067.94027607463
 21
1163.67764028286
 31
0.0
  0
LINE
  5
146
330
1F
100
AcDbEntity
  8
0
  6
Continuous
 62
     7
100
AcDbLine
 10
-1037.65787006576
 20
1190.37764028286
 30
0.0
 11
-1038.22268208351
 21
1190.37764028286
 31
0.0
  0
LINE
  5
147
330
1F
100
AcDbEntity
  8
0
  6
Continuous
 62
     7
100
AcDbLine
 10
-1013.83691723109
 20
1167.47764028286
 30
0.0
 11
-1062.04363491818
 21
1167.47764028286
 31
0.0
  0
LINE
  5
148
330
1F
100
AcDbEntity
  8
0
  6
Continuous
 62
     7
100
AcDbLine
 10
-1037.65787006576
 20
1190.37764028286
 30
0.0
 11
-1009.12819798222
 21
1190.37764028286
 31
0.0
  0
LINE
  5
149
330
1F
100
AcDbEntity
  8
0
  6
Continuous
 62
     7
100
AcDbLine
 10
-1066.75235416704
 20
1190.37764028286
 30
0.0
 11
-1038.22268208351
 21
1190.37764028286
 31
0.0
  0
LINE
  5
14A
330
1F
100
AcDbEntity
  8
0
  6
Continuous
 62
     7
100
AcDbLine
 10
-1037.65787006576
 20
1190.37764028286
 30
0.0
 11
-1038.22268208351
 21
1190.37764028286
 31
0.0
  0
LINE
  5
14B
330
1F
100
AcDbEntity
  8
0
  6
Continuous
 62
     7
100
AcDbLine
 10
-1037.65787006576
 20
1190.37764028286
 30
0.0
 11
-1009.12819798222
 21
1190.37764028286
 31
0.0
  0
LINE
  5
14C
330
1F
100
AcDbEntity
  8
0
  6
Continuous
 62
     7
100
AcDbLine
 10
-1066.75235416704
 20
1190.37764028286
 30
0.0
 11
-1038.22268208351
 21
1190.37764028286
 31
0.0
  0
LINE
  5
14D
330
1F
100
AcDbEntity
  8
0
  6
Continuous
 62
     7
100
AcDbLine
 10
-1037.65787006576
 20
1190.37764028286
 30
0.0
 11
-1038.22268208351
 21
1190.37764028286
 31
0.0
  0
LINE
  5
14E
330
1F
100
AcDbEntity
  8
0
  6
Continuous
 62
     7
100
AcDbLine
 10
-1068.76633200295
 20
1200.37764028286
 30
0.0
 11
-1007.11422014631
 21
1200.37764028286
 31
0.0
  0
LINE
  5
14F
330
1F
100
AcDbEntity
  8
0
  6
Continuous
 62
     7
100
AcDbLine
 10
-1037.65787006576
 20
1190.37764028286
 30
0.0
 11
-1009.12819798222
 21
1190.37764028286
 31
0.0
  0
LINE
  5
150
330
1F
100
AcDbEntity
  8
0
  6
Continuous
 62
     7
100
AcDbLine
 10
-1066.75235416704
 20
1190.37764028286
 30
0.0
 11
-1038.22268208351
 21
1190.37764028286
 31
0.0
  0
LINE
  5
151
330
1F
100
AcDbEntity
  8
0
  6
Continuous
 62
     7
100
AcDbLine
 10
-1037.65787006576
 20
1190.37764028286
 30
0.0
 11
-1038.22268208351
 21
1190.37764028286
 31
0.0
  0
LINE
  5
152
330
1F
100
AcDbEntity
  8
0
  6
Continuous
 62
     7
100
AcDbLine
 10
-1068.76633200295
 20
1200.37764028286
 30
0.0
 11
-1007.11422014631
 21
1200.37764028286
 31
0.0
  0
LINE
  5
153
330
1F
100
AcDbEntity
  8
0
  6
Continuous
 62
     7
100
AcDbLine
 10
-1037.65787006576
 20
1190.37764028286
 30
0.0
 11
-1009.12819798222
 21
1190.37764028286
 31
0.0
  0
LINE
  5
154
330
1F
100
AcDbEntity
  8
0
  6
Continuous
 62
     7
100
AcDbLine
 10
-1066.75235416704
 20
1190.37764028286
 30
0.0
 11
-1038.22268208351
 21
1190.37764028286
 31
0.0
  0
LINE
  5
155
330
1F
100
AcDbEntity
  8
0
  6
Continuous
 62
     7
100
AcDbLine
 10
-1037.65787006576
 20
1190.37764028286
 30
0.0
 11
-1038.22268208351
 21
1190.37764028286
 31
0.0
  0
LINE
  5
156
330
1F
100
AcDbEntity
  8
0
  6
Continuous
 62
     7
100
AcDbLine
 10
-1037.65787006576
 20
1190.37764028286
 30
0.0
 11
-1009.12819798222
 21
1190.37764028286
 31
0.0
  0
LINE
  5
157
330
1F
100
AcDbEntity
  8
0
  6
Continuous
 62
     7
100
AcDbLine
 10
-1066.75235416704
 20
1190.37764028286
 30
0.0
 11
-1038.22268208351
 21
1190.37764028286
 31
0.0
  0
LINE
  5
158
330
1F
100
AcDbEntity
  8
0
  6
Continuous
 62
     7
100
AcDbLine
 10
-1013.83691723109
 20
1167.47764028286
 30
0.0
 11
-1062.04363491818
 21
1167.47764028286
 31
0.0
  0
LINE
  5
159
330
1F
100
AcDbEntity
  8
0
  6
Continuous
 62
     7
100
AcDbLine
 10
-1067.72678605268
 20
1167.47764028286
 30
0.0
 11
-1089.77198937838
 21
1262.96590663182
 31
0.0
  0
LINE
  5
15A
330
1F
100
AcDbEntity
  8
0
  6
Continuous
 62
     7
100
AcDbLine
 10
-1013.83691723109
 20
1167.47764028286
 30
0.0
 11
-1062.04363491818
 21
1167.47764028286
 31
0.0
  0
LINE
  5
15B
330
1F
100
AcDbEntity
  8
0
  6
Continuous
 62
     7
100
AcDbLine
 10
-1089.77198937838
 20
1262.96590663182
 30
0.0
 11
-1081.03677064027
 21
1262.96590663182
 31
0.0
  0
LINE
  5
15C
330
1F
100
AcDbEntity
  8
0
  6
Continuous
 62
     7
100
AcDbLine
 10
-1062.45085177434
 20
1167.47764028286
 30
0.0
 11
-1080.78076843669
 21
1262.96590663182
 31
0.0
  0
LINE
  5
15D
330
1F
100
AcDbEntity
  8
0
  6
Continuous
 62
     7
100
AcDbLine
 10
-995.099783712571
 20
1262.96590663182
 30
0.0
 11
-1080.78076843669
 21
1262.96590663182
 31
0.0
  0
LINE
  5
15E
330
1F
100
AcDbEntity
  8
0
  6
Continuous
 62
     7
100
AcDbLine
 10
-1080.78076843669
 20
1262.96590663182
 30
0.0
 11
-1081.03677064027
 21
1262.96590663182
 31
0.0
  0
LINE
  5
15F
330
1F
100
AcDbEntity
  8
0
  6
Continuous
 62
     7
100
AcDbLine
 10
-1008.15376609658
 20
1167.47764028286
 30
0.0
 11
-986.108562770884
 21
1262.96590663182
 31
0.0
  0
LINE
  5
160
330
1F
100
AcDbEntity
  8
0
  6
Continuous
 62
     7
100
AcDbLine
 10
-1013.42970037492
 20
1167.47764028286
 30
0.0
 11
-995.099783712571
 21
1262.96590663182
 31
0.0
  0
LINE
  5
161
330
1F
100
AcDbEntity
  8
0
  6
Continuous
 62
     7
100
AcDbLine
 10
-994.843781508988
 20
1262.96590663182
 30
0.0
 11
-995.099783712571
 21
1262.96590663182
 31
0.0
  0
LINE
  5
162
330
1F
100
AcDbEntity
  8
0
  6
Continuous
 62
     7
100
AcDbLine
 10
-994.843781508988
 20
1262.96590663182
 30
0.0
 11
-986.108562770884
 21
1262.96590663182
 31
0.0
  0
LINE
  5
163
330
1F
100
AcDbEntity
  8
1
  6
Continuous
 62
     1
100
AcDbLine
 10
-1066.00051878697
 20
1262.96590663182
 30
0.0
 11
-1057.9727012383
 21
1200.37764028286
 31
0.0
  0
ARC
  5
164
330
1F
100
AcDbEntity
  8
1
  6
Continuous
 62
     7
100
AcDbCircle
 10
-1091.574462504655
 20
-84.55756919917643
 30
0.0
 40
381.6012540056944
100
AcDbArc
 50
85.85115108670819
 51
94.14884891329183
  0
ARC
  5
165
330
1F
100
AcDbEntity
  8
1
  6
Continuous
 62
     7
100
AcDbCircle
 10
-485.595918986219
 20
295.10895703833
 30
0.0
 40
0.9999999999997772
100
AcDbArc
 50
-13.00000000001028
 51
86.97634997885437
  0
ARC
  5
166
330
1F
100
AcDbEntity
  8
1
  6
Continuous
 62
     7
100
AcDbCircle
 10
714.404081013781
 20
295.10895703833
 30
0.0
 40
0.9999999999997218
100
AcDbArc
 50
-13.00000000001101
 51
86.97634997885437
  0
ARC
  5
167
330
1F
100
AcDbEntity
  8
1
  6
Continuous
 62
     7
100
AcDbCircle
 10
114.404081013781
 20
295.10895703833
 30
0.0
 40
0.9999999999998048
100
AcDbArc
 50
-13.00000000000991
 51
86.97634997885194
  0
ARC
  5
168
330
1F
100
AcDbEntity
  8
1
  6
Continuous
 62
     7
100
AcDbCircle
 10
1327.92899397956
 20
295.10895703833
 30
0.0
 40
0.9999999999949585
100
AcDbArc
 50
-13.00000000007402
 51
86.97634997895845
  0
ARC
  5
169
330
1F
100
AcDbEntity
  8
1
  6
Continuous
 62
     7
100
AcDbCircle
 10
-691.574462504997
 20
-774.030454594107
 30
0.0
 40
1071.074139400643
100
AcDbArc
 50
88.55641048392901
 51
90.0
  0
ARC
  5
16A
330
1F
100
AcDbEntity
  8
1
  6
Continuous
 62
     7
100
AcDbCircle
 10
-521.012402989336
 20
-375.382316343428
 30
0.0
 40
672.4260011499663
100
AcDbArc
 50
86.97634997884408
 51
87.91233620499502
  0
ARC
  5
16B
330
1F
100
AcDbEntity
  8
1
  6
Continuous
 62
     7
100
AcDbCircle
 10
-691.574462504997
 20
-774.030454594107
 30
0.0
 40
1071.074139400625
100
AcDbArc
 50
90.0
 51
91.44358951603442
  0
ARC
  5
16C
330
1F
100
AcDbEntity
  8
1
  6
Continuous
 62
     7
100
AcDbCircle
 10
508.425537495687
 20
-774.030454594107
 30
0.0
 40
1071.074139400625
100
AcDbArc
 50
90.0
 51
91.443589516071
  0
ARC
  5
16D
330
1F
100
AcDbEntity
  8
1
  6
Continuous
 62
     7
100
AcDbCircle
 10
678.987597010664
 20
-375.382316343428
 30
0.0
 40
672.4260011499663
100
AcDbArc
 50
86.97634997884408
 51
87.91233620499502
  0
ARC
  5
16E
330
1F
100
AcDbEntity
  8
1
  6
Continuous
 62
     7
100
AcDbCircle
 10
508.425537495687
 20
-774.030454594107
 30
0.0
 40
1071.074139400625
100
AcDbArc
 50
88.55641048396559
 51
90.0
  0
ARC
  5
16F
330
1F
100
AcDbEntity
  8
1
  6
Continuous
 62
     7
100
AcDbCircle
 10
589.192848221501
 20
570.799243578744
 30
0.0
 40
238.7895029159961
100
AcDbArc
 50
-76.98530484819491
 51
-58.93283196964337
  0
ARC
  5
170
330
1F
100
AcDbEntity
  8
1
  6
Continuous
 62
     7
100
AcDbCircle
 10
-91.57446250406031
 20
162.550886213251
 30
0.0
 40
42.63977168084371
100
AcDbArc
 50
0.0
 51
-147.9594790280642
  0
ARC
  5
171
330
1F
100
AcDbEntity
  8
1
  6
Continuous
 62
     7
100
AcDbCircle
 10
-91.57446250406031
 20
162.550886213251
 30
0.0
 40
42.63977168084354
100
AcDbArc
 50
-32.04052097223718
 51
0.0
  0
ARC
  5
172
330
1F
100
AcDbEntity
  8
1
  6
Continuous
 62
     7
100
AcDbCircle
 10
-91.5744625049973
 20
-774.030454594107
 30
0.0
 40
1071.074139400625
100
AcDbArc
 50
90.0
 51
91.44358951603441
  0
ARC
  5
173
330
1F
100
AcDbEntity
  8
1
  6
Continuous
 62
     7
100
AcDbCircle
 10
78.98759701066361
 20
-375.382316343428
 30
0.0
 40
672.4260011499663
100
AcDbArc
 50
86.97634997884406
 51
87.912336204995
  0
ARC
  5
174
330
1F
100
AcDbEntity
  8
1
  6
Continuous
 62
     7
100
AcDbCircle
 10
-91.57446250431281
 20
-774.030454594107
 30
0.0
 40
1071.074139400625
100
AcDbArc
 50
88.55641048396561
 51
90.0
  0
ARC
  5
175
330
1F
100
AcDbEntity
  8
1
  6
Continuous
 62
     7
100
AcDbCircle
 10
-691.57446250406
 20
165.479326351498
 30
0.0
 40
39.33455622974031
100
AcDbArc
 50
-35.44415250615816
 51
-157.3860967331995
  0
ARC
  5
176
330
1F
100
AcDbEntity
  8
1
  6
Continuous
 62
     7
100
AcDbCircle
 10
-691.57446250406
 20
165.479326351498
 30
0.0
 40
39.33455622974072
100
AcDbArc
 50
-157.3860967331995
 51
-144.5558474935065
  0
ARC
  5
177
330
1F
100
AcDbEntity
  8
1
  6
Continuous
 62
     7
100
AcDbCircle
 10
1121.95045046146
 20
-774.030454594107
 30
0.0
 40
1071.074139400625
100
AcDbArc
 50
90.0
 51
91.44358951607111
  0
ARC
  5
178
330
1F
100
AcDbEntity
  8
1
  6
Continuous
 62
     7
100
AcDbCircle
 10
1121.95045046146
 20
-774.030454594107
 30
0.0
 40
1071.074139400625
100
AcDbArc
 50
88.55641048396527
 51
90.0
  0
ARC
  5
179
330
1F
100
AcDbEntity
  8
1
  6
Continuous
 62
     7
100
AcDbCircle
 10
1292.51250997644
 20
-375.382316343428
 30
0.0
 40
672.4260011499664
100
AcDbArc
 50
86.976349978844
 51
87.91233620499467
  0
ARC
  5
17A
330
1F
100
AcDbEntity
  8
1
  6
Continuous
 62
     7
100
AcDbCircle
 10
1202.71776118728
 20
570.799243578744
 30
0.0
 40
238.7895029159952
100
AcDbArc
 50
-76.98530484819587
 51
-58.9328319696432
  0
ARC
  5
17B
330
1F
100
AcDbEntity
  8
1
  6
Continuous
 62
     7
100
AcDbCircle
 10
1382.44342818229
 20
553.803177547067
 30
0.0
 40
249.7447302410208
100
AcDbArc
 50
-120.2858990417649
 51
-104.7126680829096
  0
ARC
  5
17C
330
1F
100
AcDbEntity
  8
1
  6
Continuous
 62
     7
100
AcDbCircle
 10
-1037.94027607463
 20
973.029432101825
 30
0.0
 40
51.83171330374398
100
AcDbArc
 50
0.00000000000113
 51
-146.2500000002106
  0
ARC
  5
17D
330
1F
100
AcDbEntity
  8
1
  6
Continuous
 62
     7
100
AcDbCircle
 10
-1037.94027607463
 20
973.029432101825
 30
0.0
 40
51.83171330374398
100
AcDbArc
 50
-33.74999999979235
 51
0.00000000000113
  0
CIRCLE
  5
17E
330
1F
100
AcDbEntity
  8
1
  6
Continuous
 62
     7
100
AcDbCircle
 10
-1091.574462504655
 20
179.395823495098
 30
0.0
 40
27.60801528562593
  0
CIRCLE
  5
17F
330
1F
100
AcDbEntity
  8
1
  6
Continuous
 62
     7
100
AcDbCircle
 10
-691.574462500654
 20
164.080723342248
 30
0.0
 40
30.86329830579405
  0
CIRCLE
  5
180
330
1F
100
AcDbEntity
  8
1
  6
Continuous
 62
     7
100
AcDbCircle
 10
508.425537499346
 20
164.080723342248
 30
0.0
 40
30.86329830579405
  0
CIRCLE
  5
181
330
1F
100
AcDbEntity
  8
1
  6
Continuous
 62
     7
100
AcDbCircle
 10
-91.57446250065411
 20
164.080723342248
 30
0.0
 40
30.86329830579411
  0
CIRCLE
  5
182
330
1F
100
AcDbEntity
  8
1
  6
Continuous
 62
     7
100
AcDbCircle
 10
1121.95045045712
 20
164.080723342248
 30
0.0
 40
30.86329830579007
  0
CIRCLE
  5
183
330
1F
100
AcDbEntity
  8
1
  6
Continuous
 62
     7
100
AcDbCircle
 10
-1037.94027607463
 20
973.029432101825
 30
0.0
 40
35.53472607205003
  0
SPLINE
  5
184
330
1F
100
AcDbEntity
  8
1
  6
Continuous
 62
     7
100
AcDbSpline
210
0.0
220
0.0
230
1.0
 70
     8
 71
     3
 72
    91
 73
    87
 74
    85
 42
0.0000000001
 43
0.0000000001
 44
0.00000001
 40
0.0
 40
0.0
 40
0.0
 40
0.0
 40
0.8601312080193745
 40
1.719845036622228
 40
2.369764665446191
 40
3.01989978239292
 40
3.667549351935092
 40
4.314818658074628
 40
5.209121942615427
 40
6.103759711564117
 40
6.998152845410295
 40
7.892411637579235
 40
9.019458977486911
 40
10.14660205733435
 40
11.27329814474683
 40
12.39994997985661
 40
13.73013116944486
 40
15.06034345781517
 40
16.39048641441486
 40
17.72061566799128
 40
19.21710301301933
 40
20.7136016912754
 40
22.21003285573565
 40
23.70645827986913
 40
25.32589553509704
 40
26.94533813742499
 40
28.56475490324464
 40
30.18416861946069
 40
31.87907098152037
 40
33.57397643078492
 40
35.26886951187979
 40
36.96376035998462
 40
38.68409317435769
 40
40.40442825519219
 40
42.12476333602533
 40
43.8450961504
 40
45.53998699851137
 40
47.23488007959877
 40
48.92978552883625
 40
50.62468789092343
 40
52.24410160723566
 40
53.86351837295884
 40
55.4829609749279
 40
57.10239823051533
 40
58.59882365585774
 40
60.09525481910526
 40
61.59175349286565
 40
63.08824084240478
 40
64.41837011037116
 40
65.7485130525364
 40
67.07872528763804
 40
68.40890653068644
 40
69.53555852573177
 40
70.66225445267888
 40
71.78939694348466
 40
72.91644487483485
 40
73.81070529035293
 40
74.70509679496669
 40
75.59972863100524
 40
76.49403787154206
 40
77.14132165528827
 40
77.7889567273397
 40
78.43903952521389
 40
79.08901140160522
 40
79.51034100575212
 40
79.93027764977182
 40
80.36870587325602
 40
80.8128241905582
 40
81.12689272591437
 40
81.43034234876502
 40
81.73379202558712
 40
82.0478605174452
 40
82.49197849364964
 40
82.93040699036203
 40
83.35034444316302
 40
83.77167341738112
 40
84.42164208330181
 40
85.07172721988754
 40
85.71937001265866
 40
86.36664737776414
 40
87.26092921759992
 40
88.15557850693766
 40
89.05000927321558
 40
89.94425726316915
 40
90.13882945766162
 40
90.33340165227834
 40
90.33340165227834
 40
90.33340165227834
 40
90.33340165227834
 10
-652.140402029573
 20
327.010670237508
 30
0.0
 10
-652.3108662395908
 20
327.244110263641
 30
0.0
 10
-652.6517119417202
 20
327.7108770389314
 30
0.0
 10
-653.3273159824598
 20
328.1446942272337
 30
0.0
 10
-653.9698279831129
 20
328.4664703913152
 30
0.0
 10
-654.5707279972799
 20
328.7142804734666
 30
0.0
 10
-655.1743409449819
 20
328.9505480144309
 30
0.0
 10
-655.8606158628058
 20
329.1991047646153
 30
0.0
 10
-656.6339425253577
 20
329.4475906575065
 30
0.0
 10
-657.4941462759074
 20
329.6930986808824
 30
0.0
 10
-658.3597702412951
 20
329.9185362232643
 30
0.0
 10
-659.3053410774119
 20
330.1435115475754
 30
0.0
 10
-660.3314168894226
 20
330.3643412030124
 30
0.0
 10
-661.4375151499874
 20
330.580432285432
 30
0.0
 10
-662.5463926944074
 20
330.7809622494508
 30
0.0
 10
-663.7246214349402
 20
330.9777194826676
 30
0.0
 10
-664.9725633787373
 20
331.1681823974251
 30
0.0
 10
-666.2900622964844
 20
331.3516328445948
 30
0.0
 10
-667.6094816675454
 20
331.5205373085244
 30
0.0
 10
-668.9856431384776
 20
331.6820793699225
 30
0.0
 10
-670.4185721556793
 20
331.8350051253065
 30
0.0
 10
-671.9081299898875
 20
331.9789196581146
 30
0.0
 10
-673.398880590416
 20
332.109633801476
 30
0.0
 10
-674.9315472055845
 20
332.2308099825643
 30
0.0
 10
-676.5061044633508
 20
332.3416708683765
 30
0.0
 10
-678.1224444791967
 20
332.441972698297
 30
0.0
 10
-679.7394984557573
 20
332.5298468495508
 30
0.0
 10
-681.3822954445794
 20
332.6066847697271
 30
0.0
 10
-683.0507726322012
 20
332.6720419307008
 30
0.0
 10
-684.7448338377176
 20
332.7258294371009
 30
0.0
 10
-686.4392282904119
 20
332.7676482496283
 30
0.0
 10
-688.1423509332307
 20
332.7976304745169
 30
0.0
 10
-689.8541246336888
 20
332.8155479024264
 30
0.0
 10
-691.5744625046549
 20
332.8214594794222
 30
0.0
 10
-693.294800375621
 20
332.8155479024279
 30
0.0
 10
-695.0065740760817
 20
332.7976304745178
 30
0.0
 10
-696.7096967189004
 20
332.7676482496243
 30
0.0
 10
-698.4040911715858
 20
332.7258294370986
 30
0.0
 10
-700.0981523771
 20
332.6720419307159
 30
0.0
 10
-701.766629564754
 20
332.6066847697356
 30
0.0
 10
-703.4094265535828
 20
332.5298468495005
 30
0.0
 10
-705.026480530024
 20
332.4419726982703
 30
0.0
 10
-706.642820545851
 20
332.3416708685593
 30
0.0
 10
-708.2173778040169
 20
332.2308099826586
 30
0.0
 10
-709.7500444192506
 20
332.1096338008853
 30
0.0
 10
-711.2407950182972
 20
331.9789196578578
 30
0.0
 10
-712.7303528523281
 20
331.8350051274107
 30
0.0
 10
-714.1632818742637
 20
331.6820793708308
 30
0.0
 10
-715.53944334582
 20
331.5205373021272
 30
0.0
 10
-716.8588626995523
 20
331.3516328427209
 30
0.0
 10
-718.1763616155076
 20
331.168182419633
 30
0.0
 10
-719.424303612499
 20
330.9777194900252
 30
0.0
 10
-720.6025323555706
 20
330.7809621859251
 30
0.0
 10
-721.7114097236744
 20
330.5804322858124
 30
0.0
 10
-722.8175079201399
 20
330.3643413935145
 30
0.0
 10
-723.8435844322511
 20
330.143511640728
 30
0.0
 10
-724.7891547961539
 20
329.9185355120035
 30
0.0
 10
-725.6547788203375
 20
329.6930996312454
 30
0.0
 10
-726.5149751814415
 20
329.4475893964437
 30
0.0
 10
-727.2883307768517
 20
329.1991135919799
 30
0.0
 10
-727.9745391494062
 20
328.9505206979594
 30
0.0
 10
-728.578370555457
 20
328.7143775828113
 30
0.0
 10
-729.1783863760132
 20
328.4661310471491
 30
0.0
 10
-729.6933829925162
 20
328.2111128079411
 30
0.0
 10
-730.116612885752
 20
327.9492581035578
 30
0.0
 10
-730.4558153692437
 20
327.6891230035648
 30
0.0
 10
-730.7636021014471
 20
327.3805221241893
 30
0.0
 10
-730.9950068380238
 20
327.0529614127416
 30
0.0
 10
-731.1528350646731
 20
326.7350427107241
 30
0.0
 10
-731.2190909543574
 20
326.4280460382793
 30
0.0
 10
-731.1528351039086
 20
326.1210493731221
 30
0.0
 10
-730.9950069391604
 20
325.8031307455767
 30
0.0
 10
-730.7636017418773
 20
325.4755703790125
 30
0.0
 10
-730.4558149579976
 20
325.1669693710651
 30
0.0
 10
-730.1166140922669
 20
324.9068319857023
 30
0.0
 10
-729.6933843498638
 20
324.6449782551852
 30
0.0
 10
-729.1783797568
 20
324.3899770074953
 30
0.0
 10
-728.5783642972045
 20
324.141725914981
 30
0.0
 10
-727.9745616826862
 20
323.9055066022364
 30
0.0
 10
-727.2883503263449
 20
323.656937975381
 30
0.0
 10
-726.5148599460275
 20
323.4088938099825
 30
0.0
 10
-725.6546989104617
 20
323.1632763500983
 30
0.0
 10
-724.7895426969374
 20
322.9360175172959
 30
0.0
 10
-724.1462468579305
 20
322.7833330264078
 30
0.0
 10
-723.7284744715064
 20
322.6912615422127
 30
0.0
 10
-723.6017281897804
 20
322.6636694743632
 30
0.0
 10
-723.538355048897
 20
322.649873440434
 30
0.0
 11
-652.140402029573
 21
327.010670237508
 31
0.0
 11
-652.6891804498104
 21
327.6729903568541
 31
0.0
 11
-653.3931968096791
 21
328.166415966372
 31
0.0
 11
-653.9733462673848
 21
328.4593701106582
 31
0.0
 11
-654.5720860139684
 21
328.7127204336271
 31
0.0
 11
-655.1754782157065
 21
328.9480241008527
 31
0.0
 11
-655.7842497788963
 21
329.1679212097963
 31
0.0
 11
-656.6352412865945
 21
329.4428608732973
 31
0.0
 11
-657.4951307799445
 21
329.6897754270518
 31
0.0
 11
-658.3605762196696
 21
329.9154815827723
 31
0.0
 11
-659.2304782297098
 21
330.1227719112962
 31
0.0
 11
-660.332097613714
 21
330.36082744931
 31
0.0
 11
-661.4381463994124
 21
330.5778703162814
 31
0.0
 11
-662.5468395478863
 21
330.778478331868
 31
0.0
 11
-663.6580848823458
 21
330.9641612987722
 31
0.0
 11
-664.9729699118482
 21
331.1653064113771
 31
0.0
 11
-666.2904081409022
 21
331.3492119435354
 31
0.0
 11
-667.6097685447644
 21
331.5182338643394
 31
0.0
 11
-668.9308127393585
 21
331.6734307301224
 31
0.0
 11
-670.4188195340904
 21
331.8325223787433
 31
0.0
 11
-671.9083546199458
 21
331.9767219696852
 31
0.0
 11
-673.3990597426316
 21
332.1075060175131
 31
0.0
 11
-674.8908242172139
 21
332.2255221281392
 31
0.0
 11
-676.5062504129547
 21
332.3394309940557
 31
0.0
 11
-678.1225733759147
 21
332.43990199307
 31
0.0
 11
-679.7396023025988
 21
332.5278116722005
 31
0.0
 11
-681.3572458249132
 21
332.6035098821054
 31
0.0
 11
-683.0508454815068
 21
332.6699494794963
 31
0.0
 11
-684.7448941394465
 21
332.7238347880642
 31
0.0
 11
-686.4392713084253
 21
332.7656506413574
 31
0.0
 11
-688.1338996317278
 21
332.795480707575
 31
0.0
 11
-689.854137736893
 21
332.8135321270867
 31
0.0
 11
-691.5744625046552
 21
332.8194889528919
 31
0.0
 11
-693.2947872724161
 21
332.8135321270879
 31
0.0
 11
-695.0150253775829
 21
332.7954807075751
 31
0.0
 11
-696.7096537008919
 21
332.7656506413544
 31
0.0
 11
-698.4040308698633
 21
332.7238347880644
 31
0.0
 11
-700.0980795277762
 21
332.6699494795083
 31
0.0
 11
-701.7916791843969
 21
332.6035098821055
 31
0.0
 11
-703.4093227068057
 21
332.5278116721594
 31
0.0
 11
-705.0263516333954
 21
332.4399019930703
 31
0.0
 11
-706.6426745960054
 21
332.3394309942095
 31
0.0
 11
-708.2581007920958
 21
332.2255221281394
 31
0.0
 11
-709.7498652678501
 21
332.1075060169987
 31
0.0
 11
-711.2405703893636
 21
331.9767219696855
 31
0.0
 11
-712.7301054708864
 21
331.8325223806453
 31
0.0
 11
-714.2181122699517
 21
331.6734307301221
 31
0.0
 11
-715.5391564783242
 21
331.5182338582911
 31
0.0
 11
-716.8585168684089
 21
331.3492119435352
 31
0.0
 11
-718.1759550467832
 21
331.1653064336237
 31
0.0
 11
-719.4908401269645
 21
330.9641612987721
 31
0.0
 11
-720.6020856124958
 21
330.7784782655517
 31
0.0
 11
-721.7107786098979
 21
330.5778703162809
 31
0.0
 11
-722.8168268429276
 21
330.3608276919147
 31
0.0
 11
-723.9184467796003
 21
330.122771911296
 31
0.0
 11
-724.7883503004115
 21
329.9154809195888
 31
0.0
 11
-725.6537942293658
 21
329.6897754270516
 31
0.0
 11
-726.5136782410176
 21
329.4428632795999
 31
0.0
 11
-727.3646752304138
 21
329.1679212097959
 31
0.0
 11
-727.9734600800233
 21
328.9480182685087
 31
0.0
 11
-728.5768389953419
 21
328.7127204336269
 31
0.0
 11
-729.1755308310558
 21
328.459391142108
 31
0.0
 11
-729.7557281996315
 21
328.166415966372
 31
0.0
 11
-730.11305259067
 21
327.9431718961271
 31
0.0
 11
-730.4450057961861
 21
327.6859679802586
 31
0.0
 11
-730.7529084184373
 21
327.373853766615
 31
0.0
 11
-731.0085229797377
 21
327.0106702375081
 31
0.0
 11
-731.142158332759
 21
326.7264508903066
 31
0.0
 11
-731.1972603102444
 21
326.4280460550821
 31
0.0
 11
-731.1421583566349
 21
326.1296411605648
 31
0.0
 11
-731.0085229797375
 21
325.8454218726558
 31
0.0
 11
-730.752908300616
 21
325.4822388435843
 31
0.0
 11
-730.445005796186
 21
325.1701241299048
 31
0.0
 11
-730.1130530152708
 21
324.912918345546
 31
0.0
 11
-729.7557281996316
 21
324.6896761437918
 31
0.0
 11
-729.1755279020308
 21
324.3967138913723
 31
0.0
 11
-728.5768389953422
 21
324.143371676537
 31
0.0
 11
-727.9734715722478
 21
323.9080231269837
 31
0.0
 11
-727.3646752304143
 21
323.6881709003678
 31
0.0
 11
-726.5136104806154
 21
323.4135278580203
 31
0.0
 11
-725.6537942293658
 21
323.166316683112
 31
0.0
 11
-724.7886137467506
 21
322.939448597727
 31
0.0
 11
-723.9184467796003
 21
322.733320198867
 31
0.0
 11
-723.7284566609494
 21
322.6913428992324
 31
0.0
 11
-723.538355048897
 21
322.649873440434
 31
0.0
  0
SPLINE
  5
185
330
1F
100
AcDbEntity
  8
1
  6
Continuous
 62
     7
100
AcDbSpline
210
0.0
220
0.0
230
1.0
 70
     8
 71
     3
 72
    13
 73
     9
 74
     7
 42
0.0000000001
 43
0.0000000001
 44
0.00000001
 40
0.0
 40
0.0
 40
0.0
 40
0.0
 40
13.82035988586755
 40
29.21291767562001
 40
42.11674535372816
 40
54.06041626419914
 40
72.29145574448425
 40
90.57453537935821
 40
90.57453537935821
 40
90.57453537935821
 40
90.57453537935821
 10
538.392528586134
 20
312.247171596524
 30
0.0
 10
542.4116874754759
 20
316.5020591165952
 30
0.0
 10
550.9072229556804
 20
325.4958682409122
 30
0.0
 10
532.2157489611245
 20
332.0124729597545
 30
0.0
 10
520.7568759942958
 20
335.9516990823117
 30
0.0
 10
506.2769205790377
 20
338.6614627256375
 30
0.0
 10
490.3501457439866
 20
340.4561609291189
 30
0.0
 10
478.3744635321978
 20
342.7661836254312
 30
0.0
 10
472.37808851711
 20
343.9228411031
 30
0.0
 11
538.392528586134
 21
312.247171596524
 31
0.0
 11
545.6468784788642
 21
324.0105365491531
 31
0.0
 11
532.4429065744575
 21
331.9216654988358
 31
0.0
 11
520.139241200918
 21
335.8112139459277
 31
0.0
 11
508.4255374953452
 21
338.1436848065558
 31
0.0
 11
490.3736139164587
 21
340.6929701247889
 31
0.0
 11
472.37808851711
 21
343.9228411031
 31
0.0
  0
SPLINE
  5
186
330
1F
100
AcDbEntity
  8
1
  6
Continuous
 62
     7
100
AcDbSpline
210
0.0
220
0.0
230
1.0
 70
     8
 71
     3
 72
     9
 73
     5
 74
     3
 42
0.0000000001
 43
0.0000000001
 44
0.00000001
 40
0.0
 40
0.0
 40
0.0
 40
0.0
 40
8.295379957863528
 40
16.77658050573711
 40
16.77658050573711
 40
16.77658050573711
 40
16.77658050573711
 10
463.21423381679
 20
350.634524417108
 30
0.0
 10
463.1470146262569
 20
353.4794446478115
 30
0.0
 10
463.0110705022698
 20
359.233012721273
 30
0.0
 10
466.3846060206035
 20
363.9011073832445
 30
0.0
 10
468.090056739633
 20
366.261007065489
 30
0.0
 11
463.21423381679
 21
350.634524417108
 31
0.0
 11
463.8706179619263
 21
358.9038949191074
 31
0.0
 11
468.090056739633
 21
366.261007065489
 31
0.0
  0
SPLINE
  5
187
330
1F
100
AcDbEntity
  8
1
  6
Continuous
 62
     7
100
AcDbSpline
210
0.0
220
0.0
230
1.0
 70
     8
 71
     3
 72
    15
 73
    11
 74
     9
 42
0.0000000001
 43
0.0000000001
 44
0.00000001
 40
0.0
 40
0.0
 40
0.0
 40
0.0
 40
0.8993965642168943
 40
1.798300883498966
 40
2.487800405786423
 40
3.177559075009545
 40
3.865649467745771
 40
4.553320117661199
 40
5.925744929221724
 40
7.298169934770836
 40
7.298169934770836
 40
7.298169934770836
 40
7.298169934770836
 10
-133.966603206271
 20
339.894880203413
 30
0.0
 10
-133.7798780523085
 20
340.1325265166778
 30
0.0
 10
-133.4065299401387
 20
340.6076890780075
 30
0.0
 10
-132.6826060921174
 20
341.0390631338206
 30
0.0
 10
-131.9942114543258
 20
341.356247256805
 30
0.0
 10
-131.3488416306963
 20
341.6000291355654
 30
0.0
 10
-130.7018756837703
 20
341.8350758842182
 30
0.0
 10
-129.8337468914178
 20
342.1280884373077
 30
0.0
 10
-128.7337635638255
 20
342.4449580746835
 30
0.0
 10
-127.84561811711
 20
342.6648933824794
 30
0.0
 10
-127.401545362368
 20
342.774861044149
 30
0.0
 11
-133.966603206271
 21
339.894880203413
 31
0.0
 11
-133.3689225703328
 21
340.5669605833897
 31
0.0
 11
-132.615983417626
 21
341.0579917509801
 31
0.0
 11
-131.9908423185273
 21
341.3488666337945
 31
0.0
 11
-131.3479585708134
 21
341.5988016427341
 31
0.0
 11
-130.70082542745
 21
341.8326543385419
 31
0.0
 11
-130.0490064462582
 21
342.0517957050457
 31
0.0
 11
-128.7316304716426
 21
342.4365948798012
 31
0.0
 11
-127.401545362368
 21
342.774861044149
 31
0.0
  0
SPLINE
  5
188
330
1F
100
AcDbEntity
  8
1
  6
Continuous
 62
     7
100
AcDbSpline
210
0.0
220
0.0
230
1.0
 70
     8
 71
     3
 72
     9
 73
     5
 74
     3
 42
0.0000000001
 43
0.0000000001
 44
0.00000001
 40
0.0
 40
0.0
 40
0.0
 40
0.0
 40
0.5058652137354966
 40
1.014188947788447
 40
1.014188947788447
 40
1.014188947788447
 40
1.014188947788447
 10
-134.082877516031
 20
338.92702736435
 30
0.0
 10
-134.132903990843
 20
339.09622865927
 30
0.0
 10
-134.2332000706554
 20
339.4354535725472
 30
0.0
 10
-134.0556123260025
 20
339.7414907024187
 30
0.0
 10
-133.966603206271
 20
339.894880203413
 30
0.0
 11
-134.082877516031
 21
338.92702736435
 31
0.0
 11
-134.1638223886121
 21
339.4263744801627
 31
0.0
 11
-133.966603206271
 21
339.894880203413
 31
0.0
  0
SPLINE
  5
189
330
1F
100
AcDbEntity
  8
1
  6
Continuous
 62
     7
100
AcDbSpline
210
0.0
220
0.0
230
1.0
 70
     8
 71
     3
 72
    27
 73
    23
 74
    21
 42
0.0000000001
 43
0.0000000001
 44
0.00000001
 40
0.0
 40
0.0
 40
0.0
 40
0.0
 40
1.849437453262853
 40
3.698874906836749
 40
5.520858668957532
 40
7.34284811184718
 40
9.16484780124377
 40
10.98684358296021
 40
12.72738074236493
 40
14.46792095537444
 40
16.20848503983282
 40
17.94904433083819
 40
19.55682727946901
 40
21.16461471396369
 40
22.77246438389108
 40
24.38030651027363
 40
25.80850272993555
 40
27.23670336570369
 40
28.66496095600715
 40
30.09321413408556
 40
32.34107348038768
 40
34.58893286800224
 40
34.58893286800224
 40
34.58893286800224
 40
34.58893286800224
 10
-91.57446250465939
 20
332.916102073268
 30
0.0
 10
-90.9579823580593
 20
332.9172642082501
 30
0.0
 10
-89.72502206475544
 20
332.9195884782143
 30
0.0
 10
-87.88480891060814
 20
332.938096219868
 30
0.0
 10
-86.05390420510845
 20
332.9679159237664
 30
0.0
 10
-84.23238113465754
 20
333.0098202113054
 30
0.0
 10
-82.41116753809232
 20
333.0636230792601
 30
0.0
 10
-80.6174994697485
 20
333.1290098973831
 30
0.0
 10
-78.85146646302357
 20
333.2058833183423
 30
0.0
 10
-77.11312665627469
 20
333.2938001977381
 30
0.0
 10
-75.37545183362809
 20
333.3941554599537
 30
0.0
 10
-73.68276102835952
 20
333.5050703533038
 30
0.0
 10
-72.03515474562724
 20
333.6262978887615
 30
0.0
 10
-70.4326572345316
 20
333.7570640474685
 30
0.0
 10
-68.83127126947601
 20
333.9010556136566
 30
0.0
 10
-67.29086096422196
 20
334.0540365051772
 30
0.0
 10
-65.81155075961151
 20
334.2155670279553
 30
0.0
 10
-64.39334926773162
 20
334.3845922914022
 30
0.0
 10
-62.97692746713564
 20
334.5682501499817
 30
0.0
 10
-61.29246665179633
 20
334.8081354661775
 30
0.0
 10
-59.34164590977816
 20
335.1163199883828
 30
0.0
 10
-57.87058435937993
 20
335.4026948639051
 30
0.0
 10
-57.1350535774218
 20
335.545882302982
 30
0.0
 11
-91.57446250465939
 21
332.916102073268
 31
0.0
 11
-89.72503480131361
 21
332.922107373305
 31
0.0
 11
-87.87568508903541
 21
332.9401222665449
 31
0.0
 11
-86.05394557712735
 21
332.9699548022194
 31
0.0
 11
-84.23243679554209
 21
333.0118032025364
 31
0.0
 11
-82.41123499611888
 21
333.0657186357531
 31
0.0
 11
-80.59045219258476
 21
333.1321912688206
 31
0.0
 11
-78.85156327282085
 21
333.2079205761657
 31
0.0
 11
-77.11324666030077
 21
333.295872766246
 31
0.0
 11
-75.37558787374535
 21
333.3963977562391
 31
0.0
 11
-73.63876440129127
 21
333.5103752585704
 31
0.0
 11
-72.03532140734356
 21
333.6284285307319
 31
0.0
 11
-70.4328664374237
 21
333.7592662313313
 31
0.0
 11
-68.83150276749539
 21
333.9035401295921
 31
0.0
 11
-67.23155902240546
 21
334.0627139839713
 31
0.0
 11
-65.8118188805892
 21
334.2178989432043
 31
0.0
 11
-64.39366786316907
 21
334.3870283250359
 31
0.0
 11
-62.97733457487033
 21
334.5712015063527
 31
0.0
 11
-61.56332483322416
 21
334.7724068522579
 31
0.0
 11
-59.34400135529704
 21
335.129443182453
 31
0.0
 11
-57.1350535774218
 21
335.545882302982
 31
0.0
  0
SPLINE
  5
18A
330
1F
100
AcDbEntity
  8
1
  6
Continuous
 62
     7
100
AcDbSpline
210
0.0
220
0.0
230
1.0
 70
     8
 71
     3
 72
    24
 73
    20
 74
    18
 42
0.0000000001
 43
0.0000000001
 44
0.00000001
 40
0.0
 40
0.0
 40
0.0
 40
0.0
 40
0.1945721946060012
 40
0.3891443890661233
 40
1.283384447420676
 40
2.17782309823878
 40
3.0725087607336
 40
3.966754582969133
 40
4.613944332538982
 40
5.261673912201632
 40
5.912068749696989
 40
6.561737255442089
 40
6.982468490585184
 40
7.402963456316658
 40
7.843263270607128
 40
8.285856289725144
 40
8.69947938507992
 40
9.099721952925677
 40
9.522266903349145
 40
9.522266903349145
 40
9.522266903349145
 40
9.522266903349145
 10
-659.610569960371
 20
322.649873440443
 30
0.0
 10
-659.547196820427
 20
322.6636694784406
 30
0.0
 10
-659.4204505405861
 20
322.6912615544252
 30
0.0
 10
-659.0026807052216
 20
322.7833323353728
 30
0.0
 10
-658.3593854576589
 20
322.9360193253361
 30
0.0
 10
-657.4942176577082
 20
323.1632814448124
 30
0.0
 10
-656.6340496766925
 20
323.4088839054961
 30
0.0
 10
-655.860586550352
 20
323.6569207162077
 30
0.0
 10
-655.1744055860672
 20
323.9055365498447
 30
0.0
 10
-654.570502756402
 20
324.1417822542773
 30
0.0
 10
-653.9703856541171
 20
324.3898584592046
 30
0.0
 10
-653.4555383976815
 20
324.6447898359743
 30
0.0
 10
-653.0327456185969
 20
324.9071393027764
 30
0.0
 10
-652.6930681487786
 20
325.1675888578
 30
0.0
 10
-652.3831401706074
 20
325.4741084247918
 30
0.0
 10
-652.1319579151029
 20
325.8302029893252
 30
0.0
 10
-651.9657338506294
 20
326.2151786171935
 30
0.0
 10
-651.9185543168967
 20
326.6466849725441
 30
0.0
 10
-652.065128451544
 20
326.8871689720986
 30
0.0
 10
-652.140402029573
 20
327.010670237508
 30
0.0
 11
-659.610569960371
 21
322.649873440443
 31
0.0
 11
-659.4204683483285
 21
322.6913428992369
 31
0.0
 11
-659.2304782297098
 21
322.7333201988673
 31
0.0
 11
-658.3603194136526
 21
322.9394485976967
 31
0.0
 11
-657.4951307799447
 21
323.1663166831118
 31
0.0
 11
-656.6352766820861
 21
323.4135278581617
 31
0.0
 11
-655.7842497788959
 21
323.6881709003677
 31
0.0
 11
-655.1755465913292
 21
323.9080231266344
 31
0.0
 11
-654.5720860139682
 21
324.1433716765366
 31
0.0
 11
-653.9730608340425
 21
324.396713892631
 31
0.0
 11
-653.3931968096781
 21
324.6896761437915
 31
0.0
 11
-653.0365769942449
 21
324.9129183429059
 31
0.0
 11
-652.7039192131244
 21
325.1701241299044
 31
0.0
 11
-652.3933579055625
 21
325.4822388535392
 31
0.0
 11
-652.1404020295727
 21
325.8454218726552
 31
0.0
 11
-651.983752407293
 21
326.2282337858064
 31
0.0
 11
-651.9615186198404
 21
326.6278583243564
 31
0.0
 11
-652.140402029573
 21
327.010670237508
 31
0.0
  0
SPLINE
  5
18B
330
1F
100
AcDbEntity
  8
1
  6
Continuous
 62
     7
100
AcDbSpline
210
0.0
220
0.0
230
1.0
 70
     8
 71
     3
 72
    11
 73
     7
 74
     5
 42
0.0000000001
 43
0.0000000001
 44
0.00000001
 40
0.0
 40
0.0
 40
0.0
 40
0.0
 40
45.29096776057357
 40
90.58880878782821
 40
130.2999021158411
 40
169.8521527578098
 40
169.8521527578098
 40
169.8521527578098
 40
169.8521527578098
 10
467.834054534325
 20
136.958361548971
 30
0.0
 10
465.5947041122458
 20
152.7600094290732
 30
0.0
 10
461.1156634287462
 20
184.3657032157551
 30
0.0
 10
506.6301981178613
 20
217.3221994526065
 30
0.0
 10
549.334377463559
 20
185.2138866885059
 30
0.0
 10
542.205717768339
 20
157.6437887606115
 30
0.0
 10
538.64853079029
 20
143.886364851261
 30
0.0
 11
467.834054534325
 21
136.958361548971
 31
0.0
 11
470.1451962379107
 21
182.1903235306855
 31
0.0
 11
508.4255374993448
 21
206.4082894782744
 31
0.0
 11
540.7786626170438
 21
183.3812134931505
 31
0.0
 11
538.64853079029
 21
143.886364851261
 31
0.0
  0
SPLINE
  5
18C
330
1F
100
AcDbEntity
  8
1
  6
Continuous
 62
     7
100
AcDbSpline
210
0.0
220
0.0
230
1.0
 70
     8
 71
     3
 72
    11
 73
     7
 74
     5
 42
0.0000000001
 43
0.0000000001
 44
0.00000001
 40
0.0
 40
0.0
 40
0.0
 40
0.0
 40
45.29096776057346
 40
90.58880878782921
 40
130.2999021158423
 40
169.8521527578108
 40
169.8521527578108
 40
169.8521527578108
 40
169.8521527578108
 10
1162.54193342214
 20
136.958361548971
 30
0.0
 10
1164.781283844219
 20
152.7600094290733
 30
0.0
 10
1169.26032452772
 20
184.3657032157556
 30
0.0
 10
1123.745789838603
 20
217.3221994526063
 30
0.0
 10
1081.041610492903
 20
185.2138866885053
 30
0.0
 10
1088.170270188129
 20
157.6437887606113
 30
0.0
 10
1091.72745716618
 20
143.886364851261
 30
0.0
 11
1162.54193342214
 21
136.958361548971
 31
0.0
 11
1160.230791718555
 21
182.1903235306854
 31
0.0
 11
1121.950450457119
 21
206.4082894782742
 31
0.0
 11
1089.59732533942
 21
183.3812134931499
 31
0.0
 11
1091.72745716618
 21
143.886364851261
 31
0.0
  0
SPLINE
  5
18D
330
1F
100
AcDbEntity
  8
1
  6
Continuous
 62
     7
100
AcDbSpline
210
0.0
220
0.0
230
1.0
 70
     8
 71
     3
 72
     9
 73
     5
 74
     3
 42
0.0000000001
 43
0.0000000001
 44
0.00000001
 40
0.0
 40
0.0
 40
0.0
 40
0.0
 40
8.295379957863231
 40
16.77658050573715
 40
16.77658050573715
 40
16.77658050573715
 40
16.77658050573715
 10
1167.16175413967
 20
350.634524417108
 30
0.0
 10
1167.228973330205
 20
353.4794446478115
 30
0.0
 10
1167.364917454195
 20
359.2330127212733
 30
0.0
 10
1163.99138193586
 20
363.9011073832446
 30
0.0
 10
1162.28593121683
 20
366.261007065489
 30
0.0
 11
1167.16175413967
 21
350.634524417108
 31
0.0
 11
1166.505369994537
 21
358.9038949191074
 31
0.0
 11
1162.28593121683
 21
366.261007065489
 31
0.0
  0
SPLINE
  5
18E
330
1F
100
AcDbEntity
  8
1
  6
Continuous
 62
     7
100
AcDbSpline
210
0.0
220
0.0
230
1.0
 70
     8
 71
     3
 72
    13
 73
     9
 74
     7
 42
0.0000000001
 43
0.0000000001
 44
0.00000001
 40
0.0
 40
0.0
 40
0.0
 40
0.0
 40
13.82035988586632
 40
29.21291767562018
 40
42.11674535372914
 40
54.06041626420021
 40
72.29145574448478
 40
90.57453537936202
 40
90.57453537936202
 40
90.57453537936202
 40
90.57453537936202
 10
1091.98345937033
 20
312.247171596524
 30
0.0
 10
1087.964300480989
 20
316.5020591165949
 30
0.0
 10
1079.468765000785
 20
325.4958682409123
 30
0.0
 10
1098.160238995342
 20
332.0124729597541
 30
0.0
 10
1109.619111962171
 20
335.9516990823114
 30
0.0
 10
1124.099067377429
 20
338.6614627256375
 30
0.0
 10
1140.025842212481
 20
340.4561609291194
 30
0.0
 10
1152.001524424271
 20
342.7661836254312
 30
0.0
 10
1157.99789943936
 20
343.9228411031
 30
0.0
 11
1091.98345937033
 21
312.247171596524
 31
0.0
 11
1084.729109477601
 21
324.0105365491523
 31
0.0
 11
1097.933081382009
 21
331.9216654988355
 31
0.0
 11
1110.236746755549
 21
335.8112139459276
 31
0.0
 11
1121.950450461122
 21
338.1436848065558
 31
0.0
 11
1140.002374040008
 21
340.692970124789
 31
0.0
 11
1157.99789943936
 21
343.9228411031
 31
0.0
  0
SPLINE
  5
18F
330
1F
100
AcDbEntity
  8
1
  6
Continuous
 62
     7
100
AcDbSpline
210
0.0
220
0.0
230
1.0
 70
     8
 71
     3
 72
    27
 73
    23
 74
    21
 42
0.0000000001
 43
0.0000000001
 44
0.00000001
 40
0.0
 40
0.0
 40
0.0
 40
0.0
 40
1.849437453255307
 40
3.698874906828181
 40
5.520858668948992
 40
7.34284811183862
 40
9.164847801235226
 40
10.98684358295168
 40
12.72738074235648
 40
14.46792095536601
 40
16.20848503982426
 40
17.94904433082953
 40
19.55682727946045
 40
21.16461471395526
 40
22.77246438388264
 40
24.38030651026517
 40
25.80850272992707
 40
27.23670336569516
 40
28.66496095599862
 40
30.09321413407692
 40
32.34107348037885
 40
34.58893286799327
 40
34.58893286799327
 40
34.58893286799327
 40
34.58893286799327
 10
-91.57446250465939
 20
332.916102073268
 30
0.0
 10
-92.19094265125699
 20
332.9172642082501
 30
0.0
 10
-93.42390294455797
 20
332.9195884782143
 30
0.0
 10
-95.26411609870245
 20
332.9380962198683
 30
0.0
 10
-97.09502080420177
 20
332.9679159237666
 30
0.0
 10
-98.91654387465272
 20
333.0098202113053
 30
0.0
 10
-100.7377574712179
 20
333.0636230792599
 30
0.0
 10
-102.5314255395618
 20
333.129009897383
 30
0.0
 10
-104.2974585462867
 20
333.2058833183424
 30
0.0
 10
-106.0357983530357
 20
333.2938001977379
 30
0.0
 10
-107.7734731756821
 20
333.3941554599537
 30
0.0
 10
-109.4661639809506
 20
333.505070353304
 30
0.0
 10
-111.1137702636831
 20
333.6262978887615
 30
0.0
 10
-112.7162677747787
 20
333.7570640474684
 30
0.0
 10
-114.3176537398343
 20
333.9010556136564
 30
0.0
 10
-115.8580640450884
 20
334.0540365051776
 30
0.0
 10
-117.3373742496988
 20
334.2155670279552
 30
0.0
 10
-118.7555757415786
 20
334.3845922914021
 30
0.0
 10
-120.1719975421746
 20
334.5682501499818
 30
0.0
 10
-121.8564583575138
 20
334.8081354661773
 30
0.0
 10
-123.8072790995318
 20
335.116319988383
 30
0.0
 10
-125.2783406499299
 20
335.4026948639051
 30
0.0
 10
-126.013871431888
 20
335.545882302982
 30
0.0
 11
-91.57446250465939
 21
332.916102073268
 31
0.0
 11
-93.42389020799763
 21
332.922107373305
 31
0.0
 11
-95.2732399202748
 21
332.940122266545
 31
0.0
 11
-97.0949794321829
 21
332.9699548022195
 31
0.0
 11
-98.91648821376815
 21
333.0118032025363
 31
0.0
 11
-100.7376900131914
 21
333.065718635753
 31
0.0
 11
-102.5584728167255
 21
333.1321912688206
 31
0.0
 11
-104.2973617364895
 21
333.2079205761657
 31
0.0
 11
-106.0356783490096
 21
333.295872766246
 31
0.0
 11
-107.7733371355649
 21
333.3963977562393
 31
0.0
 11
-109.5101606080189
 21
333.5103752585705
 31
0.0
 11
-111.1136036019667
 21
333.6284285307319
 31
0.0
 11
-112.7160585718867
 21
333.7592662313313
 31
0.0
 11
-114.317422241815
 21
333.9035401295921
 31
0.0
 11
-115.9173659869049
 21
334.0627139839714
 31
0.0
 11
-117.3371061287211
 21
334.2178989432043
 31
0.0
 11
-118.7552571461412
 21
334.3870283250359
 31
0.0
 11
-120.1715904344399
 21
334.5712015063527
 31
0.0
 11
-121.585600176086
 21
334.7724068522578
 31
0.0
 11
-123.8049236540129
 21
335.1294431824531
 31
0.0
 11
-126.013871431888
 21
335.545882302982
 31
0.0
  0
SPLINE
  5
190
330
1F
100
AcDbEntity
  8
1
  6
Continuous
 62
     7
100
AcDbSpline
210
0.0
220
0.0
230
1.0
 70
     8
 71
     3
 72
    15
 73
    11
 74
     9
 42
0.0000000001
 43
0.0000000001
 44
0.00000001
 40
0.0
 40
0.0
 40
0.0
 40
0.0
 40
0.8993965642171917
 40
1.79830088349915
 40
2.487800405786773
 40
3.177559075010012
 40
3.865649467746242
 40
4.553320117661516
 40
5.925744929221999
 40
7.29816993477067
 40
7.29816993477067
 40
7.29816993477067
 40
7.29816993477067
 10
-49.1823218030387
 20
339.894880203413
 30
0.0
 10
-49.36904695700145
 20
340.1325265166778
 30
0.0
 10
-49.74239506917154
 20
340.6076890780074
 30
0.0
 10
-50.46631891719268
 20
341.0390631338206
 30
0.0
 10
-51.15471355498443
 20
341.3562472568051
 30
0.0
 10
-51.8000833786141
 20
341.600029135565
 30
0.0
 10
-52.44704932553997
 20
341.8350758842186
 30
0.0
 10
-53.31517811789246
 20
342.1280884373077
 30
0.0
 10
-54.41516144548457
 20
342.4449580746835
 30
0.0
 10
-55.30330689219988
 20
342.6648933824793
 30
0.0
 10
-55.7473796469417
 20
342.774861044149
 30
0.0
 11
-49.1823218030387
 21
339.894880203413
 31
0.0
 11
-49.78000243897737
 21
340.5669605833897
 31
0.0
 11
-50.53294159168404
 21
341.05799175098
 31
0.0
 11
-51.15808269078289
 21
341.3488666337945
 31
0.0
 11
-51.80096643849706
 21
341.598801642734
 31
0.0
 11
-52.44809958186034
 21
341.832654338542
 31
0.0
 11
-53.09991856305202
 21
342.0517957050458
 31
0.0
 11
-54.41729453766762
 21
342.4365948798011
 31
0.0
 11
-55.7473796469417
 21
342.774861044149
 31
0.0
  0
SPLINE
  5
191
330
1F
100
AcDbEntity
  8
1
  6
Continuous
 62
     7
100
AcDbSpline
210
0.0
220
0.0
230
1.0
 70
     8
 71
     3
 72
     9
 73
     5
 74
     3
 42
0.0000000001
 43
0.0000000001
 44
0.00000001
 40
0.0
 40
0.0
 40
0.0
 40
0.0
 40
0.5058652137355899
 40
1.014188947788493
 40
1.014188947788493
 40
1.014188947788493
 40
1.014188947788493
 10
-49.0660474932794
 20
338.92702736435
 30
0.0
 10
-49.01602101846717
 20
339.0962286592701
 30
0.0
 10
-48.91572493865428
 20
339.4354535725471
 30
0.0
 10
-49.09331268330725
 20
339.7414907024188
 30
0.0
 10
-49.1823218030387
 20
339.894880203413
 30
0.0
 11
-49.0660474932794
 21
338.92702736435
 31
0.0
 11
-48.9851026206977
 21
339.4263744801627
 31
0.0
 11
-49.1823218030387
 21
339.894880203413
 31
0.0
  0
ENDSEC
  0
SECTION
  2
OBJECTS
  0
DICTIONARY
  5
C
330
0
100
AcDbDictionary
281
     1
  3
ACAD_GROUP
350
D
  3
ACAD_LAYOUT
350
1A
  3
ACAD_MLINESTYLE
350
17
  3
ACAD_PLOTSETTINGS
350
19
  3
ACAD_PLOTSTYLENAME
350
E
  3
ACAD_TABLESTYLE
350
2A
  3
AcDbVariableDictionary
350
2C
  0
DICTIONARY
  5
D
102
{ACAD_REACTORS
330
C
102
}
330
C
100
AcDbDictionary
281
     1
  0
DICTIONARY
  5
1A
102
{ACAD_REACTORS
330
C
102
}
330
C
100
AcDbDictionary
281
     1
  3
Layout1
350
1E
  3
Layout2
350
26
  3
Model
350
22
  0
DICTIONARY
  5
17
102
{ACAD_REACTORS
330
C
102
}
330
C
100
AcDbDictionary
281
     1
  3
Standard
350
18
  0
DICTIONARY
  5
19
102
{ACAD_REACTORS
330
C
102
}
330
C
100
AcDbDictionary
281
     1
  0
ACDBDICTIONARYWDFLT
  5
E
102
{ACAD_REACTORS
330
C
102
}
330
C
100
AcDbDictionary
281
     1
  3
Normal
350
F
100
AcDbDictionaryWithDefault
340
F
  0
DICTIONARY
  5
2A
102
{ACAD_REACTORS
330
C
102
}
330
C
100
AcDbDictionary
281
     1
  3
Standard
350
2B
  0
DICTIONARY
  5
2C
102
{ACAD_REACTORS
330
C
102
}
330
C
100
AcDbDictionary
281
     1
  3
CTABLESTYLE
350
2D
  0
LAYOUT
  5
1E
102
{ACAD_REACTORS
330
1A
102
}
330
1A
100
AcDbPlotSettings
  1

  2

  4

  6

 40
0.0
 41
0.0
 42
0.0
 43
0.0
 44
0.0
 45
0.0
 46
0.0
 47
0.0
 48
0.0
 49
0.0
140
0.0
141
0.0
142
1.0
143
1.0
 70
   688
 72
     0
 73
     0
 74
     5
  7

 75
    16
147
1.0
148
0.0
149
0.0
100
AcDbLayout
  1
Layout1
 70
     1
 71
     1
 10
0.0
 20
0.0
 11
12.0
 21
9.0
 12
0.0
 22
0.0
 32
0.0
 14
1.00000000000000E+20
 24
1.00000000000000E+20
 34
1.00000000000000E+20
 15
-1.00000000000000E+20
 25
-1.00000000000000E+20
 35
-1.00000000000000E+20
146
0.0
 13
0.0
 23
0.0
 33
0.0
 16
1.0
 26
0.0
 36
0.0
 17
0.0
 27
1.0
 37
0.0
 76
     0
330
1B
  0
LAYOUT
  5
26
102
{ACAD_REACTORS
330
1A
102
}
330
1A
100
AcDbPlotSettings
  1

  2

  4

  6

 40
0.0
 41
0.0
 42
0.0
 43
0.0
 44
0.0
 45
0.0
 46
0.0
 47
0.0
 48
0.0
 49
0.0
140
0.0
141
0.0
142
1.0
143
1.0
 70
   688
 72
     0
 73
     0
 74
     5
  7

 75
    16
147
1.0
148
0.0
149
0.0
100
AcDbLayout
  1
Layout2
 70
     1
 71
     2
 10
0.0
 20
0.0
 11
0.0
 21
0.0
 12
0.0
 22
0.0
 32
0.0
 14
0.0
 24
0.0
 34
0.0
 15
0.0
 25
0.0
 35
0.0
146
0.0
 13
0.0
 23
0.0
 33
0.0
 16
1.0
 26
0.0
 36
0.0
 17
0.0
 27
1.0
 37
0.0
 76
     0
330
23
  0
LAYOUT
  5
22
102
{ACAD_REACTORS
330
1A
102
}
330
1A
100
AcDbPlotSettings
  1

  2

  4

  6

 40
0.0
 41
0.0
 42
0.0
 43
0.0
 44
0.0
 45
0.0
 46
0.0
 47
0.0
 48
0.0
 49
0.0
140
0.0
141
0.0
142
1.0
143
1.0
 70
  1712
 72
     0
 73
     0
 74
     0
  7

 75
     0
147
1.0
148
0.0
149
0.0
100
AcDbLayout
  1
Model
 70
     1
 71
     0
 10
0.0
 20
0.0
 11
0.0
 21
0.0
 12
0.0
 22
0.0
 32
0.0
 14
-1119.182477790281
 24
133.2174250364539
 34
0.0
 15
1328.92899397956
 25
1262.96590663182
 35
0.0
146
0.0
 13
0.0
 23
0.0
 33
0.0
 16
1.0
 26
0.0
 36
0.0
 17
0.0
 27
1.0
 37
0.0
 76
     0
330
1F
  0
MLINESTYLE
  5
18
102
{ACAD_REACTORS
330
17
102
}
330
17
100
AcDbMlineStyle
  2
Standard
 70
     0
  3

 62
   256
 51
90.0
 52
90.0
 71
     2
 49
0.5
 62
   256
  6
BYLAYER
 49
-0.5
 62
   256
  6
BYLAYER
  0
ACDBPLACEHOLDER
  5
F
102
{ACAD_REACTORS
330
E
102
}
330
E
  0
TABLESTYLE
  5
2B
102
{ACAD_REACTORS
330
2A
102
}
330
2A
100
AcDbTableStyle
  3
Standard
 70
     0
 71
     0
 40
0.06
 41
0.06
280
     0
281
     0
  7
Standard
140
0.18
170
     2
 62
     0
 63
     7
283
     0
274
    -2
284
     1
 64
     0
275
    -2
285
     1
 65
     0
276
    -2
286
     1
 66
     0
277
    -2
287
     1
 67
     0
278
    -2
288
     1
 68
     0
279
    -2
289
     1
 69
     0
  7
Standard
140
0.25
170
     5
 62
     0
 63
     7
283
     0
274
    -2
284
     1
 64
     0
275
    -2
285
     1
 65
     0
276
    -2
286
     1
 66
     0
277
    -2
287
     1
 67
     0
278
    -2
288
     1
 68
     0
279
    -2
289
     1
 69
     0
  7
Standard
140
0.18
170
     5
 62
     0
 63
     7
283
     0
274
    -2
284
     1
 64
     0
275
    -2
285
     1
 65
     0
276
    -2
286
     1
 66
     0
277
    -2
287
     1
 67
     0
278
    -2
288
     1
 68
     0
279
    -2
289
     1
 69
     0
  0
DICTIONARYVAR
  5
2D
102
{ACAD_REACTORS
330
2C
102
}
330
2C
100
DictionaryVariables
280
     0
  1
Standard
  0
ENDSEC
  0
EOF
