  0
SECTION
  2
HEADER
  9
$ACADVER
  1
AC1015
  9
$ACADMAINTVER
 70
     6
  9
$DWGCODEPAGE
  3
ANSI_1252
  9
$INSBASE
 10
0.0
 20
0.0
 30
0.0
  9
$EXTMIN
 10
-6286.01196157465
 20
-2889.48050594329
 30
0.0
  9
$EXTMAX
 10
12640.6943217956
 20
2672.65805149079
 30
0.0
  9
$LIMMIN
 10
0.0
 20
0.0
  9
$LIMMAX
 10
12.0
 20
9.0
  9
$ORTHOMODE
 70
     0
  9
$REGENMODE
 70
     1
  9
$FILLMODE
 70
     1
  9
$QTEXTMODE
 70
     0
  9
$MIRRTEXT
 70
     1
  9
$LTSCALE
 40
1.0
  9
$ATTMODE
 70
     1
  9
$TEXTSIZE
 40
0.2
  9
$TRACEWID
 40
0.05
  9
$TEXTSTYLE
  7
Standard
  9
$CLAYER
  8
0
  9
$CELTYPE
  6
ByLayer
  9
$CECOLOR
 62
   256
  9
$CELTSCALE
 40
1.0
  9
$DISPSILH
 70
     0
  9
$DIMSCALE
 40
1.0
  9
$DIMASZ
 40
0.18
  9
$DIMEXO
 40
0.0625
  9
$DIMDLI
 40
0.38
  9
$DIMRND
 40
0.0
  9
$DIMDLE
 40
0.0
  9
$DIMEXE
 40
0.18
  9
$DIMTP
 40
0.0
  9
$DIMTM
 40
0.0
  9
$DIMTXT
 40
0.18
  9
$DIMCEN
 40
0.09
  9
$DIMTSZ
 40
0.0
  9
$DIMTOL
 70
     0
  9
$DIMLIM
 70
     0
  9
$DIMTIH
 70
     1
  9
$DIMTOH
 70
     1
  9
$DIMSE1
 70
     0
  9
$DIMSE2
 70
     0
  9
$DIMTAD
 70
     0
  9
$DIMZIN
 70
     0
  9
$DIMBLK
  1

  9
$DIMASO
 70
     1
  9
$DIMSHO
 70
     1
  9
$DIMPOST
  1

  9
$DIMAPOST
  1

  9
$DIMALT
 70
     0
  9
$DIMALTD
 70
     2
  9
$DIMALTF
 40
25.4
  9
$DIMLFAC
 40
1.0
  9
$DIMTOFL
 70
     0
  9
$DIMTVP
 40
0.0
  9
$DIMTIX
 70
     0
  9
$DIMSOXD
 70
     0
  9
$DIMSAH
 70
     0
  9
$DIMBLK1
  1

  9
$DIMBLK2
  1

  9
$DIMSTYLE
  2
Standard
  9
$DIMCLRD
 70
     0
  9
$DIMCLRE
 70
     0
  9
$DIMCLRT
 70
     0
  9
$DIMTFAC
 40
1.0
  9
$DIMGAP
 40
0.09
  9
$DIMJUST
 70
     0
  9
$DIMSD1
 70
     0
  9
$DIMSD2
 70
     0
  9
$DIMTOLJ
 70
     1
  9
$DIMTZIN
 70
     0
  9
$DIMALTZ
 70
     0
  9
$DIMALTTZ
 70
     0
  9
$DIMUPT
 70
     0
  9
$DIMDEC
 70
     4
  9
$DIMTDEC
 70
     4
  9
$DIMALTU
 70
     2
  9
$DIMALTTD
 70
     2
  9
$DIMTXSTY
  7
Standard
  9
$DIMAUNIT
 70
     0
  9
$DIMADEC
 70
     0
  9
$DIMALTRND
 40
0.0
  9
$DIMAZIN
 70
     0
  9
$DIMDSEP
 70
    46
  9
$DIMATFIT
 70
     3
  9
$DIMFRAC
 70
     0
  9
$DIMLDRBLK
  1

  9
$DIMLUNIT
 70
     2
  9
$DIMLWD
 70
    -2
  9
$DIMLWE
 70
    -2
  9
$DIMTMOVE
 70
     0
  9
$LUNITS
 70
     2
  9
$LUPREC
 70
     4
  9
$SKETCHINC
 40
0.1
  9
$FILLETRAD
 40
0.5
  9
$AUNITS
 70
     0
  9
$AUPREC
 70
     0
  9
$MENU
  1
.
  9
$ELEVATION
 40
0.0
  9
$PELEVATION
 40
0.0
  9
$THICKNESS
 40
0.0
  9
$LIMCHECK
 70
     0
  9
$CHAMFERA
 40
0.5
  9
$CHAMFERB
 40
0.5
  9
$CHAMFERC
 40
1.0
  9
$CHAMFERD
 40
0.0
  9
$SKPOLY
 70
     0
  9
$TDCREATE
 40
2456570.362208588
  9
$TDUCREATE
 40
2456570.278875255
  9
$TDUPDATE
 40
2456570.3622086
  9
$TDUUPDATE
 40
2456570.278875266
  9
$TDINDWG
 40
0.0000000116
  9
$TDUSRTIMER
 40
0.0000000116
  9
$USRTIMER
 70
     1
  9
$ANGBASE
 50
0.0
  9
$ANGDIR
 70
     0
  9
$PDMODE
 70
     0
  9
$PDSIZE
 40
0.0
  9
$PLINEWID
 40
0.0
  9
$SPLFRAME
 70
     0
  9
$SPLINETYPE
 70
     6
  9
$SPLINESEGS
 70
     8
  9
$HANDSEED
  5
38A
  9
$SURFTAB1
 70
     6
  9
$SURFTAB2
 70
     6
  9
$SURFTYPE
 70
     6
  9
$SURFU
 70
     6
  9
$SURFV
 70
     6
  9
$UCSBASE
  2

  9
$UCSNAME
  2

  9
$UCSORG
 10
0.0
 20
0.0
 30
0.0
  9
$UCSXDIR
 10
1.0
 20
0.0
 30
0.0
  9
$UCSYDIR
 10
0.0
 20
1.0
 30
0.0
  9
$UCSORTHOREF
  2

  9
$UCSORTHOVIEW
 70
     0
  9
$UCSORGTOP
 10
0.0
 20
0.0
 30
0.0
  9
$UCSORGBOTTOM
 10
0.0
 20
0.0
 30
0.0
  9
$UCSORGLEFT
 10
0.0
 20
0.0
 30
0.0
  9
$UCSORGRIGHT
 10
0.0
 20
0.0
 30
0.0
  9
$UCSORGFRONT
 10
0.0
 20
0.0
 30
0.0
  9
$UCSORGBACK
 10
0.0
 20
0.0
 30
0.0
  9
$PUCSBASE
  2

  9
$PUCSNAME
  2

  9
$PUCSORG
 10
0.0
 20
0.0
 30
0.0
  9
$PUCSXDIR
 10
1.0
 20
0.0
 30
0.0
  9
$PUCSYDIR
 10
0.0
 20
1.0
 30
0.0
  9
$PUCSORTHOREF
  2

  9
$PUCSORTHOVIEW
 70
     0
  9
$PUCSORGTOP
 10
0.0
 20
0.0
 30
0.0
  9
$PUCSORGBOTTOM
 10
0.0
 20
0.0
 30
0.0
  9
$PUCSORGLEFT
 10
0.0
 20
0.0
 30
0.0
  9
$PUCSORGRIGHT
 10
0.0
 20
0.0
 30
0.0
  9
$PUCSORGFRONT
 10
0.0
 20
0.0
 30
0.0
  9
$PUCSORGBACK
 10
0.0
 20
0.0
 30
0.0
  9
$USERI1
 70
     0
  9
$USERI2
 70
     0
  9
$USERI3
 70
     0
  9
$USERI4
 70
     0
  9
$USERI5
 70
     0
  9
$USERR1
 40
17.0
  9
$USERR2
 40
0.0
  9
$USERR3
 40
0.0
  9
$USERR4
 40
0.0
  9
$USERR5
 40
0.0
  9
$WORLDVIEW
 70
     1
  9
$SHADEDGE
 70
     3
  9
$SHADEDIF
 70
    70
  9
$TILEMODE
 70
     1
  9
$MAXACTVP
 70
    64
  9
$PINSBASE
 10
0.0
 20
0.0
 30
0.0
  9
$PLIMCHECK
 70
     0
  9
$PEXTMIN
 10
1.00000000000000E+20
 20
1.00000000000000E+20
 30
1.00000000000000E+20
  9
$PEXTMAX
 10
-1.00000000000000E+20
 20
-1.00000000000000E+20
 30
-1.00000000000000E+20
  9
$PLIMMIN
 10
0.0
 20
0.0
  9
$PLIMMAX
 10
12.0
 20
9.0
  9
$UNITMODE
 70
     0
  9
$VISRETAIN
 70
     1
  9
$PLINEGEN
 70
     0
  9
$PSLTSCALE
 70
     1
  9
$TREEDEPTH
 70
  3020
  9
$CMLSTYLE
  2
Standard
  9
$CMLJUST
 70
     0
  9
$CMLSCALE
 40
1.0
  9
$PROXYGRAPHICS
 70
     1
  9
$MEASUREMENT
 70
     1
  9
$CELWEIGHT
370
    -1
  9
$ENDCAPS
280
     0
  9
$JOINSTYLE
280
     0
  9
$LWDISPLAY
290
     0
  9
$INSUNITS
 70
     1
  9
$HYPERLINKBASE
  1

  9
$STYLESHEET
  1

  9
$XEDIT
290
     1
  9
$CEPSNTYPE
380
     0
  9
$PSTYLEMODE
290
     1
  9
$FINGERPRINTGUID
  2
{6327198E-5070-4838-A047-EAD511D195B4}
  9
$VERSIONGUID
  2
{FAEB1C32-E019-11D5-929B-00C0DF256EC4}
  9
$EXTNAMES
290
     1
  9
$PSVPSCALE
 40
0.0
  9
$OLESTARTUP
290
     0
  0
ENDSEC
  0
SECTION
  2
CLASSES
  0
CLASS
  1
ACDBDICTIONARYWDFLT
  2
AcDbDictionaryWithDefault
  3
ObjectDBX Classes
 90
        0
280
     0
281
     0
  0
CLASS
  1
VISUALSTYLE
  2
AcDbVisualStyle
  3
ObjectDBX Classes
 90
     4095
280
     0
281
     0
  0
CLASS
  1
MATERIAL
  2
AcDbMaterial
  3
ObjectDBX Classes
 90
     1153
280
     0
281
     0
  0
CLASS
  1
DICTIONARYVAR
  2
AcDbDictionaryVar
  3
ObjectDBX Classes
 90
        0
280
     0
281
     0
  0
CLASS
  1
ACDBPLACEHOLDER
  2
AcDbPlaceHolder
  3
ObjectDBX Classes
 90
        0
280
     0
281
     0
  0
CLASS
  1
LAYOUT
  2
AcDbLayout
  3
ObjectDBX Classes
 90
        0
280
     0
281
     0
  0
ENDSEC
  0
SECTION
  2
TABLES
  0
TABLE
  2
VPORT
  5
8
330
0
100
AcDbSymbolTable
 70
     1
  0
VPORT
  5
29
330
8
100
AcDbSymbolTableRecord
100
AcDbViewportTableRecord
  2
*Active
 70
     0
 10
0.0
 20
0.0
 11
1.0
 21
1.0
 12
3177.341180110475
 22
-108.41122722625
 13
0.0
 23
0.0
 14
0.5
 24
0.5
 15
0.5
 25
0.5
 16
0.0
 26
0.0
 36
1.0
 17
0.0
 27
0.0
 37
0.0
 40
12990.36330981179
 41
1.60267857142857
 42
50.0
 43
0.0
 44
0.0
 50
0.0
 51
0.0
 71
     0
 72
   100
 73
     1
 74
     3
 75
     0
 76
     0
 77
     0
 78
     0
281
     0
 65
     1
110
0.0
120
0.0
130
0.0
111
1.0
121
0.0
131
0.0
112
0.0
122
1.0
132
0.0
 79
     0
146
0.0
  0
ENDTAB
  0
TABLE
  2
LTYPE
  5
5
330
0
100
AcDbSymbolTable
 70
     8
  0
LTYPE
  5
14
330
5
100
AcDbSymbolTableRecord
100
AcDbLinetypeTableRecord
  2
ByBlock
 70
     0
  3

 72
    65
 73
     0
 40
0.0
  0
LTYPE
  5
15
330
5
100
AcDbSymbolTableRecord
100
AcDbLinetypeTableRecord
  2
ByLayer
 70
     0
  3

 72
    65
 73
     0
 40
0.0
  0
LTYPE
  5
16
330
5
100
AcDbSymbolTableRecord
100
AcDbLinetypeTableRecord
  2
Continuous
 70
     0
  3
Solid line
 72
    65
 73
     0
 40
0.0
  0
LTYPE
  5
3F
330
5
100
AcDbSymbolTableRecord
100
AcDbLinetypeTableRecord
  2
DASHED
 70
     0
  3
Dashed
 72
    65
 73
     2
 40
15.0
 49
7.0
 74
     0
 49
-8.0
 74
     0
  0
LTYPE
  5
40
330
5
100
AcDbSymbolTableRecord
100
AcDbLinetypeTableRecord
  2
DOTTED
 70
     0
  3
Dotted
 72
    65
 73
     2
 40
1.0
 49
0.0
 74
     0
 49
-1.0
 74
     0
  0
LTYPE
  5
41
330
5
100
AcDbSymbolTableRecord
100
AcDbLinetypeTableRecord
  2
DOT_CENTER
 70
     0
  3
Dot_Center
 72
    65
 73
     4
 40
14.0
 49
12.0
 74
     0
 49
-1.0
 74
     0
 49
0.0
 74
     0
 49
-1.0
 74
     0
  0
LTYPE
  5
42
330
5
100
AcDbSymbolTableRecord
100
AcDbLinetypeTableRecord
  2
LONG_DASHED
 70
     0
  3
Long_Dashed
 72
    65
 73
     2
 40
15.0
 49
10.0
 74
     0
 49
-5.0
 74
     0
  0
LTYPE
  5
43
330
5
100
AcDbSymbolTableRecord
100
AcDbLinetypeTableRecord
  2
DASH_CENTER
 70
     0
  3
Dash_Center
 72
    65
 73
     4
 40
14.0
 49
11.0
 74
     0
 49
-1.0
 74
     0
 49
1.0
 74
     0
 49
-1.0
 74
     0
  0
LTYPE
  5
44
330
5
100
AcDbSymbolTableRecord
100
AcDbLinetypeTableRecord
  2
PHANTOM
 70
     0
  3
Phantom
 72
    65
 73
     6
 40
13.0
 49
10.0
 74
     0
 49
-1.0
 74
     0
 49
0.0
 74
     0
 49
-1.0
 74
     0
 49
0.0
 74
     0
 49
-1.0
 74
     0
  0
LTYPE
  5
45
330
5
100
AcDbSymbolTableRecord
100
AcDbLinetypeTableRecord
  2
CENTER_DASH_DASH
 70
     0
  3
Center_Dash_Dash
 72
    65
 73
     6
 40
14.0
 49
9.0
 74
     0
 49
-1.0
 74
     0
 49
1.0
 74
     0
 49
-1.0
 74
     0
 49
1.0
 74
     0
 49
-1.0
 74
     0
  0
ENDTAB
  0
TABLE
  2
LAYER
  5
2
330
0
100
AcDbSymbolTable
 70
     2
  0
LAYER
  5
10
330
2
100
AcDbSymbolTableRecord
100
AcDbLayerTableRecord
  2
0
 70
     0
 62
     7
  6
Continuous
370
    -3
390
F
  0
LAYER
  5
46
330
2
100
AcDbSymbolTableRecord
100
AcDbLayerTableRecord
  2
1
 70
     0
 62
     7
  6
Continuous
370
    -3
390
F
  0
ENDTAB
  0
TABLE
  2
STYLE
  5
3
330
0
100
AcDbSymbolTable
 70
     1
  0
STYLE
  5
11
330
3
100
AcDbSymbolTableRecord
100
AcDbTextStyleTableRecord
  2
Standard
 70
     0
 40
0.0
 41
1.0
 50
0.0
 71
     0
 42
0.2
  3
txt
  4

  0
ENDTAB
  0
TABLE
  2
VIEW
  5
6
330
0
100
AcDbSymbolTable
 70
     0
  0
ENDTAB
  0
TABLE
  2
UCS
  5
7
330
0
100
AcDbSymbolTable
 70
     0
  0
ENDTAB
  0
TABLE
  2
APPID
  5
9
330
0
100
AcDbSymbolTable
 70
     1
  0
APPID
  5
12
330
9
100
AcDbSymbolTableRecord
100
AcDbRegAppTableRecord
  2
ACAD
 70
     0
  0
ENDTAB
  0
TABLE
  2
DIMSTYLE
  5
A
330
0
100
AcDbSymbolTable
 70
     1
100
AcDbDimStyleTable
  0
DIMSTYLE
105
27
330
A
100
AcDbSymbolTableRecord
100
AcDbDimStyleTableRecord
  2
Standard
 70
     0
340
11
  0
ENDTAB
  0
TABLE
  2
BLOCK_RECORD
  5
1
330
0
100
AcDbSymbolTable
 70
     1
  0
BLOCK_RECORD
  5
1F
330
1
100
AcDbSymbolTableRecord
100
AcDbBlockTableRecord
  2
*Model_Space
340
22
  0
BLOCK_RECORD
  5
1B
330
1
100
AcDbSymbolTableRecord
100
AcDbBlockTableRecord
  2
*Paper_Space
340
1E
  0
BLOCK_RECORD
  5
23
330
1
100
AcDbSymbolTableRecord
100
AcDbBlockTableRecord
  2
*Paper_Space0
340
26
  0
ENDTAB
  0
ENDSEC
  0
SECTION
  2
BLOCKS
  0
BLOCK
  5
20
330
1F
100
AcDbEntity
  8
0
100
AcDbBlockBegin
  2
*Model_Space
 70
     0
 10
0.0
 20
0.0
 30
0.0
  3
*Model_Space
  1

  0
ENDBLK
  5
21
330
1F
100
AcDbEntity
  8
0
100
AcDbBlockEnd
  0
BLOCK
  5
1C
330
1B
100
AcDbEntity
 67
     1
  8
0
100
AcDbBlockBegin
  2
*Paper_Space
 70
     0
 10
0.0
 20
0.0
 30
0.0
  3
*Paper_Space
  1

  0
ENDBLK
  5
1D
330
1B
100
AcDbEntity
 67
     1
  8
0
100
AcDbBlockEnd
  0
BLOCK
  5
24
330
23
100
AcDbEntity
  8
0
100
AcDbBlockBegin
  2
*Paper_Space0
 70
     0
 10
0.0
 20
0.0
 30
0.0
  3
*Paper_Space0
  1

  0
ENDBLK
  5
25
330
23
100
AcDbEntity
  8
0
100
AcDbBlockEnd
  0
ENDSEC
  0
SECTION
  2
ENTITIES
  0
LINE
  5
47
330
1F
100
AcDbEntity
  8
1
  6
Continuous
 62
     5
100
AcDbLine
 10
12473.77586494115
 20
-729.480502015489
 30
0.0
 11
12438.77586494115
 21
-729.480502015489
 31
0.0
  0
LINE
  5
48
330
1F
100
AcDbEntity
  8
1
  6
Continuous
 62
     5
100
AcDbLine
 10
12438.77586494115
 20
-729.480502015489
 30
0.0
 11
12438.77586494115
 21
-699.4804992603895
 31
0.0
  0
LINE
  5
49
330
1F
100
AcDbEntity
  8
1
  6
Continuous
 62
     5
100
AcDbLine
 10
12438.77586494115
 20
-699.4804992603895
 30
0.0
 11
12473.77586494115
 21
-699.4804992603895
 31
0.0
  0
LINE
  5
4A
330
1F
100
AcDbEntity
  8
1
  6
Continuous
 62
     5
100
AcDbLine
 10
12473.77586494115
 20
-729.480502015489
 30
0.0
 11
12473.77586494115
 21
-699.4804992603895
 31
0.0
  0
LINE
  5
4B
330
1F
100
AcDbEntity
  8
1
  6
Continuous
 62
     5
100
AcDbLine
 10
11943.6943219724
 20
-729.480502015489
 30
0.0
 11
11943.6943219724
 21
-699.4804992603895
 31
0.0
  0
LINE
  5
4C
330
1F
100
AcDbEntity
  8
0
  6
Continuous
 62
     1
100
AcDbLine
 10
-718.9610400199799
 20
-513.129149436953
 30
0.0
 11
-718.9610400199799
 21
-199.483748435973
 31
0.0
  0
LINE
  5
4D
330
1F
100
AcDbEntity
  8
0
  6
Continuous
 62
     1
100
AcDbLine
 10
-908.9610781669599
 20
-513.129149436953
 30
0.0
 11
-908.9610781669599
 21
-199.483748435973
 31
0.0
  0
LINE
  5
4E
330
1F
100
AcDbEntity
  8
0
  6
Continuous
 62
     1
100
AcDbLine
 10
-1098.96111631393
 20
-513.129149436953
 30
0.0
 11
-1098.96111631393
 21
-199.483748435973
 31
0.0
  0
LINE
  5
4F
330
1F
100
AcDbEntity
  8
0
  6
Continuous
 62
     1
100
AcDbLine
 10
-1858.96126890183
 20
-199.483748435973
 30
0.0
 11
-1858.96126890183
 21
-513.129149436953
 31
0.0
  0
LINE
  5
50
330
1F
100
AcDbEntity
  8
0
  6
Continuous
 62
     1
100
AcDbLine
 10
-1668.96123075484
 20
-199.483748435973
 30
0.0
 11
-1668.96123075484
 21
-513.129149436953
 31
0.0
  0
LINE
  5
51
330
1F
100
AcDbEntity
  8
0
  6
Continuous
 62
     1
100
AcDbLine
 10
-1478.96119260788
 20
-199.483748435973
 30
0.0
 11
-1478.96119260788
 21
-513.129149436953
 31
0.0
  0
LINE
  5
52
330
1F
100
AcDbEntity
  8
0
  6
Continuous
 62
     1
100
AcDbLine
 10
-1288.9611544609
 20
-199.483748435973
 30
0.0
 11
-1288.9611544609
 21
-513.129149436953
 31
0.0
  0
LINE
  5
53
330
1F
100
AcDbEntity
  8
1
  6
Continuous
 62
     7
100
AcDbLine
 10
-2008.9613070488
 20
-320.8053108433539
 30
0.0
 11
-1938.9611544609
 21
-513.1291494369536
 31
0.0
  0
LINE
  5
54
330
1F
100
AcDbEntity
  8
1
  6
Continuous
 62
     7
100
AcDbLine
 10
-638.961154460905
 20
-513.1291494369536
 30
0.0
 11
-568.961001873014
 21
-320.8053108433539
 31
0.0
  0
LINE
  5
55
330
1F
100
AcDbEntity
  8
1
  6
Continuous
 62
     7
100
AcDbLine
 10
991.038692951204
 20
-320.8053108433539
 30
0.0
 11
1061.0388455391
 21
-513.1291494369536
 31
0.0
  0
LINE
  5
56
330
1F
100
AcDbEntity
  8
1
  6
Continuous
 62
     7
100
AcDbLine
 10
2601.03884553909
 20
-513.1291494369536
 30
0.0
 11
2671.03899812699
 21
-320.8053108433539
 31
0.0
  0
LINE
  5
57
330
1F
100
AcDbEntity
  8
1
  6
Continuous
 62
     7
100
AcDbLine
 10
3991.0386929512
 20
-320.8053108433539
 30
0.0
 11
4061.03884553909
 21
-513.1291494369536
 31
0.0
  0
LINE
  5
58
330
1F
100
AcDbEntity
  8
1
  6
Continuous
 62
     7
100
AcDbLine
 10
5841.03884553909
 20
-513.1291494369536
 30
0.0
 11
5911.03899812699
 21
-320.8053108433539
 31
0.0
  0
LINE
  5
59
330
1F
100
AcDbEntity
  8
1
  6
Continuous
 62
     7
100
AcDbLine
 10
6991.0386929512
 20
-320.8053108433539
 30
0.0
 11
7061.03884553909
 21
-513.1291494369536
 31
0.0
  0
LINE
  5
5A
330
1F
100
AcDbEntity
  8
1
  6
Continuous
 62
     7
100
AcDbLine
 10
9081.03884553909
 20
-513.1291494369536
 30
0.0
 11
9151.03899812699
 21
-320.8053108433539
 31
0.0
  0
LINE
  5
5B
330
1F
100
AcDbEntity
  8
1
  6
Continuous
 62
     7
100
AcDbLine
 10
951.038692951204
 20
-199.483748435973
 30
0.0
 11
2711.03899812699
 21
-199.483748435973
 31
0.0
  0
LINE
  5
5C
330
1F
100
AcDbEntity
  8
0
  6
Continuous
 62
     7
100
AcDbLine
 10
6991.0386929512
 20
-723.076735496524
 30
0.0
 11
6991.0386929512
 21
-239.483748435973
 31
0.0
  0
LINE
  5
5D
330
1F
100
AcDbEntity
  8
0
  6
Continuous
 62
     7
100
AcDbLine
 10
9151.03899812699
 20
-585.942183494563
 30
0.0
 11
6991.0386929512
 21
-585.942183494563
 31
0.0
  0
LINE
  5
5E
330
1F
100
AcDbEntity
  8
0
  6
Continuous
 62
     7
100
AcDbLine
 10
9171.03850221634
 20
-723.076735496524
 30
0.0
 11
6971.03918886185
 21
-723.076735496524
 31
0.0
  0
LINE
  5
5F
330
1F
100
AcDbEntity
  8
0
  6
Continuous
 62
     1
100
AcDbLine
 10
8071.03884553909
 20
-513.129149436953
 30
0.0
 11
8071.03884553909
 21
-723.076735496524
 31
0.0
  0
LINE
  5
60
330
1F
100
AcDbEntity
  8
0
  6
Continuous
 62
     5
100
AcDbLine
 10
7217.03888368606
 20
-889.480505943294
 30
0.0
 11
7217.03888368606
 21
-749.481116294864
 31
0.0
  0
LINE
  5
61
330
1F
100
AcDbEntity
  8
0
  6
Continuous
 62
     5
100
AcDbLine
 10
7217.03888368606
 20
-749.481116294864
 30
0.0
 11
7247.03861665726
 21
-749.481116294864
 31
0.0
  0
LINE
  5
62
330
1F
100
AcDbEntity
  8
0
  6
Continuous
 62
     5
100
AcDbLine
 10
7247.03861665726
 20
-749.481116294864
 30
0.0
 11
7247.03861665726
 21
-889.480505943294
 31
0.0
  0
LINE
  5
63
330
1F
100
AcDbEntity
  8
0
  6
Continuous
 62
     5
100
AcDbLine
 10
7247.03861665726
 20
-889.480505943294
 30
0.0
 11
7217.03888368606
 21
-889.480505943294
 31
0.0
  0
LINE
  5
64
330
1F
100
AcDbEntity
  8
0
  6
Continuous
 62
     7
100
AcDbLine
 10
6971.03918886185
 20
-239.482794761653
 30
0.0
 11
6971.03918886185
 21
-723.076735496524
 31
0.0
  0
LINE
  5
65
330
1F
100
AcDbEntity
  8
1
  6
Continuous
 62
     7
100
AcDbLine
 10
6874.71993492697
 20
-239.482794761653
 30
0.0
 11
6954.10227365877
 21
-516.321909440793
 31
0.0
  0
LINE
  5
66
330
1F
100
AcDbEntity
  8
1
  6
Continuous
 62
     7
100
AcDbLine
 10
6918.00454333114
 20
-199.483748435973
 30
0.0
 11
6951.0386929512
 21
-199.483748435973
 31
0.0
  0
LINE
  5
67
330
1F
100
AcDbEntity
  8
1
  6
Continuous
 62
     7
100
AcDbLine
 10
6951.0386929512
 20
-199.483748435973
 30
0.0
 11
9191.03899812699
 21
-199.483748435973
 31
0.0
  0
LINE
  5
68
330
1F
100
AcDbEntity
  8
1
  6
Continuous
 62
     7
100
AcDbLine
 10
6971.03918886185
 20
-723.076735496524
 30
0.0
 11
6956.03918886185
 21
-723.076735496524
 31
0.0
  0
LINE
  5
69
330
1F
100
AcDbEntity
  8
1
  6
Continuous
 62
     7
100
AcDbLine
 10
6956.03918886185
 20
-723.076735496524
 30
0.0
 11
6956.03918886185
 21
-530.103777231643
 31
0.0
  0
LINE
  5
6A
330
1F
100
AcDbEntity
  8
1
  6
Continuous
 62
     7
100
AcDbLine
 10
6874.71993492697
 20
-239.482794761653
 30
0.0
 11
6971.03918886185
 21
-239.482794761653
 31
0.0
  0
LINE
  5
6B
330
1F
100
AcDbEntity
  8
1
  6
Continuous
 62
     7
100
AcDbLine
 10
9171.03850221634
 20
-239.482794761653
 30
0.0
 11
9267.35775615122
 21
-239.482794761653
 31
0.0
  0
LINE
  5
6C
330
1F
100
AcDbEntity
  8
1
  6
Continuous
 62
     7
100
AcDbLine
 10
9186.03850221634
 20
-530.103777231643
 30
0.0
 11
9186.03850221634
 21
-723.076735496524
 31
0.0
  0
LINE
  5
6D
330
1F
100
AcDbEntity
  8
1
  6
Continuous
 62
     7
100
AcDbLine
 10
9186.03850221634
 20
-723.076735496524
 30
0.0
 11
9171.03850221634
 21
-723.076735496524
 31
0.0
  0
LINE
  5
6E
330
1F
100
AcDbEntity
  8
1
  6
Continuous
 62
     7
100
AcDbLine
 10
9191.03899812699
 20
-199.483748435973
 30
0.0
 11
9224.07314774705
 21
-199.483748435973
 31
0.0
  0
LINE
  5
6F
330
1F
100
AcDbEntity
  8
1
  6
Continuous
 62
     7
100
AcDbLine
 10
9187.97541741942
 20
-516.321909440793
 30
0.0
 11
9267.35775615122
 21
-239.482794761653
 31
0.0
  0
LINE
  5
70
330
1F
100
AcDbEntity
  8
0
  6
Continuous
 62
     7
100
AcDbLine
 10
9171.03850221634
 20
-723.076735496524
 30
0.0
 11
9171.03850221634
 21
-239.482794761653
 31
0.0
  0
LINE
  5
71
330
1F
100
AcDbEntity
  8
0
  6
Continuous
 62
     5
100
AcDbLine
 10
8925.03880739212
 20
-889.480505943294
 30
0.0
 11
8895.03907442093
 21
-889.480505943294
 31
0.0
  0
LINE
  5
72
330
1F
100
AcDbEntity
  8
0
  6
Continuous
 62
     5
100
AcDbLine
 10
8895.03907442093
 20
-889.480505943294
 30
0.0
 11
8895.03907442093
 21
-749.481116294864
 31
0.0
  0
LINE
  5
73
330
1F
100
AcDbEntity
  8
0
  6
Continuous
 62
     5
100
AcDbLine
 10
8895.03907442093
 20
-749.481116294864
 30
0.0
 11
8925.03880739212
 21
-749.481116294864
 31
0.0
  0
LINE
  5
74
330
1F
100
AcDbEntity
  8
0
  6
Continuous
 62
     5
100
AcDbLine
 10
8925.03880739212
 20
-749.481116294864
 30
0.0
 11
8925.03880739212
 21
-889.480505943294
 31
0.0
  0
LINE
  5
75
330
1F
100
AcDbEntity
  8
0
  6
Continuous
 62
     7
100
AcDbLine
 10
9151.03899812699
 20
-239.483748435973
 30
0.0
 11
9151.03899812699
 21
-723.076735496524
 31
0.0
  0
LINE
  5
76
330
1F
100
AcDbEntity
  8
0
  6
Continuous
 62
     7
100
AcDbLine
 10
2671.03899812699
 20
-585.942183494563
 30
0.0
 11
1831.0388455391
 21
-585.942183494563
 31
0.0
  0
LINE
  5
77
330
1F
100
AcDbEntity
  8
0
  6
Continuous
 62
     7
100
AcDbLine
 10
2691.03850221634
 20
-723.076735496524
 30
0.0
 11
1831.0388455391
 21
-723.076735496524
 31
0.0
  0
LINE
  5
78
330
1F
100
AcDbEntity
  8
0
  6
Continuous
 62
     7
100
AcDbLine
 10
2671.03899812699
 20
-239.483748435973
 30
0.0
 11
2671.03899812699
 21
-723.076735496524
 31
0.0
  0
LINE
  5
79
330
1F
100
AcDbEntity
  8
0
  6
Continuous
 62
     1
100
AcDbLine
 10
2461.03895998002
 20
-513.129149436953
 30
0.0
 11
2461.03895998002
 21
-199.483748435973
 31
0.0
  0
LINE
  5
7A
330
1F
100
AcDbEntity
  8
0
  6
Continuous
 62
     1
100
AcDbLine
 10
2251.03892183304
 20
-513.129149436953
 30
0.0
 11
2251.03892183304
 21
-199.483748435973
 31
0.0
  0
LINE
  5
7B
330
1F
100
AcDbEntity
  8
0
  6
Continuous
 62
     1
100
AcDbLine
 10
2041.03888368607
 20
-513.129149436953
 30
0.0
 11
2041.03888368607
 21
-199.483748435973
 31
0.0
  0
LINE
  5
7C
330
1F
100
AcDbEntity
  8
0
  6
Continuous
 62
     5
100
AcDbLine
 10
2445.03880739212
 20
-749.481116294864
 30
0.0
 11
2445.03880739212
 21
-889.480505943294
 31
0.0
  0
LINE
  5
7D
330
1F
100
AcDbEntity
  8
0
  6
Continuous
 62
     5
100
AcDbLine
 10
2415.03907442092
 20
-749.481116294864
 30
0.0
 11
2445.03880739212
 21
-749.481116294864
 31
0.0
  0
LINE
  5
7E
330
1F
100
AcDbEntity
  8
0
  6
Continuous
 62
     5
100
AcDbLine
 10
2415.03907442092
 20
-889.480505943294
 30
0.0
 11
2415.03907442092
 21
-749.481116294864
 31
0.0
  0
LINE
  5
7F
330
1F
100
AcDbEntity
  8
0
  6
Continuous
 62
     5
100
AcDbLine
 10
2445.03880739212
 20
-889.480505943294
 30
0.0
 11
2415.03907442092
 21
-889.480505943294
 31
0.0
  0
LINE
  5
80
330
1F
100
AcDbEntity
  8
0
  6
Continuous
 62
     7
100
AcDbLine
 10
2691.03850221634
 20
-723.076735496524
 30
0.0
 11
2691.03850221634
 21
-239.482794761653
 31
0.0
  0
LINE
  5
81
330
1F
100
AcDbEntity
  8
1
  6
Continuous
 62
     7
100
AcDbLine
 10
2707.97541741942
 20
-516.321909440793
 30
0.0
 11
2787.35775615122
 21
-239.482794761653
 31
0.0
  0
LINE
  5
82
330
1F
100
AcDbEntity
  8
1
  6
Continuous
 62
     7
100
AcDbLine
 10
2711.03899812699
 20
-199.483748435973
 30
0.0
 11
2744.07314774705
 21
-199.483748435973
 31
0.0
  0
LINE
  5
83
330
1F
100
AcDbEntity
  8
1
  6
Continuous
 62
     7
100
AcDbLine
 10
2706.03850221634
 20
-723.076735496524
 30
0.0
 11
2691.03850221634
 21
-723.076735496524
 31
0.0
  0
LINE
  5
84
330
1F
100
AcDbEntity
  8
1
  6
Continuous
 62
     7
100
AcDbLine
 10
2706.03850221634
 20
-530.103777231643
 30
0.0
 11
2706.03850221634
 21
-723.076735496524
 31
0.0
  0
LINE
  5
85
330
1F
100
AcDbEntity
  8
1
  6
Continuous
 62
     7
100
AcDbLine
 10
2691.03850221634
 20
-239.482794761653
 30
0.0
 11
2787.35775615122
 21
-239.482794761653
 31
0.0
  0
LINE
  5
86
330
1F
100
AcDbEntity
  8
1
  6
Continuous
 62
     7
100
AcDbLine
 10
874.719934926973
 20
-239.482794761653
 30
0.0
 11
971.039188861854
 21
-239.482794761653
 31
0.0
  0
LINE
  5
87
330
1F
100
AcDbEntity
  8
1
  6
Continuous
 62
     7
100
AcDbLine
 10
956.039188861854
 20
-723.076735496524
 30
0.0
 11
956.039188861854
 21
-530.103777231643
 31
0.0
  0
LINE
  5
88
330
1F
100
AcDbEntity
  8
1
  6
Continuous
 62
     7
100
AcDbLine
 10
971.039188861854
 20
-723.076735496524
 30
0.0
 11
956.039188861854
 21
-723.076735496524
 31
0.0
  0
LINE
  5
89
330
1F
100
AcDbEntity
  8
1
  6
Continuous
 62
     7
100
AcDbLine
 10
918.004543331137
 20
-199.483748435973
 30
0.0
 11
951.038692951204
 21
-199.483748435973
 31
0.0
  0
LINE
  5
8A
330
1F
100
AcDbEntity
  8
1
  6
Continuous
 62
     7
100
AcDbLine
 10
874.719934926973
 20
-239.482794761653
 30
0.0
 11
954.10227365877
 21
-516.321909440793
 31
0.0
  0
LINE
  5
8B
330
1F
100
AcDbEntity
  8
0
  6
Continuous
 62
     7
100
AcDbLine
 10
971.039188861854
 20
-239.482794761653
 30
0.0
 11
971.039188861854
 21
-723.076735496524
 31
0.0
  0
LINE
  5
8C
330
1F
100
AcDbEntity
  8
0
  6
Continuous
 62
     5
100
AcDbLine
 10
1247.03861665726
 20
-889.480505943294
 30
0.0
 11
1217.03888368607
 21
-889.480505943294
 31
0.0
  0
LINE
  5
8D
330
1F
100
AcDbEntity
  8
0
  6
Continuous
 62
     5
100
AcDbLine
 10
1247.03861665726
 20
-749.481116294864
 30
0.0
 11
1247.03861665726
 21
-889.480505943294
 31
0.0
  0
LINE
  5
8E
330
1F
100
AcDbEntity
  8
0
  6
Continuous
 62
     5
100
AcDbLine
 10
1217.03888368607
 20
-749.481116294864
 30
0.0
 11
1247.03861665726
 21
-749.481116294864
 31
0.0
  0
LINE
  5
8F
330
1F
100
AcDbEntity
  8
0
  6
Continuous
 62
     5
100
AcDbLine
 10
1217.03888368607
 20
-889.480505943294
 30
0.0
 11
1217.03888368607
 21
-749.481116294864
 31
0.0
  0
LINE
  5
90
330
1F
100
AcDbEntity
  8
0
  6
Continuous
 62
     1
100
AcDbLine
 10
1831.0388455391
 20
-199.483748435973
 30
0.0
 11
1831.0388455391
 21
-513.129149436953
 31
0.0
  0
LINE
  5
91
330
1F
100
AcDbEntity
  8
0
  6
Continuous
 62
     1
100
AcDbLine
 10
1621.03880739212
 20
-199.483748435973
 30
0.0
 11
1621.03880739212
 21
-513.129149436953
 31
0.0
  0
LINE
  5
92
330
1F
100
AcDbEntity
  8
0
  6
Continuous
 62
     1
100
AcDbLine
 10
1411.03876924516
 20
-199.483748435973
 30
0.0
 11
1411.03876924516
 21
-513.129149436953
 31
0.0
  0
LINE
  5
93
330
1F
100
AcDbEntity
  8
0
  6
Continuous
 62
     1
100
AcDbLine
 10
1201.03873109817
 20
-199.483748435973
 30
0.0
 11
1201.03873109817
 21
-513.129149436953
 31
0.0
  0
LINE
  5
94
330
1F
100
AcDbEntity
  8
0
  6
Continuous
 62
     1
100
AcDbLine
 10
1831.0388455391
 20
-513.129149436953
 30
0.0
 11
1831.0388455391
 21
-723.076735496524
 31
0.0
  0
LINE
  5
95
330
1F
100
AcDbEntity
  8
0
  6
Continuous
 62
     7
100
AcDbLine
 10
1831.0388455391
 20
-723.076735496524
 30
0.0
 11
971.039188861854
 21
-723.076735496524
 31
0.0
  0
LINE
  5
96
330
1F
100
AcDbEntity
  8
0
  6
Continuous
 62
     7
100
AcDbLine
 10
1831.0388455391
 20
-585.942183494563
 30
0.0
 11
991.038692951204
 21
-585.942183494563
 31
0.0
  0
LINE
  5
97
330
1F
100
AcDbEntity
  8
0
  6
Continuous
 62
     7
100
AcDbLine
 10
2671.03899812699
 20
-513.129149436953
 30
0.0
 11
991.038692951204
 21
-513.129149436953
 31
0.0
  0
LINE
  5
98
330
1F
100
AcDbEntity
  8
0
  6
Continuous
 62
     7
100
AcDbLine
 10
991.038692951204
 20
-723.076735496524
 30
0.0
 11
991.038692951204
 21
-239.483748435973
 31
0.0
  0
LINE
  5
99
330
1F
100
AcDbEntity
  8
0
  6
Continuous
 62
     7
100
AcDbLine
 10
5911.03899812699
 20
-239.483748435973
 30
0.0
 11
5911.03899812699
 21
-723.076735496524
 31
0.0
  0
LINE
  5
9A
330
1F
100
AcDbEntity
  8
0
  6
Continuous
 62
     5
100
AcDbLine
 10
5685.03880739212
 20
-749.481116294864
 30
0.0
 11
5685.03880739212
 21
-889.480505943294
 31
0.0
  0
LINE
  5
9B
330
1F
100
AcDbEntity
  8
0
  6
Continuous
 62
     5
100
AcDbLine
 10
5655.03907442093
 20
-749.481116294864
 30
0.0
 11
5685.03880739212
 21
-749.481116294864
 31
0.0
  0
LINE
  5
9C
330
1F
100
AcDbEntity
  8
0
  6
Continuous
 62
     5
100
AcDbLine
 10
5655.03907442093
 20
-889.480505943294
 30
0.0
 11
5655.03907442093
 21
-749.481116294864
 31
0.0
  0
LINE
  5
9D
330
1F
100
AcDbEntity
  8
0
  6
Continuous
 62
     5
100
AcDbLine
 10
5685.03880739212
 20
-889.480505943294
 30
0.0
 11
5655.03907442093
 21
-889.480505943294
 31
0.0
  0
LINE
  5
9E
330
1F
100
AcDbEntity
  8
0
  6
Continuous
 62
     7
100
AcDbLine
 10
5931.03850221634
 20
-723.076735496524
 30
0.0
 11
5931.03850221634
 21
-239.482794761653
 31
0.0
  0
LINE
  5
9F
330
1F
100
AcDbEntity
  8
1
  6
Continuous
 62
     7
100
AcDbLine
 10
5947.97541741942
 20
-516.321909440793
 30
0.0
 11
6027.35775615122
 21
-239.482794761653
 31
0.0
  0
LINE
  5
A0
330
1F
100
AcDbEntity
  8
1
  6
Continuous
 62
     7
100
AcDbLine
 10
5951.03899812699
 20
-199.483748435973
 30
0.0
 11
5984.07314774705
 21
-199.483748435973
 31
0.0
  0
LINE
  5
A1
330
1F
100
AcDbEntity
  8
1
  6
Continuous
 62
     7
100
AcDbLine
 10
5946.03850221634
 20
-723.076735496524
 30
0.0
 11
5931.03850221634
 21
-723.076735496524
 31
0.0
  0
LINE
  5
A2
330
1F
100
AcDbEntity
  8
1
  6
Continuous
 62
     7
100
AcDbLine
 10
5946.03850221634
 20
-530.103777231643
 30
0.0
 11
5946.03850221634
 21
-723.076735496524
 31
0.0
  0
LINE
  5
A3
330
1F
100
AcDbEntity
  8
1
  6
Continuous
 62
     7
100
AcDbLine
 10
5931.03850221634
 20
-239.482794761653
 30
0.0
 11
6027.35775615122
 21
-239.482794761653
 31
0.0
  0
LINE
  5
A4
330
1F
100
AcDbEntity
  8
1
  6
Continuous
 62
     7
100
AcDbLine
 10
3874.71993492697
 20
-239.482794761653
 30
0.0
 11
3971.03918886185
 21
-239.482794761653
 31
0.0
  0
LINE
  5
A5
330
1F
100
AcDbEntity
  8
1
  6
Continuous
 62
     7
100
AcDbLine
 10
3956.03918886185
 20
-723.076735496524
 30
0.0
 11
3956.03918886185
 21
-530.103777231643
 31
0.0
  0
LINE
  5
A6
330
1F
100
AcDbEntity
  8
1
  6
Continuous
 62
     7
100
AcDbLine
 10
3971.03918886185
 20
-723.076735496524
 30
0.0
 11
3956.03918886185
 21
-723.076735496524
 31
0.0
  0
LINE
  5
A7
330
1F
100
AcDbEntity
  8
1
  6
Continuous
 62
     7
100
AcDbLine
 10
3951.0386929512
 20
-199.483748435973
 30
0.0
 11
5951.03899812699
 21
-199.483748435973
 31
0.0
  0
LINE
  5
A8
330
1F
100
AcDbEntity
  8
1
  6
Continuous
 62
     7
100
AcDbLine
 10
3918.00454333114
 20
-199.483748435973
 30
0.0
 11
3951.0386929512
 21
-199.483748435973
 31
0.0
  0
LINE
  5
A9
330
1F
100
AcDbEntity
  8
1
  6
Continuous
 62
     7
100
AcDbLine
 10
3874.71993492697
 20
-239.482794761653
 30
0.0
 11
3954.10227365877
 21
-516.321909440793
 31
0.0
  0
LINE
  5
AA
330
1F
100
AcDbEntity
  8
0
  6
Continuous
 62
     7
100
AcDbLine
 10
3971.03918886185
 20
-239.482794761653
 30
0.0
 11
3971.03918886185
 21
-723.076735496524
 31
0.0
  0
LINE
  5
AB
330
1F
100
AcDbEntity
  8
0
  6
Continuous
 62
     5
100
AcDbLine
 10
4247.03861665726
 20
-889.480505943294
 30
0.0
 11
4217.03888368606
 21
-889.480505943294
 31
0.0
  0
LINE
  5
AC
330
1F
100
AcDbEntity
  8
0
  6
Continuous
 62
     5
100
AcDbLine
 10
4247.03861665726
 20
-749.481116294864
 30
0.0
 11
4247.03861665726
 21
-889.480505943294
 31
0.0
  0
LINE
  5
AD
330
1F
100
AcDbEntity
  8
0
  6
Continuous
 62
     5
100
AcDbLine
 10
4217.03888368606
 20
-749.481116294864
 30
0.0
 11
4247.03861665726
 21
-749.481116294864
 31
0.0
  0
LINE
  5
AE
330
1F
100
AcDbEntity
  8
0
  6
Continuous
 62
     5
100
AcDbLine
 10
4217.03888368606
 20
-889.480505943294
 30
0.0
 11
4217.03888368606
 21
-749.481116294864
 31
0.0
  0
LINE
  5
AF
330
1F
100
AcDbEntity
  8
0
  6
Continuous
 62
     1
100
AcDbLine
 10
4951.03884553909
 20
-199.483748435973
 30
0.0
 11
4951.03884553909
 21
-513.129149436953
 31
0.0
  0
LINE
  5
B0
330
1F
100
AcDbEntity
  8
0
  6
Continuous
 62
     1
100
AcDbLine
 10
4951.03884553909
 20
-513.129149436953
 30
0.0
 11
4951.03884553909
 21
-723.076735496524
 31
0.0
  0
LINE
  5
B1
330
1F
100
AcDbEntity
  8
0
  6
Continuous
 62
     7
100
AcDbLine
 10
5911.03899812699
 20
-723.076735496524
 30
0.0
 11
3971.03918886185
 21
-723.076735496524
 31
0.0
  0
LINE
  5
B2
330
1F
100
AcDbEntity
  8
0
  6
Continuous
 62
     7
100
AcDbLine
 10
5911.03899812699
 20
-585.942183494563
 30
0.0
 11
3991.0386929512
 21
-585.942183494563
 31
0.0
  0
LINE
  5
B3
330
1F
100
AcDbEntity
  8
0
  6
Continuous
 62
     7
100
AcDbLine
 10
5911.03899812699
 20
-513.129149436953
 30
0.0
 11
3991.0386929512
 21
-513.129149436953
 31
0.0
  0
LINE
  5
B4
330
1F
100
AcDbEntity
  8
0
  6
Continuous
 62
     7
100
AcDbLine
 10
3991.0386929512
 20
-723.076735496524
 30
0.0
 11
3991.0386929512
 21
-239.483748435973
 31
0.0
  0
LINE
  5
B5
330
1F
100
AcDbEntity
  8
1
  6
Continuous
 62
     1
100
AcDbLine
 10
4183.03860521316
 20
-199.483748435973
 30
0.0
 11
4183.03860521316
 21
-513.129149436953
 31
0.0
  0
LINE
  5
B6
330
1F
100
AcDbEntity
  8
1
  6
Continuous
 62
     1
100
AcDbLine
 10
4375.03851747514
 20
-199.483748435973
 30
0.0
 11
4375.03851747514
 21
-513.129149436953
 31
0.0
  0
LINE
  5
B7
330
1F
100
AcDbEntity
  8
1
  6
Continuous
 62
     1
100
AcDbLine
 10
4567.03842973709
 20
-199.483748435973
 30
0.0
 11
4567.03842973709
 21
-513.129149436953
 31
0.0
  0
LINE
  5
B8
330
1F
100
AcDbEntity
  8
1
  6
Continuous
 62
     1
100
AcDbLine
 10
4759.03881883621
 20
-199.483748435973
 30
0.0
 11
4759.03881883621
 21
-513.129149436953
 31
0.0
  0
LINE
  5
B9
330
1F
100
AcDbEntity
  8
1
  6
Continuous
 62
     7
100
AcDbLine
 10
4951.03884553909
 20
-199.483748435973
 30
0.0
 11
4951.03884553909
 21
-513.129149436953
 31
0.0
  0
LINE
  5
BA
330
1F
100
AcDbEntity
  8
1
  6
Continuous
 62
     1
100
AcDbLine
 10
5143.03864336014
 20
-199.483748435973
 30
0.0
 11
5143.03864336014
 21
-513.129149436953
 31
0.0
  0
LINE
  5
BB
330
1F
100
AcDbEntity
  8
1
  6
Continuous
 62
     1
100
AcDbLine
 10
5335.03760194778
 20
-199.483748435973
 30
0.0
 11
5335.03760194778
 21
-513.129149436953
 31
0.0
  0
LINE
  5
BC
330
1F
100
AcDbEntity
  8
1
  6
Continuous
 62
     1
100
AcDbLine
 10
5527.03751420975
 20
-199.483748435973
 30
0.0
 11
5527.03751420975
 21
-513.129149436953
 31
0.0
  0
LINE
  5
BD
330
1F
100
AcDbEntity
  8
1
  6
Continuous
 62
     1
100
AcDbLine
 10
5719.03742647171
 20
-199.483748435973
 30
0.0
 11
5719.03742647171
 21
-513.129149436953
 31
0.0
  0
LINE
  5
BE
330
1F
100
AcDbEntity
  8
0
  6
Continuous
 62
     7
100
AcDbLine
 10
-2008.9613070488
 20
-723.076735496524
 30
0.0
 11
-2008.9613070488
 21
-239.483748435973
 31
0.0
  0
LINE
  5
BF
330
1F
100
AcDbEntity
  8
0
  6
Continuous
 62
     7
100
AcDbLine
 10
-568.961001873014
 20
-585.942183494563
 30
0.0
 11
-2008.9613070488
 21
-585.942183494563
 31
0.0
  0
LINE
  5
C0
330
1F
100
AcDbEntity
  8
0
  6
Continuous
 62
     7
100
AcDbLine
 10
-568.961001873014
 20
-723.076735496524
 30
0.0
 11
-2028.96081113815
 21
-723.076735496524
 31
0.0
  0
LINE
  5
C1
330
1F
100
AcDbEntity
  8
0
  6
Continuous
 62
     1
100
AcDbLine
 10
-1288.9611544609
 20
-513.129149436953
 30
0.0
 11
-1288.9611544609
 21
-723.076735496524
 31
0.0
  0
LINE
  5
C2
330
1F
100
AcDbEntity
  8
0
  6
Continuous
 62
     5
100
AcDbLine
 10
-1782.96111631394
 20
-889.480505943294
 30
0.0
 11
-1782.96111631394
 21
-749.481116294864
 31
0.0
  0
LINE
  5
C3
330
1F
100
AcDbEntity
  8
0
  6
Continuous
 62
     5
100
AcDbLine
 10
-1782.96111631394
 20
-749.481116294864
 30
0.0
 11
-1752.96138334274
 21
-749.481116294864
 31
0.0
  0
LINE
  5
C4
330
1F
100
AcDbEntity
  8
0
  6
Continuous
 62
     5
100
AcDbLine
 10
-1752.96138334274
 20
-749.481116294864
 30
0.0
 11
-1752.96138334274
 21
-889.480505943294
 31
0.0
  0
LINE
  5
C5
330
1F
100
AcDbEntity
  8
0
  6
Continuous
 62
     5
100
AcDbLine
 10
-1752.96138334274
 20
-889.480505943294
 30
0.0
 11
-1782.96111631394
 21
-889.480505943294
 31
0.0
  0
LINE
  5
C6
330
1F
100
AcDbEntity
  8
0
  6
Continuous
 62
     7
100
AcDbLine
 10
-2028.96081113815
 20
-239.482794761653
 30
0.0
 11
-2028.96081113815
 21
-723.076735496524
 31
0.0
  0
LINE
  5
C7
330
1F
100
AcDbEntity
  8
1
  6
Continuous
 62
     7
100
AcDbLine
 10
-2125.28006507303
 20
-239.482794761653
 30
0.0
 11
-2045.89772634123
 21
-516.321909440793
 31
0.0
  0
LINE
  5
C8
330
1F
100
AcDbEntity
  8
1
  6
Continuous
 62
     7
100
AcDbLine
 10
-2081.99545666886
 20
-199.483748435973
 30
0.0
 11
-2048.9613070488
 21
-199.483748435973
 31
0.0
  0
LINE
  5
C9
330
1F
100
AcDbEntity
  8
1
  6
Continuous
 62
     7
100
AcDbLine
 10
-2028.96081113815
 20
-723.076735496524
 30
0.0
 11
-2043.96081113815
 21
-723.076735496524
 31
0.0
  0
LINE
  5
CA
330
1F
100
AcDbEntity
  8
1
  6
Continuous
 62
     7
100
AcDbLine
 10
-2043.96081113815
 20
-723.076735496524
 30
0.0
 11
-2043.96081113815
 21
-530.103777231643
 31
0.0
  0
LINE
  5
CB
330
1F
100
AcDbEntity
  8
1
  6
Continuous
 62
     7
100
AcDbLine
 10
-2125.28006507303
 20
-239.482794761653
 30
0.0
 11
-2028.96081113815
 21
-239.482794761653
 31
0.0
  0
LINE
  5
CC
330
1F
100
AcDbEntity
  8
1
  6
Continuous
 62
     7
100
AcDbLine
 10
-548.961497783664
 20
-239.482794761653
 30
0.0
 11
-452.642243848783
 21
-239.482794761653
 31
0.0
  0
LINE
  5
CD
330
1F
100
AcDbEntity
  8
1
  6
Continuous
 62
     7
100
AcDbLine
 10
-533.961497783664
 20
-530.103777231643
 30
0.0
 11
-533.961497783664
 21
-723.076735496524
 31
0.0
  0
LINE
  5
CE
330
1F
100
AcDbEntity
  8
1
  6
Continuous
 62
     7
100
AcDbLine
 10
-533.961497783664
 20
-723.076735496524
 30
0.0
 11
-548.961497783664
 21
-723.076735496524
 31
0.0
  0
LINE
  5
CF
330
1F
100
AcDbEntity
  8
1
  6
Continuous
 62
     7
100
AcDbLine
 10
-528.961001873014
 20
-199.483748435973
 30
0.0
 11
-495.926852252947
 21
-199.483748435973
 31
0.0
  0
LINE
  5
D0
330
1F
100
AcDbEntity
  8
1
  6
Continuous
 62
     7
100
AcDbLine
 10
-532.02458258058
 20
-516.321909440793
 30
0.0
 11
-452.642243848783
 21
-239.482794761653
 31
0.0
  0
LINE
  5
D1
330
1F
100
AcDbEntity
  8
0
  6
Continuous
 62
     7
100
AcDbLine
 10
-548.961497783664
 20
-723.076735496524
 30
0.0
 11
-548.961497783664
 21
-239.482794761653
 31
0.0
  0
LINE
  5
D2
330
1F
100
AcDbEntity
  8
0
  6
Continuous
 62
     5
100
AcDbLine
 10
-794.961192607875
 20
-889.480505943294
 30
0.0
 11
-824.960925579075
 21
-889.480505943294
 31
0.0
  0
LINE
  5
D3
330
1F
100
AcDbEntity
  8
0
  6
Continuous
 62
     5
100
AcDbLine
 10
-824.960925579075
 20
-889.480505943294
 30
0.0
 11
-824.960925579075
 21
-749.481116294864
 31
0.0
  0
LINE
  5
D4
330
1F
100
AcDbEntity
  8
0
  6
Continuous
 62
     5
100
AcDbLine
 10
-824.960925579075
 20
-749.481116294864
 30
0.0
 11
-794.961192607875
 21
-749.481116294864
 31
0.0
  0
LINE
  5
D5
330
1F
100
AcDbEntity
  8
0
  6
Continuous
 62
     5
100
AcDbLine
 10
-794.961192607875
 20
-749.481116294864
 30
0.0
 11
-794.961192607875
 21
-889.480505943294
 31
0.0
  0
LINE
  5
D6
330
1F
100
AcDbEntity
  8
0
  6
Continuous
 62
     7
100
AcDbLine
 10
-568.961001873014
 20
-239.483748435973
 30
0.0
 11
-568.961001873014
 21
-723.076735496524
 31
0.0
  0
LINE
  5
D7
330
1F
100
AcDbEntity
  8
1
  6
Continuous
 62
     1
100
AcDbLine
 10
7187.40261888504
 20
-199.483748435973
 30
0.0
 11
7187.40261888504
 21
-513.129149436953
 31
0.0
  0
LINE
  5
D8
330
1F
100
AcDbEntity
  8
1
  6
Continuous
 62
     1
100
AcDbLine
 10
7383.76559114457
 20
-199.483748435973
 30
0.0
 11
7383.76559114457
 21
-513.129149436953
 31
0.0
  0
LINE
  5
D9
330
1F
100
AcDbEntity
  8
1
  6
Continuous
 62
     1
100
AcDbLine
 10
7580.12856340408
 20
-199.483748435973
 30
0.0
 11
7580.12856340408
 21
-513.129149436953
 31
0.0
  0
LINE
  5
DA
330
1F
100
AcDbEntity
  8
1
  6
Continuous
 62
     1
100
AcDbLine
 10
7776.4915356636
 20
-199.483748435973
 30
0.0
 11
7776.4915356636
 21
-513.129149436953
 31
0.0
  0
LINE
  5
DB
330
1F
100
AcDbEntity
  8
1
  6
Continuous
 62
     1
100
AcDbLine
 10
7972.85450792313
 20
-199.483748435973
 30
0.0
 11
7972.85450792313
 21
-513.129149436953
 31
0.0
  0
LINE
  5
DC
330
1F
100
AcDbEntity
  8
1
  6
Continuous
 62
     1
100
AcDbLine
 10
8169.21748018266
 20
-199.483748435973
 30
0.0
 11
8169.21748018266
 21
-513.129149436953
 31
0.0
  0
LINE
  5
DD
330
1F
100
AcDbEntity
  8
1
  6
Continuous
 62
     1
100
AcDbLine
 10
8365.58045244217
 20
-199.483748435973
 30
0.0
 11
8365.58045244217
 21
-513.129149436953
 31
0.0
  0
LINE
  5
DE
330
1F
100
AcDbEntity
  8
1
  6
Continuous
 62
     1
100
AcDbLine
 10
8561.94342470169
 20
-199.483748435973
 30
0.0
 11
8561.94342470169
 21
-513.129149436953
 31
0.0
  0
LINE
  5
DF
330
1F
100
AcDbEntity
  8
1
  6
Continuous
 62
     1
100
AcDbLine
 10
8758.30639696122
 20
-199.483748435973
 30
0.0
 11
8758.30639696122
 21
-513.129149436953
 31
0.0
  0
LINE
  5
E0
330
1F
100
AcDbEntity
  8
1
  6
Continuous
 62
     1
100
AcDbLine
 10
8954.66936922073
 20
-199.483748435973
 30
0.0
 11
8954.66936922073
 21
-513.129149436953
 31
0.0
  0
LINE
  5
E1
330
1F
100
AcDbEntity
  8
1
  6
Continuous
 62
     7
100
AcDbLine
 10
-2008.9613070488
 20
-513.129149436953
 30
0.0
 11
-568.961001873014
 21
-513.129149436953
 31
0.0
  0
LINE
  5
E2
330
1F
100
AcDbEntity
  8
1
  6
Continuous
 62
     7
100
AcDbLine
 10
-528.961001873014
 20
-199.483748435973
 30
0.0
 11
-2048.9613070488
 21
-199.483748435973
 31
0.0
  0
LINE
  5
E3
330
1F
100
AcDbEntity
  8
1
  6
Continuous
 62
     7
100
AcDbLine
 10
4114.03406544447
 20
-513.129149436953
 30
0.0
 11
4831.03884553909
 21
-513.129149436953
 31
0.0
  0
LINE
  5
E4
330
1F
100
AcDbEntity
  8
1
  6
Continuous
 62
     7
100
AcDbLine
 10
4114.03406544447
 20
-513.129149436953
 30
0.0
 11
4831.03884553909
 21
-513.129149436953
 31
0.0
  0
LINE
  5
E5
330
1F
100
AcDbEntity
  8
1
  6
Continuous
 62
     7
100
AcDbLine
 10
6991.0386929512
 20
-513.129149436953
 30
0.0
 11
9151.03899812699
 21
-513.129149436953
 31
0.0
  0
LINE
  5
E6
330
1F
100
AcDbEntity
  8
1
  6
Continuous
 62
     7
100
AcDbLine
 10
8306.662206119
 20
-2513.12914943695
 30
0.0
 11
9014.27552956143
 21
-2513.12914943695
 31
0.0
  0
LINE
  5
E7
330
1F
100
AcDbEntity
  8
1
  6
Continuous
 62
     7
100
AcDbLine
 10
6991.0386929512
 20
-2513.12914943695
 30
0.0
 11
9151.03899812699
 21
-2513.12914943695
 31
0.0
  0
LINE
  5
E8
330
1F
100
AcDbEntity
  8
1
  6
Continuous
 62
     7
100
AcDbLine
 10
5122.45453957684
 20
-2513.12914943695
 30
0.0
 11
5830.06786301927
 21
-2513.12914943695
 31
0.0
  0
LINE
  5
E9
330
1F
100
AcDbEntity
  8
1
  6
Continuous
 62
     7
100
AcDbLine
 10
5122.45453957684
 20
-2513.12914943695
 30
0.0
 11
5830.06786301927
 21
-2513.12914943695
 31
0.0
  0
LINE
  5
EA
330
1F
100
AcDbEntity
  8
1
  6
Continuous
 62
     7
100
AcDbLine
 10
4114.03406544447
 20
-2513.12914943695
 30
0.0
 11
4831.03884553909
 21
-2513.12914943695
 31
0.0
  0
LINE
  5
EB
330
1F
100
AcDbEntity
  8
1
  6
Continuous
 62
     7
100
AcDbLine
 10
4114.03406544447
 20
-2513.12914943695
 30
0.0
 11
4831.03884553909
 21
-2513.12914943695
 31
0.0
  0
LINE
  5
EC
330
1F
100
AcDbEntity
  8
1
  6
Continuous
 62
     7
100
AcDbLine
 10
1940.50203392717
 20
-2513.12914943695
 30
0.0
 11
2648.1153573696
 21
-2513.12914943695
 31
0.0
  0
LINE
  5
ED
330
1F
100
AcDbEntity
  8
1
  6
Continuous
 62
     7
100
AcDbLine
 10
1940.50203392717
 20
-2513.12914943695
 30
0.0
 11
2648.1153573696
 21
-2513.12914943695
 31
0.0
  0
LINE
  5
EE
330
1F
100
AcDbEntity
  8
1
  6
Continuous
 62
     7
100
AcDbLine
 10
1055.13938787164
 20
-2513.12914943695
 30
0.0
 11
1772.14416796627
 21
-2513.12914943695
 31
0.0
  0
LINE
  5
EF
330
1F
100
AcDbEntity
  8
1
  6
Continuous
 62
     7
100
AcDbLine
 10
1055.13938787164
 20
-2513.12914943695
 30
0.0
 11
1772.14416796627
 21
-2513.12914943695
 31
0.0
  0
LINE
  5
F0
330
1F
100
AcDbEntity
  8
1
  6
Continuous
 62
     7
100
AcDbLine
 10
-528.961001873014
 20
-2199.48374843597
 30
0.0
 11
-580.635812590622
 21
-2199.48374843597
 31
0.0
  0
LINE
  5
F1
330
1F
100
AcDbEntity
  8
1
  6
Continuous
 62
     7
100
AcDbLine
 10
-1997.2864963328
 20
-2199.48374843597
 30
0.0
 11
-2065.2864963328
 21
-2199.48374843597
 31
0.0
  0
LINE
  5
F2
330
1F
100
AcDbEntity
  8
1
  6
Continuous
 62
     7
100
AcDbLine
 10
-2008.9613070488
 20
-2513.12914943695
 30
0.0
 11
-1291.95652695417
 21
-2513.12914943695
 31
0.0
  0
LINE
  5
F3
330
1F
100
AcDbEntity
  8
1
  6
Continuous
 62
     7
100
AcDbLine
 10
-2008.9613070488
 20
-2513.12914943695
 30
0.0
 11
-1291.95652695417
 21
-2513.12914943695
 31
0.0
  0
LINE
  5
F4
330
1F
100
AcDbEntity
  8
1
  6
Continuous
 62
     7
100
AcDbLine
 10
-1276.57432531545
 20
-2513.12914943695
 30
0.0
 11
-568.961001873014
 21
-2513.12914943695
 31
0.0
  0
LINE
  5
F5
330
1F
100
AcDbEntity
  8
1
  6
Continuous
 62
     7
100
AcDbLine
 10
-1276.57432531545
 20
-2513.12914943695
 30
0.0
 11
-568.961001873014
 21
-2513.12914943695
 31
0.0
  0
LINE
  5
F6
330
1F
100
AcDbEntity
  8
1
  6
Continuous
 62
     7
100
AcDbLine
 10
-2008.9613070488
 20
-2513.12914943695
 30
0.0
 11
-568.961001873014
 21
-2513.12914943695
 31
0.0
  0
LINE
  5
F7
330
1F
100
AcDbEntity
  8
1
  6
Continuous
 62
     1
100
AcDbLine
 10
8169.21748018266
 20
-2199.48374843597
 30
0.0
 11
8169.21748018266
 21
-2513.12914943695
 31
0.0
  0
LINE
  5
F8
330
1F
100
AcDbEntity
  8
1
  6
Continuous
 62
     1
100
AcDbLine
 10
7972.85450792313
 20
-2199.48374843597
 30
0.0
 11
7972.85450792313
 21
-2513.12914943695
 31
0.0
  0
LINE
  5
F9
330
1F
100
AcDbEntity
  8
1
  6
Continuous
 62
     1
100
AcDbLine
 10
7187.40261888504
 20
-2321.21345348088
 30
0.0
 11
7187.40261888504
 21
-2448.21605207973
 31
0.0
  0
LINE
  5
FA
330
1F
100
AcDbEntity
  8
0
  6
Continuous
 62
     7
100
AcDbLine
 10
-568.961001873014
 20
-2239.48374843597
 30
0.0
 11
-568.961001873014
 21
-2723.07673549652
 31
0.0
  0
LINE
  5
FB
330
1F
100
AcDbEntity
  8
0
  6
Continuous
 62
     5
100
AcDbLine
 10
-794.961192607875
 20
-2749.48111629486
 30
0.0
 11
-794.961192607875
 21
-2889.48050594329
 31
0.0
  0
LINE
  5
FC
330
1F
100
AcDbEntity
  8
0
  6
Continuous
 62
     5
100
AcDbLine
 10
-824.960925579075
 20
-2749.48111629486
 30
0.0
 11
-794.961192607875
 21
-2749.48111629486
 31
0.0
  0
LINE
  5
FD
330
1F
100
AcDbEntity
  8
0
  6
Continuous
 62
     5
100
AcDbLine
 10
-824.960925579075
 20
-2889.48050594329
 30
0.0
 11
-824.960925579075
 21
-2749.48111629486
 31
0.0
  0
LINE
  5
FE
330
1F
100
AcDbEntity
  8
0
  6
Continuous
 62
     5
100
AcDbLine
 10
-794.961192607875
 20
-2889.48050594329
 30
0.0
 11
-824.960925579075
 21
-2889.48050594329
 31
0.0
  0
LINE
  5
FF
330
1F
100
AcDbEntity
  8
0
  6
Continuous
 62
     7
100
AcDbLine
 10
-548.961497783664
 20
-2723.07673549652
 30
0.0
 11
-548.961497783664
 21
-2239.48279476165
 31
0.0
  0
LINE
  5
100
330
1F
100
AcDbEntity
  8
1
  6
Continuous
 62
     7
100
AcDbLine
 10
-532.02458258058
 20
-2516.32190944079
 30
0.0
 11
-452.642243848783
 21
-2239.48279476165
 31
0.0
  0
LINE
  5
101
330
1F
100
AcDbEntity
  8
1
  6
Continuous
 62
     7
100
AcDbLine
 10
-528.961001873014
 20
-2199.48374843597
 30
0.0
 11
-495.926852252947
 21
-2199.48374843597
 31
0.0
  0
LINE
  5
102
330
1F
100
AcDbEntity
  8
1
  6
Continuous
 62
     7
100
AcDbLine
 10
-533.961497783664
 20
-2723.07673549652
 30
0.0
 11
-548.961497783664
 21
-2723.07673549652
 31
0.0
  0
LINE
  5
103
330
1F
100
AcDbEntity
  8
1
  6
Continuous
 62
     7
100
AcDbLine
 10
-533.961497783664
 20
-2530.10377723164
 30
0.0
 11
-533.961497783664
 21
-2723.07673549652
 31
0.0
  0
LINE
  5
104
330
1F
100
AcDbEntity
  8
1
  6
Continuous
 62
     7
100
AcDbLine
 10
-548.961497783664
 20
-2239.48279476165
 30
0.0
 11
-452.642243848783
 21
-2239.48279476165
 31
0.0
  0
LINE
  5
105
330
1F
100
AcDbEntity
  8
1
  6
Continuous
 62
     7
100
AcDbLine
 10
-2125.28006507303
 20
-2239.48279476165
 30
0.0
 11
-2028.96081113815
 21
-2239.48279476165
 31
0.0
  0
LINE
  5
106
330
1F
100
AcDbEntity
  8
1
  6
Continuous
 62
     7
100
AcDbLine
 10
-2043.96081113815
 20
-2723.07673549652
 30
0.0
 11
-2043.96081113815
 21
-2530.10377723164
 31
0.0
  0
LINE
  5
107
330
1F
100
AcDbEntity
  8
1
  6
Continuous
 62
     7
100
AcDbLine
 10
-2028.96081113815
 20
-2723.07673549652
 30
0.0
 11
-2043.96081113815
 21
-2723.07673549652
 31
0.0
  0
LINE
  5
108
330
1F
100
AcDbEntity
  8
1
  6
Continuous
 62
     7
100
AcDbLine
 10
-1327.25743216486
 20
-2199.48374843597
 30
0.0
 11
-1250.66487675633
 21
-2199.48374843597
 31
0.0
  0
LINE
  5
109
330
1F
100
AcDbEntity
  8
1
  6
Continuous
 62
     7
100
AcDbLine
 10
-2081.99545666886
 20
-2199.48374843597
 30
0.0
 11
-2048.9613070488
 21
-2199.48374843597
 31
0.0
  0
LINE
  5
10A
330
1F
100
AcDbEntity
  8
1
  6
Continuous
 62
     7
100
AcDbLine
 10
-2125.28006507303
 20
-2239.48279476165
 30
0.0
 11
-2045.89772634123
 21
-2516.32190944079
 31
0.0
  0
LINE
  5
10B
330
1F
100
AcDbEntity
  8
0
  6
Continuous
 62
     7
100
AcDbLine
 10
-2028.96081113815
 20
-2239.48279476165
 30
0.0
 11
-2028.96081113815
 21
-2723.07673549652
 31
0.0
  0
LINE
  5
10C
330
1F
100
AcDbEntity
  8
0
  6
Continuous
 62
     5
100
AcDbLine
 10
-1752.96138334274
 20
-2889.48050594329
 30
0.0
 11
-1782.96111631394
 21
-2889.48050594329
 31
0.0
  0
LINE
  5
10D
330
1F
100
AcDbEntity
  8
0
  6
Continuous
 62
     5
100
AcDbLine
 10
-1752.96138334274
 20
-2749.48111629486
 30
0.0
 11
-1752.96138334274
 21
-2889.48050594329
 31
0.0
  0
LINE
  5
10E
330
1F
100
AcDbEntity
  8
0
  6
Continuous
 62
     5
100
AcDbLine
 10
-1782.96111631394
 20
-2749.48111629486
 30
0.0
 11
-1752.96138334274
 21
-2749.48111629486
 31
0.0
  0
LINE
  5
10F
330
1F
100
AcDbEntity
  8
0
  6
Continuous
 62
     5
100
AcDbLine
 10
-1782.96111631394
 20
-2889.48050594329
 30
0.0
 11
-1782.96111631394
 21
-2749.48111629486
 31
0.0
  0
LINE
  5
110
330
1F
100
AcDbEntity
  8
0
  6
Continuous
 62
     1
100
AcDbLine
 10
-1288.9611544609
 20
-2513.12914943695
 30
0.0
 11
-1288.9611544609
 21
-2723.07673549652
 31
0.0
  0
LINE
  5
111
330
1F
100
AcDbEntity
  8
0
  6
Continuous
 62
     7
100
AcDbLine
 10
-568.961001873014
 20
-2723.07673549652
 30
0.0
 11
-2028.96081113815
 21
-2723.07673549652
 31
0.0
  0
LINE
  5
112
330
1F
100
AcDbEntity
  8
0
  6
Continuous
 62
     7
100
AcDbLine
 10
-568.961001873014
 20
-2585.94218349456
 30
0.0
 11
-2008.9613070488
 21
-2585.94218349456
 31
0.0
  0
LINE
  5
113
330
1F
100
AcDbEntity
  8
0
  6
Continuous
 62
     7
100
AcDbLine
 10
-2008.9613070488
 20
-2723.07673549652
 30
0.0
 11
-2008.9613070488
 21
-2239.48374843597
 31
0.0
  0
LINE
  5
114
330
1F
100
AcDbEntity
  8
1
  6
Continuous
 62
     1
100
AcDbLine
 10
5143.03864336014
 20
-2199.48374843597
 30
0.0
 11
5143.03864336014
 21
-2455.00100107313
 31
0.0
  0
LINE
  5
115
330
1F
100
AcDbEntity
  8
0
  6
Continuous
 62
     7
100
AcDbLine
 10
3991.0386929512
 20
-2723.07673549652
 30
0.0
 11
3991.0386929512
 21
-2239.48374843597
 31
0.0
  0
LINE
  5
116
330
1F
100
AcDbEntity
  8
0
  6
Continuous
 62
     7
100
AcDbLine
 10
4831.03884553909
 20
-2513.12914943695
 30
0.0
 11
3991.0386929512
 21
-2513.12914943695
 31
0.0
  0
LINE
  5
117
330
1F
100
AcDbEntity
  8
0
  6
Continuous
 62
     7
100
AcDbLine
 10
4831.03884553909
 20
-2585.94218349456
 30
0.0
 11
3991.0386929512
 21
-2585.94218349456
 31
0.0
  0
LINE
  5
118
330
1F
100
AcDbEntity
  8
0
  6
Continuous
 62
     7
100
AcDbLine
 10
4831.03884553909
 20
-2723.07673549652
 30
0.0
 11
3971.03918886185
 21
-2723.07673549652
 31
0.0
  0
LINE
  5
119
330
1F
100
AcDbEntity
  8
0
  6
Continuous
 62
     1
100
AcDbLine
 10
4951.03884553909
 20
-2513.12914943695
 30
0.0
 11
4951.03884553909
 21
-2723.07673549652
 31
0.0
  0
LINE
  5
11A
330
1F
100
AcDbEntity
  8
0
  6
Continuous
 62
     1
100
AcDbLine
 10
4951.03884553909
 20
-2199.48374843597
 30
0.0
 11
4951.03884553909
 21
-2513.12914943695
 31
0.0
  0
LINE
  5
11B
330
1F
100
AcDbEntity
  8
0
  6
Continuous
 62
     5
100
AcDbLine
 10
4217.03888368606
 20
-2889.48050594329
 30
0.0
 11
4217.03888368606
 21
-2749.48111629486
 31
0.0
  0
LINE
  5
11C
330
1F
100
AcDbEntity
  8
0
  6
Continuous
 62
     5
100
AcDbLine
 10
4217.03888368606
 20
-2749.48111629486
 30
0.0
 11
4247.03861665726
 21
-2749.48111629486
 31
0.0
  0
LINE
  5
11D
330
1F
100
AcDbEntity
  8
0
  6
Continuous
 62
     5
100
AcDbLine
 10
4247.03861665726
 20
-2749.48111629486
 30
0.0
 11
4247.03861665726
 21
-2889.48050594329
 31
0.0
  0
LINE
  5
11E
330
1F
100
AcDbEntity
  8
0
  6
Continuous
 62
     5
100
AcDbLine
 10
4247.03861665726
 20
-2889.48050594329
 30
0.0
 11
4217.03888368606
 21
-2889.48050594329
 31
0.0
  0
LINE
  5
11F
330
1F
100
AcDbEntity
  8
0
  6
Continuous
 62
     7
100
AcDbLine
 10
3971.03918886185
 20
-2239.48279476165
 30
0.0
 11
3971.03918886185
 21
-2723.07673549652
 31
0.0
  0
LINE
  5
120
330
1F
100
AcDbEntity
  8
1
  6
Continuous
 62
     7
100
AcDbLine
 10
3874.71993492697
 20
-2239.48279476165
 30
0.0
 11
3954.10227365877
 21
-2516.32190944079
 31
0.0
  0
LINE
  5
121
330
1F
100
AcDbEntity
  8
1
  6
Continuous
 62
     7
100
AcDbLine
 10
3918.00454333114
 20
-2199.48374843597
 30
0.0
 11
3951.0386929512
 21
-2199.48374843597
 31
0.0
  0
LINE
  5
122
330
1F
100
AcDbEntity
  8
1
  6
Continuous
 62
     7
100
AcDbLine
 10
3951.0386929512
 20
-2199.48374843597
 30
0.0
 11
4125.70887616046
 21
-2199.48374843597
 31
0.0
  0
LINE
  5
123
330
1F
100
AcDbEntity
  8
1
  6
Continuous
 62
     7
100
AcDbLine
 10
3971.03918886185
 20
-2723.07673549652
 30
0.0
 11
3956.03918886185
 21
-2723.07673549652
 31
0.0
  0
LINE
  5
124
330
1F
100
AcDbEntity
  8
1
  6
Continuous
 62
     7
100
AcDbLine
 10
3956.03918886185
 20
-2723.07673549652
 30
0.0
 11
3956.03918886185
 21
-2530.10377723164
 31
0.0
  0
LINE
  5
125
330
1F
100
AcDbEntity
  8
1
  6
Continuous
 62
     7
100
AcDbLine
 10
3874.71993492697
 20
-2239.48279476165
 30
0.0
 11
3971.03918886185
 21
-2239.48279476165
 31
0.0
  0
LINE
  5
126
330
1F
100
AcDbEntity
  8
1
  6
Continuous
 62
     7
100
AcDbLine
 10
5931.03850221634
 20
-2239.48279476165
 30
0.0
 11
6027.35775615122
 21
-2239.48279476165
 31
0.0
  0
LINE
  5
127
330
1F
100
AcDbEntity
  8
1
  6
Continuous
 62
     7
100
AcDbLine
 10
5946.03850221634
 20
-2530.10377723164
 30
0.0
 11
5946.03850221634
 21
-2723.07673549652
 31
0.0
  0
LINE
  5
128
330
1F
100
AcDbEntity
  8
1
  6
Continuous
 62
     7
100
AcDbLine
 10
5946.03850221634
 20
-2723.07673549652
 30
0.0
 11
5931.03850221634
 21
-2723.07673549652
 31
0.0
  0
LINE
  5
129
330
1F
100
AcDbEntity
  8
1
  6
Continuous
 62
     7
100
AcDbLine
 10
5951.03899812699
 20
-2199.48374843597
 30
0.0
 11
5984.07314774705
 21
-2199.48374843597
 31
0.0
  0
LINE
  5
12A
330
1F
100
AcDbEntity
  8
1
  6
Continuous
 62
     7
100
AcDbLine
 10
5947.97541741942
 20
-2516.32190944079
 30
0.0
 11
6027.35775615122
 21
-2239.48279476165
 31
0.0
  0
LINE
  5
12B
330
1F
100
AcDbEntity
  8
0
  6
Continuous
 62
     7
100
AcDbLine
 10
5931.03850221634
 20
-2723.07673549652
 30
0.0
 11
5931.03850221634
 21
-2239.48279476165
 31
0.0
  0
LINE
  5
12C
330
1F
100
AcDbEntity
  8
0
  6
Continuous
 62
     5
100
AcDbLine
 10
5685.03880739212
 20
-2889.48050594329
 30
0.0
 11
5655.03907442093
 21
-2889.48050594329
 31
0.0
  0
LINE
  5
12D
330
1F
100
AcDbEntity
  8
0
  6
Continuous
 62
     5
100
AcDbLine
 10
5655.03907442093
 20
-2889.48050594329
 30
0.0
 11
5655.03907442093
 21
-2749.48111629486
 31
0.0
  0
LINE
  5
12E
330
1F
100
AcDbEntity
  8
0
  6
Continuous
 62
     5
100
AcDbLine
 10
5655.03907442093
 20
-2749.48111629486
 30
0.0
 11
5685.03880739212
 21
-2749.48111629486
 31
0.0
  0
LINE
  5
12F
330
1F
100
AcDbEntity
  8
0
  6
Continuous
 62
     5
100
AcDbLine
 10
5685.03880739212
 20
-2749.48111629486
 30
0.0
 11
5685.03880739212
 21
-2889.48050594329
 31
0.0
  0
LINE
  5
130
330
1F
100
AcDbEntity
  8
0
  6
Continuous
 62
     7
100
AcDbLine
 10
5911.03899812699
 20
-2239.48374843597
 30
0.0
 11
5911.03899812699
 21
-2723.07673549652
 31
0.0
  0
LINE
  5
131
330
1F
100
AcDbEntity
  8
0
  6
Continuous
 62
     7
100
AcDbLine
 10
5931.03850221634
 20
-2723.07673549652
 30
0.0
 11
4831.03884553909
 21
-2723.07673549652
 31
0.0
  0
LINE
  5
132
330
1F
100
AcDbEntity
  8
0
  6
Continuous
 62
     7
100
AcDbLine
 10
5911.03899812699
 20
-2585.94218349456
 30
0.0
 11
4831.03884553909
 21
-2585.94218349456
 31
0.0
  0
LINE
  5
133
330
1F
100
AcDbEntity
  8
0
  6
Continuous
 62
     7
100
AcDbLine
 10
5911.03899812699
 20
-2513.12914943695
 30
0.0
 11
4831.03884553909
 21
-2513.12914943695
 31
0.0
  0
LINE
  5
134
330
1F
100
AcDbEntity
  8
1
  6
Continuous
 62
     7
100
AcDbLine
 10
4829.03899812699
 20
-2199.48374843597
 30
0.0
 11
5148.36398813595
 21
-2199.48374843597
 31
0.0
  0
LINE
  5
135
330
1F
100
AcDbEntity
  8
0
  6
Continuous
 62
     7
100
AcDbLine
 10
991.038692951204
 20
-2723.07673549652
 30
0.0
 11
991.038692951204
 21
-2239.48374843597
 31
0.0
  0
LINE
  5
136
330
1F
100
AcDbEntity
  8
0
  6
Continuous
 62
     7
100
AcDbLine
 10
1831.0388455391
 20
-2513.12914943695
 30
0.0
 11
991.038692951204
 21
-2513.12914943695
 31
0.0
  0
LINE
  5
137
330
1F
100
AcDbEntity
  8
0
  6
Continuous
 62
     7
100
AcDbLine
 10
1831.0388455391
 20
-2585.94218349456
 30
0.0
 11
991.038692951204
 21
-2585.94218349456
 31
0.0
  0
LINE
  5
138
330
1F
100
AcDbEntity
  8
0
  6
Continuous
 62
     7
100
AcDbLine
 10
1831.0388455391
 20
-2723.07673549652
 30
0.0
 11
971.039188861854
 21
-2723.07673549652
 31
0.0
  0
LINE
  5
139
330
1F
100
AcDbEntity
  8
0
  6
Continuous
 62
     1
100
AcDbLine
 10
1831.0388455391
 20
-2513.12914943695
 30
0.0
 11
1831.0388455391
 21
-2723.07673549652
 31
0.0
  0
LINE
  5
13A
330
1F
100
AcDbEntity
  8
0
  6
Continuous
 62
     1
100
AcDbLine
 10
1831.0388455391
 20
-2199.48374843597
 30
0.0
 11
1831.0388455391
 21
-2513.12914943695
 31
0.0
  0
LINE
  5
13B
330
1F
100
AcDbEntity
  8
0
  6
Continuous
 62
     5
100
AcDbLine
 10
1217.03888368607
 20
-2889.48050594329
 30
0.0
 11
1217.03888368607
 21
-2749.48111629486
 31
0.0
  0
LINE
  5
13C
330
1F
100
AcDbEntity
  8
0
  6
Continuous
 62
     5
100
AcDbLine
 10
1217.03888368607
 20
-2749.48111629486
 30
0.0
 11
1247.03861665726
 21
-2749.48111629486
 31
0.0
  0
LINE
  5
13D
330
1F
100
AcDbEntity
  8
0
  6
Continuous
 62
     5
100
AcDbLine
 10
1247.03861665726
 20
-2749.48111629486
 30
0.0
 11
1247.03861665726
 21
-2889.48050594329
 31
0.0
  0
LINE
  5
13E
330
1F
100
AcDbEntity
  8
0
  6
Continuous
 62
     5
100
AcDbLine
 10
1247.03861665726
 20
-2889.48050594329
 30
0.0
 11
1217.03888368607
 21
-2889.48050594329
 31
0.0
  0
LINE
  5
13F
330
1F
100
AcDbEntity
  8
0
  6
Continuous
 62
     7
100
AcDbLine
 10
971.039188861854
 20
-2239.48279476165
 30
0.0
 11
971.039188861854
 21
-2723.07673549652
 31
0.0
  0
LINE
  5
140
330
1F
100
AcDbEntity
  8
1
  6
Continuous
 62
     7
100
AcDbLine
 10
874.719934926973
 20
-2239.48279476165
 30
0.0
 11
954.10227365877
 21
-2516.32190944079
 31
0.0
  0
LINE
  5
141
330
1F
100
AcDbEntity
  8
1
  6
Continuous
 62
     7
100
AcDbLine
 10
918.004543331137
 20
-2199.48374843597
 30
0.0
 11
951.038692951204
 21
-2199.48374843597
 31
0.0
  0
LINE
  5
142
330
1F
100
AcDbEntity
  8
1
  6
Continuous
 62
     7
100
AcDbLine
 10
1736.84326275558
 20
-2199.48374843597
 30
0.0
 11
1833.0386929512
 21
-2199.48374843597
 31
0.0
  0
LINE
  5
143
330
1F
100
AcDbEntity
  8
1
  6
Continuous
 62
     7
100
AcDbLine
 10
971.039188861854
 20
-2723.07673549652
 30
0.0
 11
956.039188861854
 21
-2723.07673549652
 31
0.0
  0
LINE
  5
144
330
1F
100
AcDbEntity
  8
1
  6
Continuous
 62
     7
100
AcDbLine
 10
956.039188861854
 20
-2723.07673549652
 30
0.0
 11
956.039188861854
 21
-2530.10377723164
 31
0.0
  0
LINE
  5
145
330
1F
100
AcDbEntity
  8
1
  6
Continuous
 62
     7
100
AcDbLine
 10
874.719934926973
 20
-2239.48279476165
 30
0.0
 11
971.039188861854
 21
-2239.48279476165
 31
0.0
  0
LINE
  5
146
330
1F
100
AcDbEntity
  8
1
  6
Continuous
 62
     7
100
AcDbLine
 10
2691.03850221634
 20
-2239.48279476165
 30
0.0
 11
2787.35775615122
 21
-2239.48279476165
 31
0.0
  0
LINE
  5
147
330
1F
100
AcDbEntity
  8
1
  6
Continuous
 62
     7
100
AcDbLine
 10
2706.03850221634
 20
-2530.10377723164
 30
0.0
 11
2706.03850221634
 21
-2723.07673549652
 31
0.0
  0
LINE
  5
148
330
1F
100
AcDbEntity
  8
1
  6
Continuous
 62
     7
100
AcDbLine
 10
2706.03850221634
 20
-2723.07673549652
 30
0.0
 11
2691.03850221634
 21
-2723.07673549652
 31
0.0
  0
LINE
  5
149
330
1F
100
AcDbEntity
  8
1
  6
Continuous
 62
     7
100
AcDbLine
 10
2711.03899812699
 20
-2199.48374843597
 30
0.0
 11
2744.07314774705
 21
-2199.48374843597
 31
0.0
  0
LINE
  5
14A
330
1F
100
AcDbEntity
  8
1
  6
Continuous
 62
     7
100
AcDbLine
 10
2707.97541741942
 20
-2516.32190944079
 30
0.0
 11
2787.35775615122
 21
-2239.48279476165
 31
0.0
  0
LINE
  5
14B
330
1F
100
AcDbEntity
  8
0
  6
Continuous
 62
     7
100
AcDbLine
 10
2691.03850221634
 20
-2723.07673549652
 30
0.0
 11
2691.03850221634
 21
-2239.48279476165
 31
0.0
  0
LINE
  5
14C
330
1F
100
AcDbEntity
  8
0
  6
Continuous
 62
     5
100
AcDbLine
 10
2445.03880739212
 20
-2889.48050594329
 30
0.0
 11
2415.03907442092
 21
-2889.48050594329
 31
0.0
  0
LINE
  5
14D
330
1F
100
AcDbEntity
  8
0
  6
Continuous
 62
     5
100
AcDbLine
 10
2415.03907442092
 20
-2889.48050594329
 30
0.0
 11
2415.03907442092
 21
-2749.48111629486
 31
0.0
  0
LINE
  5
14E
330
1F
100
AcDbEntity
  8
0
  6
Continuous
 62
     5
100
AcDbLine
 10
2415.03907442092
 20
-2749.48111629486
 30
0.0
 11
2445.03880739212
 21
-2749.48111629486
 31
0.0
  0
LINE
  5
14F
330
1F
100
AcDbEntity
  8
0
  6
Continuous
 62
     5
100
AcDbLine
 10
2445.03880739212
 20
-2749.48111629486
 30
0.0
 11
2445.03880739212
 21
-2889.48050594329
 31
0.0
  0
LINE
  5
150
330
1F
100
AcDbEntity
  8
0
  6
Continuous
 62
     7
100
AcDbLine
 10
2671.03899812699
 20
-2239.48374843597
 30
0.0
 11
2671.03899812699
 21
-2723.07673549652
 31
0.0
  0
LINE
  5
151
330
1F
100
AcDbEntity
  8
0
  6
Continuous
 62
     7
100
AcDbLine
 10
2691.03850221634
 20
-2723.07673549652
 30
0.0
 11
1831.0388455391
 21
-2723.07673549652
 31
0.0
  0
LINE
  5
152
330
1F
100
AcDbEntity
  8
0
  6
Continuous
 62
     7
100
AcDbLine
 10
2671.03899812699
 20
-2585.94218349456
 30
0.0
 11
1831.0388455391
 21
-2585.94218349456
 31
0.0
  0
LINE
  5
153
330
1F
100
AcDbEntity
  8
0
  6
Continuous
 62
     7
100
AcDbLine
 10
2671.03899812699
 20
-2513.12914943695
 30
0.0
 11
1831.0388455391
 21
-2513.12914943695
 31
0.0
  0
LINE
  5
154
330
1F
100
AcDbEntity
  8
1
  6
Continuous
 62
     7
100
AcDbLine
 10
1829.03899812699
 20
-2199.48374843597
 30
0.0
 11
1966.41148248628
 21
-2199.48374843597
 31
0.0
  0
LINE
  5
155
330
1F
100
AcDbEntity
  8
1
  6
Continuous
 62
     7
100
AcDbLine
 10
7829.03899812699
 20
-2199.48374843597
 30
0.0
 11
8332.57165467811
 21
-2199.48374843597
 31
0.0
  0
LINE
  5
156
330
1F
100
AcDbEntity
  8
0
  6
Continuous
 62
     7
100
AcDbLine
 10
9151.03899812699
 20
-2585.94218349456
 30
0.0
 11
7831.03884553909
 21
-2585.94218349456
 31
0.0
  0
LINE
  5
157
330
1F
100
AcDbEntity
  8
0
  6
Continuous
 62
     7
100
AcDbLine
 10
9171.03850221634
 20
-2723.07673549652
 30
0.0
 11
7831.03884553909
 21
-2723.07673549652
 31
0.0
  0
LINE
  5
158
330
1F
100
AcDbEntity
  8
0
  6
Continuous
 62
     7
100
AcDbLine
 10
9151.03899812699
 20
-2239.48374843597
 30
0.0
 11
9151.03899812699
 21
-2723.07673549652
 31
0.0
  0
LINE
  5
159
330
1F
100
AcDbEntity
  8
0
  6
Continuous
 62
     5
100
AcDbLine
 10
8925.03880739212
 20
-2749.48111629486
 30
0.0
 11
8925.03880739212
 21
-2889.48050594329
 31
0.0
  0
LINE
  5
15A
330
1F
100
AcDbEntity
  8
0
  6
Continuous
 62
     5
100
AcDbLine
 10
8895.03907442093
 20
-2749.48111629486
 30
0.0
 11
8925.03880739212
 21
-2749.48111629486
 31
0.0
  0
LINE
  5
15B
330
1F
100
AcDbEntity
  8
0
  6
Continuous
 62
     5
100
AcDbLine
 10
8895.03907442093
 20
-2889.48050594329
 30
0.0
 11
8895.03907442093
 21
-2749.48111629486
 31
0.0
  0
LINE
  5
15C
330
1F
100
AcDbEntity
  8
0
  6
Continuous
 62
     5
100
AcDbLine
 10
8925.03880739212
 20
-2889.48050594329
 30
0.0
 11
8895.03907442093
 21
-2889.48050594329
 31
0.0
  0
LINE
  5
15D
330
1F
100
AcDbEntity
  8
0
  6
Continuous
 62
     7
100
AcDbLine
 10
9171.03850221634
 20
-2723.07673549652
 30
0.0
 11
9171.03850221634
 21
-2239.48279476165
 31
0.0
  0
LINE
  5
15E
330
1F
100
AcDbEntity
  8
1
  6
Continuous
 62
     7
100
AcDbLine
 10
9187.97541741942
 20
-2516.32190944079
 30
0.0
 11
9267.35775615122
 21
-2239.48279476165
 31
0.0
  0
LINE
  5
15F
330
1F
100
AcDbEntity
  8
1
  6
Continuous
 62
     7
100
AcDbLine
 10
9191.03899812699
 20
-2199.48374843597
 30
0.0
 11
9224.07314774705
 21
-2199.48374843597
 31
0.0
  0
LINE
  5
160
330
1F
100
AcDbEntity
  8
1
  6
Continuous
 62
     7
100
AcDbLine
 10
9186.03850221634
 20
-2723.07673549652
 30
0.0
 11
9171.03850221634
 21
-2723.07673549652
 31
0.0
  0
LINE
  5
161
330
1F
100
AcDbEntity
  8
1
  6
Continuous
 62
     7
100
AcDbLine
 10
9186.03850221634
 20
-2530.10377723164
 30
0.0
 11
9186.03850221634
 21
-2723.07673549652
 31
0.0
  0
LINE
  5
162
330
1F
100
AcDbEntity
  8
1
  6
Continuous
 62
     7
100
AcDbLine
 10
9171.03850221634
 20
-2239.48279476165
 30
0.0
 11
9267.35775615122
 21
-2239.48279476165
 31
0.0
  0
LINE
  5
163
330
1F
100
AcDbEntity
  8
1
  6
Continuous
 62
     7
100
AcDbLine
 10
6874.71993492697
 20
-2239.48279476165
 30
0.0
 11
6971.03918886185
 21
-2239.48279476165
 31
0.0
  0
LINE
  5
164
330
1F
100
AcDbEntity
  8
1
  6
Continuous
 62
     7
100
AcDbLine
 10
6956.03918886185
 20
-2723.07673549652
 30
0.0
 11
6956.03918886185
 21
-2530.10377723164
 31
0.0
  0
LINE
  5
165
330
1F
100
AcDbEntity
  8
1
  6
Continuous
 62
     7
100
AcDbLine
 10
6971.03918886185
 20
-2723.07673549652
 30
0.0
 11
6956.03918886185
 21
-2723.07673549652
 31
0.0
  0
LINE
  5
166
330
1F
100
AcDbEntity
  8
1
  6
Continuous
 62
     7
100
AcDbLine
 10
6918.00454333114
 20
-2199.48374843597
 30
0.0
 11
6951.0386929512
 21
-2199.48374843597
 31
0.0
  0
LINE
  5
167
330
1F
100
AcDbEntity
  8
1
  6
Continuous
 62
     7
100
AcDbLine
 10
6874.71993492697
 20
-2239.48279476165
 30
0.0
 11
6954.10227365877
 21
-2516.32190944079
 31
0.0
  0
LINE
  5
168
330
1F
100
AcDbEntity
  8
0
  6
Continuous
 62
     7
100
AcDbLine
 10
6971.03918886185
 20
-2239.48279476165
 30
0.0
 11
6971.03918886185
 21
-2723.07673549652
 31
0.0
  0
LINE
  5
169
330
1F
100
AcDbEntity
  8
0
  6
Continuous
 62
     5
100
AcDbLine
 10
7247.03861665726
 20
-2889.48050594329
 30
0.0
 11
7217.03888368606
 21
-2889.48050594329
 31
0.0
  0
LINE
  5
16A
330
1F
100
AcDbEntity
  8
0
  6
Continuous
 62
     5
100
AcDbLine
 10
7247.03861665726
 20
-2749.48111629486
 30
0.0
 11
7247.03861665726
 21
-2889.48050594329
 31
0.0
  0
LINE
  5
16B
330
1F
100
AcDbEntity
  8
0
  6
Continuous
 62
     5
100
AcDbLine
 10
7217.03888368606
 20
-2749.48111629486
 30
0.0
 11
7247.03861665726
 21
-2749.48111629486
 31
0.0
  0
LINE
  5
16C
330
1F
100
AcDbEntity
  8
0
  6
Continuous
 62
     5
100
AcDbLine
 10
7217.03888368606
 20
-2889.48050594329
 30
0.0
 11
7217.03888368606
 21
-2749.48111629486
 31
0.0
  0
LINE
  5
16D
330
1F
100
AcDbEntity
  8
0
  6
Continuous
 62
     1
100
AcDbLine
 10
8071.03884553909
 20
-2513.12914943695
 30
0.0
 11
8071.03884553909
 21
-2723.07673549652
 31
0.0
  0
LINE
  5
16E
330
1F
100
AcDbEntity
  8
0
  6
Continuous
 62
     7
100
AcDbLine
 10
7831.03884553909
 20
-2723.07673549652
 30
0.0
 11
6971.03918886185
 21
-2723.07673549652
 31
0.0
  0
LINE
  5
16F
330
1F
100
AcDbEntity
  8
0
  6
Continuous
 62
     7
100
AcDbLine
 10
7831.03884553909
 20
-2585.94218349456
 30
0.0
 11
6991.0386929512
 21
-2585.94218349456
 31
0.0
  0
LINE
  5
170
330
1F
100
AcDbEntity
  8
0
  6
Continuous
 62
     7
100
AcDbLine
 10
6991.0386929512
 20
-2723.07673549652
 30
0.0
 11
6991.0386929512
 21
-2239.48374843597
 31
0.0
  0
LINE
  5
171
330
1F
100
AcDbEntity
  8
1
  6
Continuous
 62
     7
100
AcDbLine
 10
951.038692951204
 20
-2199.48374843597
 30
0.0
 11
1066.81419858764
 21
-2199.48374843597
 31
0.0
  0
LINE
  5
172
330
1F
100
AcDbEntity
  8
1
  6
Continuous
 62
     7
100
AcDbLine
 10
2636.44054665199
 20
-2199.48374843597
 30
0.0
 11
2711.03899812699
 21
-2199.48374843597
 31
0.0
  0
LINE
  5
173
330
1F
100
AcDbEntity
  8
1
  6
Continuous
 62
     7
100
AcDbLine
 10
4795.7379403284
 20
-2199.48374843597
 30
0.0
 11
4833.0386929512
 21
-2199.48374843597
 31
0.0
  0
LINE
  5
174
330
1F
100
AcDbEntity
  8
1
  6
Continuous
 62
     7
100
AcDbLine
 10
5818.39305230166
 20
-2199.48374843597
 30
0.0
 11
5951.03899812699
 21
-2199.48374843597
 31
0.0
  0
LINE
  5
175
330
1F
100
AcDbEntity
  8
1
  6
Continuous
 62
     7
100
AcDbLine
 10
6951.0386929512
 20
-2199.48374843597
 30
0.0
 11
7169.62015655713
 21
-2199.48374843597
 31
0.0
  0
LINE
  5
176
330
1F
100
AcDbEntity
  8
1
  6
Continuous
 62
     7
100
AcDbLine
 10
9002.60071884382
 20
-2199.48374843597
 30
0.0
 11
9191.03899812699
 21
-2199.48374843597
 31
0.0
  0
LINE
  5
177
330
1F
100
AcDbEntity
  8
1
  6
Continuous
 62
     7
100
AcDbLine
 10
-2008.9613070488
 20
-2320.80531084335
 30
0.0
 11
-1938.9611544609
 21
-2513.12914943695
 31
0.0
  0
LINE
  5
178
330
1F
100
AcDbEntity
  8
1
  6
Continuous
 62
     7
100
AcDbLine
 10
-638.961154460905
 20
-2513.12914943695
 30
0.0
 11
-568.961001873014
 21
-2320.80531084335
 31
0.0
  0
LINE
  5
179
330
1F
100
AcDbEntity
  8
1
  6
Continuous
 62
     7
100
AcDbLine
 10
991.038692951204
 20
-2320.80531084335
 30
0.0
 11
1061.0388455391
 21
-2513.12914943695
 31
0.0
  0
LINE
  5
17A
330
1F
100
AcDbEntity
  8
1
  6
Continuous
 62
     7
100
AcDbLine
 10
2601.03884553909
 20
-2513.12914943695
 30
0.0
 11
2671.03899812699
 21
-2320.80531084335
 31
0.0
  0
LINE
  5
17B
330
1F
100
AcDbEntity
  8
1
  6
Continuous
 62
     7
100
AcDbLine
 10
7211.03918886185
 20
-2723.07673549652
 30
0.0
 11
7196.03918886185
 21
-2723.07673549652
 31
0.0
  0
LINE
  5
17C
330
1F
100
AcDbEntity
  8
0
  6
Continuous
 62
     5
100
AcDbLine
 10
7487.03861665726
 20
-2889.48050594329
 30
0.0
 11
7457.03888368606
 21
-2889.48050594329
 31
0.0
  0
LINE
  5
17D
330
1F
100
AcDbEntity
  8
0
  6
Continuous
 62
     5
100
AcDbLine
 10
7487.03861665726
 20
-2749.48111629486
 30
0.0
 11
7487.03861665726
 21
-2889.48050594329
 31
0.0
  0
LINE
  5
17E
330
1F
100
AcDbEntity
  8
0
  6
Continuous
 62
     5
100
AcDbLine
 10
7457.03888368606
 20
-2749.48111629486
 30
0.0
 11
7487.03861665726
 21
-2749.48111629486
 31
0.0
  0
LINE
  5
17F
330
1F
100
AcDbEntity
  8
0
  6
Continuous
 62
     5
100
AcDbLine
 10
7457.03888368606
 20
-2889.48050594329
 30
0.0
 11
7457.03888368606
 21
-2749.48111629486
 31
0.0
  0
LINE
  5
180
330
1F
100
AcDbEntity
  8
1
  6
Continuous
 62
     7
100
AcDbLine
 10
3991.0386929512
 20
-2320.80531084335
 30
0.0
 11
4061.03884553909
 21
-2513.12914943695
 31
0.0
  0
LINE
  5
181
330
1F
100
AcDbEntity
  8
1
  6
Continuous
 62
     7
100
AcDbLine
 10
6991.0386929512
 20
-2320.80531084335
 30
0.0
 11
7061.03884553909
 21
-2513.12914943695
 31
0.0
  0
LINE
  5
182
330
1F
100
AcDbEntity
  8
1
  6
Continuous
 62
     7
100
AcDbLine
 10
5841.03884553909
 20
-2513.12914943695
 30
0.0
 11
5911.03899812699
 21
-2320.80531084335
 31
0.0
  0
LINE
  5
183
330
1F
100
AcDbEntity
  8
1
  6
Continuous
 62
     7
100
AcDbLine
 10
9081.03884553909
 20
-2513.12914943695
 30
0.0
 11
9151.03899812699
 21
-2320.80531084335
 31
0.0
  0
LINE
  5
184
330
1F
100
AcDbEntity
  8
1
  6
Continuous
 62
     1
100
AcDbLine
 10
12350.6943217956
 20
-477.6687383651588
 30
0.0
 11
12350.6943217956
 21
-547.6687383651588
 31
0.0
  0
LINE
  5
185
330
1F
100
AcDbEntity
  8
1
  6
Continuous
 62
     1
100
AcDbLine
 10
12030.6943221492
 20
-477.6687383651588
 30
0.0
 11
12030.6943221492
 21
-547.6687383651588
 31
0.0
  0
LINE
  5
186
330
1F
100
AcDbEntity
  8
1
  6
Continuous
 62
     7
100
AcDbLine
 10
11740.6943221492
 20
-689.899746417992
 30
0.0
 11
11740.6943221492
 21
-547.6687383651588
 31
0.0
  0
LINE
  5
187
330
1F
100
AcDbEntity
  8
1
  6
Continuous
 62
     7
100
AcDbLine
 10
12640.6943217956
 20
-689.899746417992
 30
0.0
 11
11740.6943221492
 21
-689.899746417992
 31
0.0
  0
LINE
  5
188
330
1F
100
AcDbEntity
  8
1
  6
Continuous
 62
     7
100
AcDbLine
 10
12640.6943217956
 20
-547.6687383651588
 30
0.0
 11
12640.6943217956
 21
-689.899746417992
 31
0.0
  0
LINE
  5
189
330
1F
100
AcDbEntity
  8
1
  6
Continuous
 62
     7
100
AcDbLine
 10
11740.6943221492
 20
-547.6687383651588
 30
0.0
 11
12640.6943217956
 21
-547.6687383651588
 31
0.0
  0
LINE
  5
18A
330
1F
100
AcDbEntity
  8
1
  6
Continuous
 62
     7
100
AcDbLine
 10
11740.6943221492
 20
-547.6687383651588
 30
0.0
 11
11740.6943221492
 21
-477.6687383651588
 31
0.0
  0
LINE
  5
18B
330
1F
100
AcDbEntity
  8
1
  6
Continuous
 62
     7
100
AcDbLine
 10
12640.6943217956
 20
-477.6687383651588
 30
0.0
 11
12640.6943217956
 21
-547.6687383651588
 31
0.0
  0
LINE
  5
18C
330
1F
100
AcDbEntity
  8
1
  6
Continuous
 62
     7
100
AcDbLine
 10
11740.6943221492
 20
-477.6687383651588
 30
0.0
 11
12640.6943217956
 21
-477.6687383651588
 31
0.0
  0
LINE
  5
18D
330
1F
100
AcDbEntity
  8
1
  6
Continuous
 62
     7
100
AcDbLine
 10
11356.56297286924
 20
-689.899746417992
 30
0.0
 11
11356.56297286924
 21
-547.6687383651588
 31
0.0
  0
LINE
  5
18E
330
1F
100
AcDbEntity
  8
1
  6
Continuous
 62
     7
100
AcDbLine
 10
10872.92646281792
 20
-689.899746417992
 30
0.0
 11
11356.56297286924
 21
-689.899746417992
 31
0.0
  0
LINE
  5
18F
330
1F
100
AcDbEntity
  8
1
  6
Continuous
 62
     7
100
AcDbLine
 10
10872.92646281792
 20
-547.6687383651588
 30
0.0
 11
10872.92646281792
 21
-689.899746417992
 31
0.0
  0
LINE
  5
190
330
1F
100
AcDbEntity
  8
1
  6
Continuous
 62
     7
100
AcDbLine
 10
11356.56297286924
 20
-547.6687383651588
 30
0.0
 11
11326.56297286924
 21
-547.6687383651588
 31
0.0
  0
LINE
  5
191
330
1F
100
AcDbEntity
  8
1
  6
Continuous
 62
     7
100
AcDbLine
 10
10872.92646281792
 20
-517.6687383651588
 30
0.0
 11
10872.92646281792
 21
-507.6687383651588
 31
0.0
  0
LINE
  5
192
330
1F
100
AcDbEntity
  8
1
  6
Continuous
 62
     7
100
AcDbLine
 10
11326.56297286924
 20
-547.6687383651588
 30
0.0
 11
10902.92646281792
 21
-547.6687383651588
 31
0.0
  0
LINE
  5
193
330
1F
100
AcDbEntity
  8
1
  6
Continuous
 62
     7
100
AcDbLine
 10
11356.56297286924
 20
-507.6687383651588
 30
0.0
 11
11356.56297286924
 21
-517.6687383651588
 31
0.0
  0
LINE
  5
194
330
1F
100
AcDbEntity
  8
1
  6
Continuous
 62
     7
100
AcDbLine
 10
10902.92646281792
 20
-477.6687383651588
 30
0.0
 11
11326.56297286924
 21
-477.6687383651588
 31
0.0
  0
LINE
  5
195
330
1F
100
AcDbEntity
  8
1
  6
Continuous
 62
     5
100
AcDbLine
 10
11156.75358210664
 20
-699.5069261992394
 30
0.0
 11
11186.75358210664
 21
-699.5069261992394
 31
0.0
  0
LINE
  5
196
330
1F
100
AcDbEntity
  8
1
  6
Continuous
 62
     5
100
AcDbLine
 10
11156.75358210664
 20
-729.5069261465032
 30
0.0
 11
11156.75358210664
 21
-699.5069261992394
 31
0.0
  0
LINE
  5
197
330
1F
100
AcDbEntity
  8
1
  6
Continuous
 62
     5
100
AcDbLine
 10
11353.58032137529
 20
-729.5069261465032
 30
0.0
 11
10875.92684283799
 21
-729.5069261465032
 31
0.0
  0
LINE
  5
198
330
1F
100
AcDbEntity
  8
1
  6
Continuous
 62
     5
100
AcDbLine
 10
11186.75358210664
 20
-699.5069261992394
 30
0.0
 11
11186.75358210664
 21
-729.5069261465032
 31
0.0
  0
LINE
  5
199
330
1F
100
AcDbEntity
  8
1
  6
Continuous
 62
     5
100
AcDbLine
 10
11318.75358210664
 20
-764.5069261465032
 30
0.0
 11
10910.75358210664
 21
-764.5069261465032
 31
0.0
  0
LINE
  5
19A
330
1F
100
AcDbEntity
  8
1
  6
Continuous
 62
     5
100
AcDbLine
 10
11321.75358210664
 20
-889.5069337758905
 30
0.0
 11
11321.75358210664
 21
-767.5069261465032
 31
0.0
  0
LINE
  5
19B
330
1F
100
AcDbEntity
  8
1
  6
Continuous
 62
     5
100
AcDbLine
 10
11356.53214655977
 20
-889.5069185171014
 30
0.0
 11
11321.75358210664
 21
-889.5069337758905
 31
0.0
  0
LINE
  5
19C
330
1F
100
AcDbEntity
  8
1
  6
Continuous
 62
     5
100
AcDbLine
 10
11356.58032123406
 20
-732.5078466870691
 30
0.0
 11
11356.53214655977
 21
-889.5069185171014
 31
0.0
  0
LINE
  5
19D
330
1F
100
AcDbEntity
  8
1
  6
Continuous
 62
     5
100
AcDbLine
 10
11126.75358210664
 20
-729.5069261465032
 30
0.0
 11
11156.75358210664
 21
-729.5069261465032
 31
0.0
  0
LINE
  5
19E
330
1F
100
AcDbEntity
  8
1
  6
Continuous
 62
     5
100
AcDbLine
 10
10872.97501765352
 20
-889.5069185171014
 30
0.0
 11
10872.92684297922
 21
-732.5078466870691
 31
0.0
  0
LINE
  5
19F
330
1F
100
AcDbEntity
  8
1
  6
Continuous
 62
     5
100
AcDbLine
 10
10907.75358210664
 20
-889.5069337758905
 30
0.0
 11
10872.97501765352
 21
-889.5069185171014
 31
0.0
  0
LINE
  5
1A0
330
1F
100
AcDbEntity
  8
1
  6
Continuous
 62
     5
100
AcDbLine
 10
10907.75358210664
 20
-767.5069261465032
 30
0.0
 11
10907.75358210664
 21
-889.5069337758905
 31
0.0
  0
LINE
  5
1A1
330
1F
100
AcDbEntity
  8
1
  6
Continuous
 62
     5
100
AcDbLine
 10
11042.75358210664
 20
-729.5069261465032
 30
0.0
 11
11042.75358210664
 21
-699.5069261992394
 31
0.0
  0
LINE
  5
1A2
330
1F
100
AcDbEntity
  8
1
  6
Continuous
 62
     5
100
AcDbLine
 10
11072.75358210664
 20
-699.5069261992394
 30
0.0
 11
11072.75358210664
 21
-729.5069261465032
 31
0.0
  0
LINE
  5
1A3
330
1F
100
AcDbEntity
  8
1
  6
Continuous
 62
     5
100
AcDbLine
 10
11042.75358210664
 20
-699.5069261992394
 30
0.0
 11
11072.75358210664
 21
-699.5069261992394
 31
0.0
  0
LINE
  5
1A4
330
1F
100
AcDbEntity
  8
1
  6
Continuous
 62
     5
100
AcDbLine
 10
12470.6943219724
 20
-889.4805059432911
 30
0.0
 11
12470.6943219724
 21
-731.968714714043
 31
0.0
  0
LINE
  5
1A5
330
1F
100
AcDbEntity
  8
1
  6
Continuous
 62
     5
100
AcDbLine
 10
12440.77586494115
 20
-889.4805059432911
 30
0.0
 11
12470.6943219724
 21
-889.4805059432911
 31
0.0
  0
LINE
  5
1A6
330
1F
100
AcDbEntity
  8
1
  6
Continuous
 62
     5
100
AcDbLine
 10
12440.6943219724
 20
-731.968714714043
 30
0.0
 11
12440.77586494115
 21
-889.4805059432911
 31
0.0
  0
LINE
  5
1A7
330
1F
100
AcDbEntity
  8
1
  6
Continuous
 62
     5
100
AcDbLine
 10
11940.61277900365
 20
-889.4805059432911
 30
0.0
 11
11940.6943219724
 21
-731.968714714043
 31
0.0
  0
LINE
  5
1A8
330
1F
100
AcDbEntity
  8
1
  6
Continuous
 62
     5
100
AcDbLine
 10
11910.6943219724
 20
-889.4805059432911
 30
0.0
 11
11940.61277900365
 21
-889.4805059432911
 31
0.0
  0
LINE
  5
1A9
330
1F
100
AcDbEntity
  8
1
  6
Continuous
 62
     5
100
AcDbLine
 10
11910.6943219724
 20
-731.968714714043
 30
0.0
 11
11910.6943219724
 21
-889.4805059432911
 31
0.0
  0
LINE
  5
1AA
330
1F
100
AcDbEntity
  8
1
  6
Continuous
 62
     5
100
AcDbLine
 10
11908.6943219724
 20
-729.480502015489
 30
0.0
 11
11908.6943219724
 21
-699.4804992603895
 31
0.0
  0
LINE
  5
1AB
330
1F
100
AcDbEntity
  8
1
  6
Continuous
 62
     5
100
AcDbLine
 10
11943.6943219724
 20
-729.480502015489
 30
0.0
 11
11908.6943219724
 21
-729.480502015489
 31
0.0
  0
LINE
  5
1AC
330
1F
100
AcDbEntity
  8
1
  6
Continuous
 62
     5
100
AcDbLine
 10
11908.6943219724
 20
-699.4804992603895
 30
0.0
 11
11943.6943219724
 21
-699.4804992603895
 31
0.0
  0
LINE
  5
1AD
330
1F
100
AcDbEntity
  8
1
  6
Continuous
 62
     7
100
AcDbLine
 10
11326.56297286924
 20
-547.6687383651588
 30
0.0
 11
10902.92646281792
 21
-547.6687383651588
 31
0.0
  0
LINE
  5
1AE
330
1F
100
AcDbEntity
  8
1
  6
Continuous
 62
     7
100
AcDbLine
 10
10902.92646281792
 20
-547.6687383651588
 30
0.0
 11
10872.92646281792
 21
-547.6687383651588
 31
0.0
  0
LINE
  5
1AF
330
1F
100
AcDbEntity
  8
0
  6
DASHED
 62
     1
100
AcDbLine
 10
12350.6943217956
 20
1823.746559201074
 30
0.0
 11
12350.6943217956
 21
2303.44349765778
 31
0.0
  0
LINE
  5
1B0
330
1F
100
AcDbEntity
  8
0
  6
Continuous
 62
     7
100
AcDbLine
 10
12640.6943217956
 20
1823.44349765778
 30
0.0
 11
12640.6943217956
 21
2303.44349765778
 31
0.0
  0
LINE
  5
1B1
330
1F
100
AcDbEntity
  8
0
  6
Continuous
 62
     7
100
AcDbLine
 10
11740.6943221492
 20
2303.44349765778
 30
0.0
 11
12640.6943217956
 21
2303.44349765778
 31
0.0
  0
LINE
  5
1B2
330
1F
100
AcDbEntity
  8
0
  6
Continuous
 62
     7
100
AcDbLine
 10
11740.6943221492
 20
1823.44349765778
 30
0.0
 11
12640.6943217956
 21
1823.44349765778
 31
0.0
  0
LINE
  5
1B3
330
1F
100
AcDbEntity
  8
0
  6
DASHED
 62
     1
100
AcDbLine
 10
12030.6943221492
 20
1823.746559201074
 30
0.0
 11
12030.6943221492
 21
2303.44349765778
 31
0.0
  0
LINE
  5
1B4
330
1F
100
AcDbEntity
  8
0
  6
Continuous
 62
     7
100
AcDbLine
 10
11740.6943221492
 20
1823.44349765778
 30
0.0
 11
11740.6943221492
 21
2303.44349765778
 31
0.0
  0
LINE
  5
1B5
330
1F
100
AcDbEntity
  8
0
  6
Continuous
 62
     7
100
AcDbLine
 10
6971.039665699
 20
2603.49091434479
 30
0.0
 11
6971.039665699
 21
2213.46720600129
 31
0.0
  0
LINE
  5
1B6
330
1F
100
AcDbEntity
  8
0
  6
Continuous
 62
     7
100
AcDbLine
 10
6971.039665699
 20
1823.44349765778
 30
0.0
 11
6971.039665699
 21
2213.46720600129
 31
0.0
  0
LINE
  5
1B7
330
1F
100
AcDbEntity
  8
0
  6
Continuous
 62
     7
100
AcDbLine
 10
9151.03922700882
 20
2603.49091434479
 30
0.0
 11
8761.01551866531
 21
2603.49091434479
 31
0.0
  0
LINE
  5
1B8
330
1F
100
AcDbEntity
  8
0
  6
Continuous
 62
     7
100
AcDbLine
 10
6991.01485109329
 20
2603.49091434479
 30
0.0
 11
8761.01551866531
 21
2603.49091434479
 31
0.0
  0
LINE
  5
1B9
330
1F
100
AcDbEntity
  8
0
  6
Continuous
 62
     7
100
AcDbLine
 10
7381.03855943681
 20
2672.65805149079
 30
0.0
 11
8760.90788543004
 21
2672.65805149079
 31
0.0
  0
LINE
  5
1BA
330
1F
100
AcDbEntity
  8
0
  6
Continuous
 62
     7
100
AcDbLine
 10
9171.03777742386
 20
2603.49186801911
 30
0.0
 11
9171.03825426102
 21
2213.4681596756
 31
0.0
  0
LINE
  5
1BB
330
1F
100
AcDbEntity
  8
0
  6
Continuous
 62
     7
100
AcDbLine
 10
9171.03825426102
 20
1823.4444513321
 30
0.0
 11
9171.03825426102
 21
2213.4681596756
 31
0.0
  0
LINE
  5
1BC
330
1F
100
AcDbEntity
  8
0
  6
Continuous
 62
     7
100
AcDbLine
 10
6991.0386929512
 20
1823.44349765778
 30
0.0
 11
9151.03922700882
 21
1823.44349765778
 31
0.0
  0
LINE
  5
1BD
330
1F
100
AcDbEntity
  8
0
  6
Continuous
 62
     7
100
AcDbLine
 10
6991.0386929512
 20
1823.44349765778
 30
0.0
 11
6991.0386929512
 21
2583.49093341828
 31
0.0
  0
LINE
  5
1BE
330
1F
100
AcDbEntity
  8
0
  6
Continuous
 62
     7
100
AcDbLine
 10
6991.0386929512
 20
2583.49093341828
 30
0.0
 11
9151.03922700882
 21
2583.49093341828
 31
0.0
  0
LINE
  5
1BF
330
1F
100
AcDbEntity
  8
0
  6
Continuous
 62
     7
100
AcDbLine
 10
9151.03922700882
 20
2583.49093341828
 30
0.0
 11
9151.03922700882
 21
1823.44349765778
 31
0.0
  0
LINE
  5
1C0
330
1F
100
AcDbEntity
  8
0
  6
Continuous
 62
     7
100
AcDbLine
 10
5911.03922700882
 20
2583.49093341828
 30
0.0
 11
5911.03922700882
 21
1823.44349765778
 31
0.0
  0
LINE
  5
1C1
330
1F
100
AcDbEntity
  8
0
  6
Continuous
 62
     7
100
AcDbLine
 10
3991.0386929512
 20
2583.49093341828
 30
0.0
 11
5911.03922700882
 21
2583.49093341828
 31
0.0
  0
LINE
  5
1C2
330
1F
100
AcDbEntity
  8
0
  6
Continuous
 62
     7
100
AcDbLine
 10
3991.0386929512
 20
1823.44349765778
 30
0.0
 11
3991.0386929512
 21
2583.49093341828
 31
0.0
  0
LINE
  5
1C3
330
1F
100
AcDbEntity
  8
0
  6
Continuous
 62
     7
100
AcDbLine
 10
3991.0386929512
 20
1823.44349765778
 30
0.0
 11
5911.03922700882
 21
1823.44349765778
 31
0.0
  0
LINE
  5
1C4
330
1F
100
AcDbEntity
  8
0
  6
Continuous
 62
     7
100
AcDbLine
 10
5931.03825426102
 20
1823.4444513321
 30
0.0
 11
5931.03825426102
 21
2213.4681596756
 31
0.0
  0
LINE
  5
1C5
330
1F
100
AcDbEntity
  8
0
  6
Continuous
 62
     7
100
AcDbLine
 10
5931.03777742386
 20
2603.49186801911
 30
0.0
 11
5931.03825426102
 21
2213.4681596756
 31
0.0
  0
LINE
  5
1C6
330
1F
100
AcDbEntity
  8
0
  6
Continuous
 62
     7
100
AcDbLine
 10
4381.03855943681
 20
2672.65805149079
 30
0.0
 11
5520.90788543004
 21
2672.65805149079
 31
0.0
  0
LINE
  5
1C7
330
1F
100
AcDbEntity
  8
0
  6
Continuous
 62
     7
100
AcDbLine
 10
3991.01485109329
 20
2603.49091434479
 30
0.0
 11
5521.01551866531
 21
2603.49091434479
 31
0.0
  0
LINE
  5
1C8
330
1F
100
AcDbEntity
  8
0
  6
Continuous
 62
     7
100
AcDbLine
 10
5911.03922700882
 20
2603.49091434479
 30
0.0
 11
5521.01551866531
 21
2603.49091434479
 31
0.0
  0
LINE
  5
1C9
330
1F
100
AcDbEntity
  8
0
  6
Continuous
 62
     7
100
AcDbLine
 10
3971.039665699
 20
1823.44349765778
 30
0.0
 11
3971.039665699
 21
2213.46720600129
 31
0.0
  0
LINE
  5
1CA
330
1F
100
AcDbEntity
  8
0
  6
Continuous
 62
     7
100
AcDbLine
 10
3971.039665699
 20
2603.49091434479
 30
0.0
 11
3971.039665699
 21
2213.46720600129
 31
0.0
  0
LINE
  5
1CB
330
1F
100
AcDbEntity
  8
0
  6
Continuous
 62
     7
100
AcDbLine
 10
971.039665699004
 20
2603.49091434479
 30
0.0
 11
971.039665699004
 21
2213.46720600129
 31
0.0
  0
LINE
  5
1CC
330
1F
100
AcDbEntity
  8
0
  6
Continuous
 62
     7
100
AcDbLine
 10
971.039665699004
 20
1823.44349765778
 30
0.0
 11
971.039665699004
 21
2213.46720600129
 31
0.0
  0
LINE
  5
1CD
330
1F
100
AcDbEntity
  8
0
  6
Continuous
 62
     7
100
AcDbLine
 10
2671.03922700882
 20
2603.49091434479
 30
0.0
 11
2281.01551866532
 21
2603.49091434479
 31
0.0
  0
LINE
  5
1CE
330
1F
100
AcDbEntity
  8
0
  6
Continuous
 62
     7
100
AcDbLine
 10
991.014851093294
 20
2603.49091434479
 30
0.0
 11
2281.01551866532
 21
2603.49091434479
 31
0.0
  0
LINE
  5
1CF
330
1F
100
AcDbEntity
  8
0
  6
Continuous
 62
     7
100
AcDbLine
 10
1381.0385594368
 20
2672.65805149079
 30
0.0
 11
2280.90788543004
 21
2672.65805149079
 31
0.0
  0
LINE
  5
1D0
330
1F
100
AcDbEntity
  8
0
  6
Continuous
 62
     7
100
AcDbLine
 10
2691.03777742386
 20
2603.49186801911
 30
0.0
 11
2691.03825426102
 21
2213.4681596756
 31
0.0
  0
LINE
  5
1D1
330
1F
100
AcDbEntity
  8
0
  6
Continuous
 62
     7
100
AcDbLine
 10
2691.03825426102
 20
1823.4444513321
 30
0.0
 11
2691.03825426102
 21
2213.4681596756
 31
0.0
  0
LINE
  5
1D2
330
1F
100
AcDbEntity
  8
0
  6
Continuous
 62
     7
100
AcDbLine
 10
991.038692951204
 20
1823.44349765778
 30
0.0
 11
2671.03922700882
 21
1823.44349765778
 31
0.0
  0
LINE
  5
1D3
330
1F
100
AcDbEntity
  8
0
  6
Continuous
 62
     7
100
AcDbLine
 10
991.038692951204
 20
1823.44349765778
 30
0.0
 11
991.038692951204
 21
2583.49093341828
 31
0.0
  0
LINE
  5
1D4
330
1F
100
AcDbEntity
  8
0
  6
Continuous
 62
     7
100
AcDbLine
 10
991.038692951204
 20
2583.49093341828
 30
0.0
 11
2671.03922700882
 21
2583.49093341828
 31
0.0
  0
LINE
  5
1D5
330
1F
100
AcDbEntity
  8
0
  6
Continuous
 62
     7
100
AcDbLine
 10
2671.03922700882
 20
2583.49093341828
 30
0.0
 11
2671.03922700882
 21
1823.44349765778
 31
0.0
  0
LINE
  5
1D6
330
1F
100
AcDbEntity
  8
0
  6
Continuous
 62
     7
100
AcDbLine
 10
-568.960772991176
 20
2583.49093341828
 30
0.0
 11
-568.960772991176
 21
1823.44349765778
 31
0.0
  0
LINE
  5
1D7
330
1F
100
AcDbEntity
  8
0
  6
Continuous
 62
     7
100
AcDbLine
 10
-2008.9613070488
 20
2583.49093341828
 30
0.0
 11
-568.960772991176
 21
2583.49093341828
 31
0.0
  0
LINE
  5
1D8
330
1F
100
AcDbEntity
  8
0
  6
Continuous
 62
     7
100
AcDbLine
 10
-2008.9613070488
 20
1823.44349765778
 30
0.0
 11
-2008.9613070488
 21
2583.49093341828
 31
0.0
  0
LINE
  5
1D9
330
1F
100
AcDbEntity
  8
0
  6
Continuous
 62
     7
100
AcDbLine
 10
-2008.9613070488
 20
1823.44349765778
 30
0.0
 11
-568.960772991176
 21
1823.44349765778
 31
0.0
  0
LINE
  5
1DA
330
1F
100
AcDbEntity
  8
0
  6
Continuous
 62
     7
100
AcDbLine
 10
-548.961745738976
 20
1823.4444513321
 30
0.0
 11
-548.961745738976
 21
2213.4681596756
 31
0.0
  0
LINE
  5
1DB
330
1F
100
AcDbEntity
  8
0
  6
Continuous
 62
     7
100
AcDbLine
 10
-548.962222576136
 20
2603.49186801911
 30
0.0
 11
-548.961745738976
 21
2213.4681596756
 31
0.0
  0
LINE
  5
1DC
330
1F
100
AcDbEntity
  8
0
  6
Continuous
 62
     7
100
AcDbLine
 10
-1618.9614405632
 20
2672.65805149079
 30
0.0
 11
-958.984481334685
 21
2672.65805149079
 31
0.0
  0
LINE
  5
1DD
330
1F
100
AcDbEntity
  8
0
  6
Continuous
 62
     7
100
AcDbLine
 10
-2008.98514890671
 20
2603.49091434479
 30
0.0
 11
-958.984481334685
 21
2603.49091434479
 31
0.0
  0
LINE
  5
1DE
330
1F
100
AcDbEntity
  8
0
  6
Continuous
 62
     7
100
AcDbLine
 10
-568.960772991176
 20
2603.49091434479
 30
0.0
 11
-958.984481334685
 21
2603.49091434479
 31
0.0
  0
LINE
  5
1DF
330
1F
100
AcDbEntity
  8
0
  6
Continuous
 62
     7
100
AcDbLine
 10
-2028.960334301
 20
1823.44349765778
 30
0.0
 11
-2028.960334301
 21
2213.46720600129
 31
0.0
  0
LINE
  5
1E0
330
1F
100
AcDbEntity
  8
0
  6
Continuous
 62
     7
100
AcDbLine
 10
-2028.960334301
 20
2603.49091434479
 30
0.0
 11
-2028.960334301
 21
2213.46720600129
 31
0.0
  0
LINE
  5
1E1
330
1F
100
AcDbEntity
  8
1
  6
Continuous
 62
     1
100
AcDbLine
 10
-1288.96104001999
 20
2583.49093341828
 30
0.0
 11
-1288.96104001999
 21
1823.44349765778
 31
0.0
  0
LINE
  5
1E2
330
1F
100
AcDbEntity
  8
1
  6
Continuous
 62
     1
100
AcDbLine
 10
1831.03895998001
 20
2583.49093341828
 30
0.0
 11
1831.03895998001
 21
1823.44349765778
 31
0.0
  0
LINE
  5
1E3
330
1F
100
AcDbEntity
  8
1
  6
Continuous
 62
     1
100
AcDbLine
 10
4951.03895998001
 20
2583.49093341828
 30
0.0
 11
4951.03895998001
 21
1823.44349765778
 31
0.0
  0
LINE
  5
1E4
330
1F
100
AcDbEntity
  8
1
  6
Continuous
 62
     1
100
AcDbLine
 10
8071.03895998001
 20
2583.49093341828
 30
0.0
 11
8071.03895998001
 21
1823.44349765778
 31
0.0
  0
LINE
  5
1E5
330
1F
100
AcDbEntity
  8
0
  6
Continuous
 62
     7
100
AcDbLine
 10
-3112.8898495895
 20
-723.076735496524
 30
0.0
 11
-3882.8864926559
 21
-723.075781822214
 31
0.0
  0
LINE
  5
1E6
330
1F
100
AcDbEntity
  8
0
  6
Continuous
 62
     7
100
AcDbLine
 10
-3112.89083353261
 20
-239.483748435973
 30
0.0
 11
-3112.8901014859
 21
-723.076735496524
 31
0.0
  0
LINE
  5
1E7
330
1F
100
AcDbEntity
  8
0
  6
Continuous
 62
     7
100
AcDbLine
 10
-3882.88840000453
 20
-723.076735496524
 30
0.0
 11
-3882.88840000453
 21
-530.103606777784
 31
0.0
  0
LINE
  5
1E8
330
1F
100
AcDbEntity
  8
0
  6
Continuous
 62
     1
100
AcDbLine
 10
-3305.39066580813
 20
-723.076735496524
 30
0.0
 11
-3305.38993376086
 21
-239.483748435973
 31
0.0
  0
LINE
  5
1E9
330
1F
100
AcDbEntity
  8
0
  6
Continuous
 62
     1
100
AcDbLine
 10
-3497.88982657565
 20
-723.076735496524
 30
0.0
 11
-3497.88909452894
 21
-239.483748435973
 31
0.0
  0
LINE
  5
1EA
330
1F
100
AcDbEntity
  8
0
  6
Continuous
 62
     1
100
AcDbLine
 10
-3690.38898734225
 20
-723.076735496524
 30
0.0
 11
-3690.38825529554
 21
-239.483748435973
 31
0.0
  0
LINE
  5
1EB
330
1F
100
AcDbEntity
  8
1
  6
Continuous
 62
     7
100
AcDbLine
 10
-3884.8252230618
 20
-516.322060341623
 30
0.0
 11
-3964.20532844648
 21
-239.483748435973
 31
0.0
  0
LINE
  5
1EC
330
1F
100
AcDbEntity
  8
0
  6
Continuous
 62
     7
100
AcDbLine
 10
-3882.88840000453
 20
-523.076735496524
 30
0.0
 11
-3882.88840000453
 21
-239.483748435973
 31
0.0
  0
LINE
  5
1ED
330
1F
100
AcDbEntity
  8
1
  6
Continuous
 62
     5
100
AcDbLine
 10
-3882.88840000453
 20
-749.481116294864
 30
0.0
 11
-3112.89022467773
 21
-749.481116294864
 31
0.0
  0
LINE
  5
1EE
330
1F
100
AcDbEntity
  8
1
  6
Continuous
 62
     5
100
AcDbLine
 10
-3112.89022467773
 20
-749.481116294864
 30
0.0
 11
-3112.89022467773
 21
-889.480505943294
 31
0.0
  0
LINE
  5
1EF
330
1F
100
AcDbEntity
  8
1
  6
Continuous
 62
     5
100
AcDbLine
 10
-3112.89022467773
 20
-889.480505943294
 30
0.0
 11
-3142.89022467773
 21
-889.480505943294
 31
0.0
  0
LINE
  5
1F0
330
1F
100
AcDbEntity
  8
1
  6
Continuous
 62
     5
100
AcDbLine
 10
-3142.89022467773
 20
-889.480505943294
 30
0.0
 11
-3142.89022467773
 21
-779.481116294864
 31
0.0
  0
LINE
  5
1F1
330
1F
100
AcDbEntity
  8
1
  6
Continuous
 62
     5
100
AcDbLine
 10
-3142.89022467773
 20
-779.481116294864
 30
0.0
 11
-3852.88840000453
 21
-779.481116294864
 31
0.0
  0
LINE
  5
1F2
330
1F
100
AcDbEntity
  8
1
  6
Continuous
 62
     5
100
AcDbLine
 10
-3852.88840000453
 20
-779.481116294864
 30
0.0
 11
-3852.88840000453
 21
-889.480505943294
 31
0.0
  0
LINE
  5
1F3
330
1F
100
AcDbEntity
  8
1
  6
Continuous
 62
     5
100
AcDbLine
 10
-3852.88840000453
 20
-889.480505943294
 30
0.0
 11
-3882.88840000453
 21
-889.480505943294
 31
0.0
  0
LINE
  5
1F4
330
1F
100
AcDbEntity
  8
1
  6
Continuous
 62
     5
100
AcDbLine
 10
-3882.88840000453
 20
-749.481116294864
 30
0.0
 11
-3882.88840000453
 21
-889.480505943294
 31
0.0
  0
LINE
  5
1F5
330
1F
100
AcDbEntity
  8
0
  6
Continuous
 62
     7
100
AcDbLine
 10
-3882.8864926559
 20
-239.483390808251
 30
0.0
 11
-3112.89080326381
 21
-239.483867645411
 31
0.0
  0
LINE
  5
1F6
330
1F
100
AcDbEntity
  8
1
  6
Continuous
 62
     7
100
AcDbLine
 10
-3882.88840000453
 20
-239.482913971091
 30
0.0
 11
-3964.20539555356
 21
-239.483514399863
 31
0.0
  0
LINE
  5
1F7
330
1F
100
AcDbEntity
  8
1
  6
Continuous
 62
     7
100
AcDbLine
 10
-3862.88840000453
 20
-199.483748435973
 30
0.0
 11
-3835.30862365562
 21
-199.483748435973
 31
0.0
  0
LINE
  5
1F8
330
1F
100
AcDbEntity
  8
1
  6
Continuous
 62
     7
100
AcDbLine
 10
-3112.89083353261
 20
-219.483748435973
 30
0.0
 11
-3112.89083353261
 21
-239.483748435973
 31
0.0
  0
LINE
  5
1F9
330
1F
100
AcDbEntity
  8
1
  6
Continuous
 62
     7
100
AcDbLine
 10
-3112.89083353261
 20
-239.483748435973
 30
0.0
 11
-3882.88840000453
 21
-239.483748435973
 31
0.0
  0
LINE
  5
1FA
330
1F
100
AcDbEntity
  8
1
  6
Continuous
 62
     7
100
AcDbLine
 10
-3882.88840000453
 20
-239.483748435973
 30
0.0
 11
-3882.88840000453
 21
-219.483748435973
 31
0.0
  0
LINE
  5
1FB
330
1F
100
AcDbEntity
  8
1
  6
Continuous
 62
     7
100
AcDbLine
 10
-3947.56056938377
 20
-239.483748435973
 30
0.0
 11
-3951.71465433101
 21
-224.996367010438
 31
0.0
  0
LINE
  5
1FC
330
1F
100
AcDbEntity
  8
1
  6
Continuous
 62
     7
100
AcDbLine
 10
-3923.12670658115
 20
-199.483748435973
 30
0.0
 11
-3932.48938355392
 21
-199.483748435973
 31
0.0
  0
LINE
  5
1FD
330
1F
100
AcDbEntity
  8
1
  6
Continuous
 62
     7
100
AcDbLine
 10
-3923.12670658115
 20
-199.483748435973
 30
0.0
 11
-3919.10118364655
 21
-199.483748435973
 31
0.0
  0
LINE
  5
1FE
330
1F
100
AcDbEntity
  8
1
  6
Continuous
 62
     7
100
AcDbLine
 10
-3902.17318091319
 20
-208.832799020093
 30
0.0
 11
-3882.88840000453
 21
-239.482913971091
 31
0.0
  0
LINE
  5
1FF
330
1F
100
AcDbEntity
  8
1
  6
Continuous
 62
     7
100
AcDbLine
 10
-3929.90601080732
 20
-14.8066852333959
 30
0.0
 11
-3910.00471538239
 21
-22.3881311095577
 31
0.0
  0
LINE
  5
200
330
1F
100
AcDbEntity
  8
1
  6
Continuous
 62
     7
100
AcDbLine
 10
-3835.30862365562
 20
-199.483748435973
 30
0.0
 11
-3132.89083353261
 21
-199.483748435973
 31
0.0
  0
LINE
  5
201
330
1F
100
AcDbEntity
  8
1
  6
Continuous
 62
     7
100
AcDbLine
 10
-3909.12194500547
 20
-34.8066852333959
 30
0.0
 11
-3910.00471538239
 21
-22.3881311095577
 31
0.0
  0
ARC
  5
202
330
1F
100
AcDbEntity
  8
1
  6
Continuous
 62
     7
100
AcDbCircle
 10
6906.03918886185
 20
-530.103777231643
 30
0.0
 40
50.0
100
AcDbArc
 50
0.0
 51
15.99999999999862
  0
ARC
  5
203
330
1F
100
AcDbEntity
  8
1
  6
Continuous
 62
     7
100
AcDbCircle
 10
9236.03850221634
 20
-530.103777231643
 30
0.0
 40
50.00000000000266
100
AcDbArc
 50
164.0000000000008
 51
180.0
  0
ARC
  5
204
330
1F
100
AcDbEntity
  8
1
  6
Continuous
 62
     7
100
AcDbCircle
 10
2756.03850221634
 20
-530.103777231643
 30
0.0
 40
50.00000000000398
100
AcDbArc
 50
164.0000000000013
 51
180.0
  0
ARC
  5
205
330
1F
100
AcDbEntity
  8
1
  6
Continuous
 62
     7
100
AcDbCircle
 10
906.039188861854
 20
-530.103777231643
 30
0.0
 40
50.0
100
AcDbArc
 50
0.0
 51
16.00000000000005
  0
ARC
  5
206
330
1F
100
AcDbEntity
  8
1
  6
Continuous
 62
     7
100
AcDbCircle
 10
5996.03850221634
 20
-530.103777231643
 30
0.0
 40
50.00000000000355
100
AcDbArc
 50
164.0000000000011
 51
180.0
  0
ARC
  5
207
330
1F
100
AcDbEntity
  8
1
  6
Continuous
 62
     7
100
AcDbCircle
 10
3906.03918886185
 20
-530.103777231643
 30
0.0
 40
50.0
100
AcDbArc
 50
0.0
 51
15.99999999999876
  0
ARC
  5
208
330
1F
100
AcDbEntity
  8
1
  6
Continuous
 62
     7
100
AcDbCircle
 10
-2093.96081113815
 20
-530.103777231643
 30
0.0
 40
50.0
100
AcDbArc
 50
0.0
 51
15.99999999999883
  0
ARC
  5
209
330
1F
100
AcDbEntity
  8
1
  6
Continuous
 62
     7
100
AcDbCircle
 10
-483.961497783664
 20
-530.103777231643
 30
0.0
 40
50.0000000000001
100
AcDbArc
 50
164.0
 51
180.0
  0
ARC
  5
20A
330
1F
100
AcDbEntity
  8
1
  6
Continuous
 62
     7
100
AcDbCircle
 10
6918.00454333114
 20
-229.483748435973
 30
0.0
 40
30.0
100
AcDbArc
 50
90.0
 51
199.4692887767627
  0
ARC
  5
20B
330
1F
100
AcDbEntity
  8
1
  6
Continuous
 62
     7
100
AcDbCircle
 10
6951.0386929512
 20
-239.483748435973
 30
0.0
 40
40.0
100
AcDbArc
 50
0.0
 51
90.0
  0
ARC
  5
20C
330
1F
100
AcDbEntity
  8
1
  6
Continuous
 62
     7
100
AcDbCircle
 10
9191.03899812699
 20
-239.483748435973
 30
0.0
 40
40.0
100
AcDbArc
 50
90.0
 51
180.0
  0
ARC
  5
20D
330
1F
100
AcDbEntity
  8
1
  6
Continuous
 62
     7
100
AcDbCircle
 10
9224.07314774705
 20
-229.483748435973
 30
0.0
 40
30.0000000000042
100
AcDbArc
 50
340.5307112232367
 51
90.0
  0
ARC
  5
20E
330
1F
100
AcDbEntity
  8
1
  6
Continuous
 62
     7
100
AcDbCircle
 10
2744.07314774705
 20
-229.483748435973
 30
0.0
 40
30.00000000000591
100
AcDbArc
 50
340.5307112232378
 51
90.0
  0
ARC
  5
20F
330
1F
100
AcDbEntity
  8
1
  6
Continuous
 62
     7
100
AcDbCircle
 10
2711.03899812699
 20
-239.483748435973
 30
0.0
 40
40.0
100
AcDbArc
 50
90.0
 51
180.0
  0
ARC
  5
210
330
1F
100
AcDbEntity
  8
1
  6
Continuous
 62
     7
100
AcDbCircle
 10
951.038692951204
 20
-239.483748435973
 30
0.0
 40
40.0
100
AcDbArc
 50
0.0
 51
90.0
  0
ARC
  5
211
330
1F
100
AcDbEntity
  8
1
  6
Continuous
 62
     7
100
AcDbCircle
 10
918.004543331137
 20
-229.483748435973
 30
0.0
 40
30.0
100
AcDbArc
 50
90.0
 51
199.4692887767661
  0
ARC
  5
212
330
1F
100
AcDbEntity
  8
1
  6
Continuous
 62
     7
100
AcDbCircle
 10
5984.07314774705
 20
-229.483748435973
 30
0.0
 40
30.00000000000591
100
AcDbArc
 50
340.5307112232378
 51
90.0
  0
ARC
  5
213
330
1F
100
AcDbEntity
  8
1
  6
Continuous
 62
     7
100
AcDbCircle
 10
5951.03899812699
 20
-239.483748435973
 30
0.0
 40
40.0
100
AcDbArc
 50
90.0
 51
180.0
  0
ARC
  5
214
330
1F
100
AcDbEntity
  8
1
  6
Continuous
 62
     7
100
AcDbCircle
 10
3951.0386929512
 20
-239.483748435973
 30
0.0
 40
40.0
100
AcDbArc
 50
0.0
 51
90.0
  0
ARC
  5
215
330
1F
100
AcDbEntity
  8
1
  6
Continuous
 62
     7
100
AcDbCircle
 10
3918.00454333114
 20
-229.483748435973
 30
0.0
 40
30.0
100
AcDbArc
 50
90.0
 51
199.4692887767621
  0
ARC
  5
216
330
1F
100
AcDbEntity
  8
1
  6
Continuous
 62
     7
100
AcDbCircle
 10
-2048.9613070488
 20
-239.483748435973
 30
0.0
 40
39.99999999999977
100
AcDbArc
 50
0.0
 51
90.0
  0
ARC
  5
217
330
1F
100
AcDbEntity
  8
1
  6
Continuous
 62
     7
100
AcDbCircle
 10
-528.961001873014
 20
-239.483748435973
 30
0.0
 40
40.0
100
AcDbArc
 50
90.0
 51
180.0
  0
ARC
  5
218
330
1F
100
AcDbEntity
  8
1
  6
Continuous
 62
     7
100
AcDbCircle
 10
-495.926852252947
 20
-229.483748435973
 30
0.0
 40
30.00000000000002
100
AcDbArc
 50
340.5307112232339
 51
90.0
  0
ARC
  5
219
330
1F
100
AcDbEntity
  8
1
  6
Continuous
 62
     7
100
AcDbCircle
 10
-2081.99545666886
 20
-229.483748435973
 30
0.0
 40
30.0
100
AcDbArc
 50
90.0
 51
199.4692887767621
  0
ARC
  5
21A
330
1F
100
AcDbEntity
  8
1
  6
Continuous
 62
     7
100
AcDbCircle
 10
-483.961497783664
 20
-2530.10377723164
 30
0.0
 40
50.00000000000007
100
AcDbArc
 50
164.0000000000001
 51
180.0
  0
ARC
  5
21B
330
1F
100
AcDbEntity
  8
1
  6
Continuous
 62
     7
100
AcDbCircle
 10
-2093.96081113815
 20
-2530.10377723164
 30
0.0
 40
50.0
100
AcDbArc
 50
0.0
 51
15.99999999999871
  0
ARC
  5
21C
330
1F
100
AcDbEntity
  8
1
  6
Continuous
 62
     7
100
AcDbCircle
 10
3906.03918886185
 20
-2530.10377723164
 30
0.0
 40
50.0
100
AcDbArc
 50
0.0
 51
15.99999999999864
  0
ARC
  5
21D
330
1F
100
AcDbEntity
  8
1
  6
Continuous
 62
     7
100
AcDbCircle
 10
5996.03850221634
 20
-2530.10377723164
 30
0.0
 40
50.00000000000351
100
AcDbArc
 50
164.0000000000012
 51
180.0
  0
ARC
  5
21E
330
1F
100
AcDbEntity
  8
1
  6
Continuous
 62
     7
100
AcDbCircle
 10
906.039188861854
 20
-2530.10377723164
 30
0.0
 40
50.0
100
AcDbArc
 50
0.0
 51
15.99999999999993
  0
ARC
  5
21F
330
1F
100
AcDbEntity
  8
1
  6
Continuous
 62
     7
100
AcDbCircle
 10
2756.03850221634
 20
-2530.10377723164
 30
0.0
 40
50.00000000000395
100
AcDbArc
 50
164.0000000000014
 51
180.0
  0
ARC
  5
220
330
1F
100
AcDbEntity
  8
1
  6
Continuous
 62
     7
100
AcDbCircle
 10
9236.03850221634
 20
-2530.10377723164
 30
0.0
 40
50.00000000000264
100
AcDbArc
 50
164.0000000000009
 51
180.0
  0
ARC
  5
221
330
1F
100
AcDbEntity
  8
1
  6
Continuous
 62
     7
100
AcDbCircle
 10
6906.03918886185
 20
-2530.10377723164
 30
0.0
 40
50.0
100
AcDbArc
 50
0.0
 51
15.99999999999849
  0
ARC
  5
222
330
1F
100
AcDbEntity
  8
1
  6
Continuous
 62
     1
100
AcDbCircle
 10
8983.60215164202
 20
-2507.1515106364
 30
0.0
 40
6.650000018083897
100
AcDbArc
 50
263.6748600713025
 51
24.01291739390143
  0
ARC
  5
223
330
1F
100
AcDbEntity
  8
1
  6
Continuous
 62
     1
100
AcDbCircle
 10
6703.94133902548
 20
-3522.73779525371
 30
0.0
 40
2502.299999933432
100
AcDbArc
 50
24.01291748462367
 51
25.26016597677135
  0
ARC
  5
224
330
1F
100
AcDbEntity
  8
1
  6
Continuous
 62
     7
100
AcDbCircle
 10
9118.18226799258
 20
-2383.58416798355
 30
0.0
 40
148.1999999952984
100
AcDbArc
 50
183.4727846054897
 51
205.2601659767879
  0
ARC
  5
225
330
1F
100
AcDbEntity
  8
1
  6
Continuous
 62
     7
100
AcDbCircle
 10
6703.94133902548
 20
-3522.73779525371
 30
0.0
 40
2521.299999934033
100
AcDbArc
 50
23.60517387743712
 51
25.26016597678699
  0
ARC
  5
226
330
1F
100
AcDbEntity
  8
1
  6
Continuous
 62
     7
100
AcDbCircle
 10
9063.84694312692
 20
-4787.39129321945
 30
0.0
 40
2773.049999998181
100
AcDbArc
 50
91.0497220390085
 51
100.425410579172
  0
ARC
  5
227
330
1F
100
AcDbEntity
  8
1
  6
Continuous
 62
     7
100
AcDbCircle
 10
7273.60389296829
 20
-2009.07293306011
 30
0.0
 40
1739.449999999932
100
AcDbArc
 50
347.2636363065296
 51
359.8111354766841
  0
ARC
  5
228
330
1F
100
AcDbEntity
  8
1
  6
Continuous
 62
     7
100
AcDbCircle
 10
13009.3336745568
 20
-1233.3783595584
 30
0.0
 40
4775.506529468631
100
AcDbArc
 50
190.4522778131681
 51
192.7762707511042
  0
ARC
  5
229
330
1F
100
AcDbEntity
  8
1
  6
Continuous
 62
     7
100
AcDbCircle
 10
8816.6234416296
 20
-2006.83972197655
 30
0.0
 40
512.0500002606476
100
AcDbArc
 50
180.9474734919854
 51
190.4522778131674
  0
ARC
  5
22A
330
1F
100
AcDbEntity
  8
1
  6
Continuous
 62
     7
100
AcDbCircle
 10
8189.05062140166
 20
-2948.67632664541
 30
0.0
 40
940.5000000290493
100
AcDbArc
 50
75.989067049165
 51
82.94017018401253
  0
ARC
  5
22B
330
1F
100
AcDbEntity
  8
1
  6
Continuous
 62
     7
100
AcDbCircle
 10
8636.86390631316
 20
-1154.05425388461
 30
0.0
 40
909.1499998853935
100
AcDbArc
 50
255.9890670491653
 51
265.2797159845813
  0
ARC
  5
22C
330
1F
100
AcDbEntity
  8
1
  6
Continuous
 62
     7
100
AcDbCircle
 10
8332.32767891767
 20
-2506.14033656345
 30
0.0
 40
26.59999998826035
100
AcDbArc
 50
151.1685374637515
 51
195.2325475956266
  0
ARC
  5
22D
330
1F
100
AcDbEntity
  8
1
  6
Continuous
 62
     7
100
AcDbCircle
 10
7995.27051750722
 20
-2320.60049603796
 30
0.0
 40
358.1499999861323
100
AcDbArc
 50
331.1685374637311
 51
5.18790410606998
  0
ARC
  5
22E
330
1F
100
AcDbEntity
  8
1
  6
Continuous
 62
     7
100
AcDbCircle
 10
8937.96956011744
 20
-2918.83015542906
 30
0.0
 40
407.5499999669118
100
AcDbArc
 50
83.67485987586366
 51
95.4598317580644
  0
ARC
  5
22F
330
1F
100
AcDbEntity
  8
1
  6
Continuous
 62
     1
100
AcDbCircle
 10
8983.60215164202
 20
-2507.1515106364
 30
0.0
 40
6.650000018083897
100
AcDbArc
 50
263.6748600713025
 51
24.01291739390143
  0
ARC
  5
230
330
1F
100
AcDbEntity
  8
1
  6
Continuous
 62
     1
100
AcDbCircle
 10
6703.94133902548
 20
-3522.73779525371
 30
0.0
 40
2502.299999933432
100
AcDbArc
 50
24.01291748462367
 51
25.26016597677135
  0
ARC
  5
231
330
1F
100
AcDbEntity
  8
1
  6
Continuous
 62
     1
100
AcDbCircle
 10
9118.18226799258
 20
-2383.58416798355
 30
0.0
 40
167.2000000003477
100
AcDbArc
 50
182.5156322850177
 51
205.2601659770218
  0
ARC
  5
232
330
1F
100
AcDbEntity
  8
1
  6
Continuous
 62
     1
100
AcDbCircle
 10
7273.60389296829
 20
-2009.07293306011
 30
0.0
 40
1720.4499999999
100
AcDbArc
 50
346.4557732680788
 51
358.5951591981674
  0
ARC
  5
233
330
1F
100
AcDbEntity
  8
1
  6
Continuous
 62
     1
100
AcDbCircle
 10
8685.4540125345
 20
-2189.84003513325
 30
0.0
 40
324.1170968510178
100
AcDbArc
 50
241.3049905831377
 51
274.0962810661727
  0
ARC
  5
234
330
1F
100
AcDbEntity
  8
1
  6
Continuous
 62
     1
100
AcDbCircle
 10
8332.32767891767
 20
-2506.14033656345
 30
0.0
 40
7.59999998807728
100
AcDbArc
 50
151.1685374611629
 51
274.5491436600068
  0
ARC
  5
235
330
1F
100
AcDbEntity
  8
1
  6
Continuous
 62
     1
100
AcDbCircle
 10
7995.27051750722
 20
-2320.60049603796
 30
0.0
 40
377.1499999863153
100
AcDbArc
 50
331.1685374637843
 51
5.18790410607008
  0
ARC
  5
236
330
1F
100
AcDbEntity
  8
1
  6
Continuous
 62
     1
100
AcDbCircle
 10
8329.64728082735
 20
-2042.7717279732
 30
0.0
 40
4.750000008779055
100
AcDbArc
 50
81.17806063410067
 51
184.2199770984784
  0
ARC
  5
237
330
1F
100
AcDbEntity
  8
1
  6
Continuous
 62
     1
100
AcDbCircle
 10
8816.6234416296
 20
-2006.83972197655
 30
0.0
 40
493.0500002594461
100
AcDbArc
 50
184.2199771031734
 51
190.452277812491
  0
ARC
  5
238
330
1F
100
AcDbEntity
  8
1
  6
Continuous
 62
     1
100
AcDbCircle
 10
13009.3336745568
 20
-1233.3783595584
 30
0.0
 40
4756.506529469194
100
AcDbArc
 50
190.4522778130979
 51
193.4326976612619
  0
ARC
  5
239
330
1F
100
AcDbEntity
  8
1
  6
Continuous
 62
     1
100
AcDbCircle
 10
8189.05062140166
 20
-2948.67632664541
 30
0.0
 40
921.5000000290244
100
AcDbArc
 50
75.98906704961351
 51
81.17806063396634
  0
ARC
  5
23A
330
1F
100
AcDbEntity
  8
1
  6
Continuous
 62
     1
100
AcDbCircle
 10
8636.86390631316
 20
-1154.05425388461
 30
0.0
 40
928.1499998854184
100
AcDbArc
 50
255.98906704872
 51
265.4367122541285
  0
ARC
  5
23B
330
1F
100
AcDbEntity
  8
1
  6
Continuous
 62
     1
100
AcDbCircle
 10
8977.39161786104
 20
-2050.85664394021
 30
0.0
 40
16.15000000283942
100
AcDbArc
 50
358.5951592226535
 51
91.80954338442957
  0
ARC
  5
23C
330
1F
100
AcDbEntity
  8
1
  6
Continuous
 62
     1
100
AcDbCircle
 10
9063.84694312692
 20
-4787.39129321945
 30
0.0
 40
2754.049999998381
100
AcDbArc
 50
91.80954338556006
 51
101.4284404408143
  0
ARC
  5
23D
330
1F
100
AcDbEntity
  8
1
  6
Continuous
 62
     1
100
AcDbCircle
 10
8555.74358348342
 20
-2020.95467079831
 30
0.0
 40
249.8499999963403
100
AcDbArc
 50
277.1938223031472
 51
316.887225516156
  0
ARC
  5
23E
330
1F
100
AcDbEntity
  8
1
  6
Continuous
 62
     7
100
AcDbCircle
 10
6703.94133902548
 20
-3522.73779525371
 30
0.0
 40
2521.299999934033
100
AcDbArc
 50
23.60517387743712
 51
25.26016597678699
  0
ARC
  5
23F
330
1F
100
AcDbEntity
  8
1
  6
Continuous
 62
     7
100
AcDbCircle
 10
8176.9503578939
 20
-2320.60049603985
 30
0.0
 40
358.1499999744113
100
AcDbArc
 50
175.0112821162185
 51
212.5179834996785
  0
ARC
  5
240
330
1F
100
AcDbEntity
  8
1
  6
Continuous
 62
     7
100
AcDbCircle
 10
7535.35696908796
 20
-1154.0542538865
 30
0.0
 40
909.1499998854056
100
AcDbArc
 50
274.7202840152225
 51
284.0109329508352
  0
ARC
  5
241
330
1F
100
AcDbEntity
  8
1
  6
Continuous
 62
     7
100
AcDbCircle
 10
7983.17025399947
 20
-2948.6763266473
 30
0.0
 40
940.5000000290341
100
AcDbArc
 50
97.05982981652906
 51
104.0109329508351
  0
ARC
  5
242
330
1F
100
AcDbEntity
  8
1
  6
Continuous
 62
     7
100
AcDbCircle
 10
7355.59743376524
 20
-2006.8397220414
 30
0.0
 40
512.0500002570888
100
AcDbArc
 50
349.5477221938877
 51
359.0525265149296
  0
ARC
  5
243
330
1F
100
AcDbEntity
  8
1
  6
Continuous
 62
     7
100
AcDbCircle
 10
3162.88720084424
 20
-1233.3783595603
 30
0.0
 40
4775.506529470399
100
AcDbArc
 50
347.2237292497888
 51
349.5477221868322
  0
ARC
  5
244
330
1F
100
AcDbEntity
  8
1
  6
Continuous
 62
     7
100
AcDbCircle
 10
8898.61698243279
 20
-2009.072933062
 30
0.0
 40
1739.449999999851
100
AcDbArc
 50
180.1888645233412
 51
192.7363636934982
  0
ARC
  5
245
330
1F
100
AcDbEntity
  8
1
  6
Continuous
 62
     7
100
AcDbCircle
 10
7108.37393227421
 20
-4787.39129322134
 30
0.0
 40
2773.04999999742
100
AcDbArc
 50
79.57458942089026
 51
88.95027796099065
  0
ARC
  5
246
330
1F
100
AcDbEntity
  8
1
  6
Continuous
 62
     7
100
AcDbCircle
 10
9468.27953637559
 20
-3522.7377952556
 30
0.0
 40
2521.299999933447
100
AcDbArc
 50
154.739834023213
 51
156.39482612251
  0
ARC
  5
247
330
1F
100
AcDbEntity
  8
1
  6
Continuous
 62
     7
100
AcDbCircle
 10
7054.03860740849
 20
-2383.58416798544
 30
0.0
 40
148.1999999958829
100
AcDbArc
 50
334.7398340232119
 51
356.5272153942335
  0
ARC
  5
248
330
1F
100
AcDbEntity
  8
1
  6
Continuous
 62
     7
100
AcDbCircle
 10
7824.61894310215
 20
-2698.11284242735
 30
0.0
 40
184.9791936412761
100
AcDbArc
 50
85.45085634284385
 51
94.93093999750762
  0
ARC
  5
249
330
1F
100
AcDbEntity
  8
1
  6
Continuous
 62
     1
100
AcDbCircle
 10
7054.03860740849
 20
-2383.58416798544
 30
0.0
 40
167.1999999961539
100
AcDbArc
 50
334.7398340231153
 51
357.484367714909
  0
ARC
  5
24A
330
1F
100
AcDbEntity
  8
1
  6
Continuous
 62
     1
100
AcDbCircle
 10
8898.61698243279
 20
-2009.072933062
 30
0.0
 40
1720.449999999473
100
AcDbArc
 50
181.4048408018327
 51
193.5442267319215
  0
ARC
  5
24B
330
1F
100
AcDbEntity
  8
1
  6
Continuous
 62
     1
100
AcDbCircle
 10
9468.27953637559
 20
-3522.7377952556
 30
0.0
 40
2502.299999933176
100
AcDbArc
 50
154.7398340232195
 51
155.9870825153766
  0
ARC
  5
24C
330
1F
100
AcDbEntity
  8
1
  6
Continuous
 62
     1
100
AcDbCircle
 10
7188.61872375905
 20
-2507.1515106383
 30
0.0
 40
6.650000017119658
100
AcDbArc
 50
155.9870826061018
 51
276.3251399373163
  0
ARC
  5
24D
330
1F
100
AcDbEntity
  8
1
  6
Continuous
 62
     7
100
AcDbCircle
 10
7234.25131528369
 20
-2918.83015543095
 30
0.0
 40
407.5499999665908
100
AcDbArc
 50
84.54016824194264
 51
96.32514012400425
  0
ARC
  5
24E
330
1F
100
AcDbEntity
  8
1
  6
Continuous
 62
     1
100
AcDbCircle
 10
7839.89319648346
 20
-2506.14033656535
 30
0.0
 40
7.599999999397722
100
AcDbArc
 50
265.4508563396708
 51
28.83146253853228
  0
ARC
  5
24F
330
1F
100
AcDbEntity
  8
1
  6
Continuous
 62
     1
100
AcDbCircle
 10
8176.95035788979
 20
-2320.60049602019
 30
0.0
 40
377.1499999802925
100
AcDbArc
 50
174.812095896849
 51
208.8314625391415
  0
ARC
  5
250
330
1F
100
AcDbEntity
  8
1
  6
Continuous
 62
     1
100
AcDbCircle
 10
3162.88720084424
 20
-1233.3783595603
 30
0.0
 40
4756.506529468775
100
AcDbArc
 50
346.5673023387384
 51
349.5477221869023
  0
ARC
  5
251
330
1F
100
AcDbEntity
  8
1
  6
Continuous
 62
     1
100
AcDbCircle
 10
7609.32942444394
 20
-2189.84003513514
 30
0.0
 40
324.1170968514694
100
AcDbArc
 50
241.3049905829916
 51
274.0962810660071
  0
ARC
  5
252
330
1F
100
AcDbEntity
  8
1
  6
Continuous
 62
     1
100
AcDbCircle
 10
7479.61899539191
 20
-2020.9546708002
 30
0.0
 40
249.8499999963414
100
AcDbArc
 50
277.1938223031492
 51
316.8872255161638
  0
ARC
  5
253
330
1F
100
AcDbEntity
  8
1
  6
Continuous
 62
     1
100
AcDbCircle
 10
7842.57359457378
 20
-2042.7717279751
 30
0.0
 40
4.750000001323349
100
AcDbArc
 50
355.7800228948608
 51
98.82193935761227
  0
ARC
  5
254
330
1F
100
AcDbEntity
  8
1
  6
Continuous
 62
     1
100
AcDbCircle
 10
7355.59743376052
 20
-2006.83972206392
 30
0.0
 40
493.0500002565191
100
AcDbArc
 50
349.5477221975094
 51
355.7800229067619
  0
ARC
  5
255
330
1F
100
AcDbEntity
  8
1
  6
Continuous
 62
     1
100
AcDbCircle
 10
7983.17025399947
 20
-2948.6763266473
 30
0.0
 40
921.5000000213087
100
AcDbArc
 50
98.82193936599104
 51
104.0109329503904
  0
ARC
  5
256
330
1F
100
AcDbEntity
  8
1
  6
Continuous
 62
     1
100
AcDbCircle
 10
7535.35696908796
 20
-1154.0542538865
 30
0.0
 40
928.1499998854682
100
AcDbArc
 50
274.5632877458718
 51
284.0109329512767
  0
ARC
  5
257
330
1F
100
AcDbEntity
  8
1
  6
Continuous
 62
     1
100
AcDbCircle
 10
7194.82925754009
 20
-2050.8566439421
 30
0.0
 40
16.15000000037022
100
AcDbArc
 50
88.19045661544403
 51
181.404840777346
  0
ARC
  5
258
330
1F
100
AcDbEntity
  8
1
  6
Continuous
 62
     1
100
AcDbCircle
 10
7108.37393227421
 20
-4787.39129322134
 30
0.0
 40
2754.049999995374
100
AcDbArc
 50
78.57155955917388
 51
88.1904566144392
  0
ARC
  5
259
330
1F
100
AcDbEntity
  8
1
  6
Continuous
 62
     7
100
AcDbCircle
 10
8176.9503578939
 20
-2320.60049603985
 30
0.0
 40
358.1499999744113
100
AcDbArc
 50
175.0112821162185
 51
212.5179834996785
  0
ARC
  5
25A
330
1F
100
AcDbEntity
  8
1
  6
Continuous
 62
     1
100
AcDbCircle
 10
5799.39448509986
 20
-2507.1515106364
 30
0.0
 40
6.650000018083796
100
AcDbArc
 50
263.6748600713103
 51
24.01291739389823
  0
ARC
  5
25B
330
1F
100
AcDbEntity
  8
1
  6
Continuous
 62
     1
100
AcDbCircle
 10
3519.73367248333
 20
-3522.73779525371
 30
0.0
 40
2502.299999933424
100
AcDbArc
 50
24.01291748462376
 51
25.26016597677145
  0
ARC
  5
25C
330
1F
100
AcDbEntity
  8
1
  6
Continuous
 62
     7
100
AcDbCircle
 10
5933.97460145043
 20
-2383.58416798355
 30
0.0
 40
148.1999999953066
100
AcDbArc
 50
183.4727846054895
 51
205.2601659767866
  0
ARC
  5
25D
330
1F
100
AcDbEntity
  8
1
  6
Continuous
 62
     7
100
AcDbCircle
 10
3519.73367248333
 20
-3522.73779525371
 30
0.0
 40
2521.299999934024
100
AcDbArc
 50
23.60517387743721
 51
25.26016597678707
  0
ARC
  5
25E
330
1F
100
AcDbEntity
  8
1
  6
Continuous
 62
     7
100
AcDbCircle
 10
5879.63927658476
 20
-4787.39129321945
 30
0.0
 40
2773.049999998181
100
AcDbArc
 50
91.04972203900826
 51
100.425410579172
  0
ARC
  5
25F
330
1F
100
AcDbEntity
  8
1
  6
Continuous
 62
     7
100
AcDbCircle
 10
4089.39622642613
 20
-2009.07293306011
 30
0.0
 40
1739.449999999933
100
AcDbArc
 50
347.2636363065297
 51
359.8111354766841
  0
ARC
  5
260
330
1F
100
AcDbEntity
  8
1
  6
Continuous
 62
     7
100
AcDbCircle
 10
9825.12600801467
 20
-1233.3783595584
 30
0.0
 40
4775.50652946866
100
AcDbArc
 50
190.452277813168
 51
192.7762707511041
  0
ARC
  5
261
330
1F
100
AcDbEntity
  8
1
  6
Continuous
 62
     7
100
AcDbCircle
 10
5632.41577508745
 20
-2006.83972197655
 30
0.0
 40
512.0500002606576
100
AcDbArc
 50
180.9474734919854
 51
190.4522778131672
  0
ARC
  5
262
330
1F
100
AcDbEntity
  8
1
  6
Continuous
 62
     7
100
AcDbCircle
 10
5004.8429548595
 20
-2948.67632664541
 30
0.0
 40
940.500000029049
100
AcDbArc
 50
75.98906704916506
 51
82.94017018401253
  0
ARC
  5
263
330
1F
100
AcDbEntity
  8
1
  6
Continuous
 62
     7
100
AcDbCircle
 10
5452.656239771
 20
-1154.05425388461
 30
0.0
 40
909.1499998853938
100
AcDbArc
 50
255.9890670491652
 51
265.2797159845813
  0
ARC
  5
264
330
1F
100
AcDbEntity
  8
1
  6
Continuous
 62
     7
100
AcDbCircle
 10
5148.12001237551
 20
-2506.14033656345
 30
0.0
 40
26.59999998825
100
AcDbArc
 50
151.1685374637392
 51
195.2325475956277
  0
ARC
  5
265
330
1F
100
AcDbEntity
  8
1
  6
Continuous
 62
     7
100
AcDbCircle
 10
4811.06285096507
 20
-2320.60049603796
 30
0.0
 40
358.1499999861331
100
AcDbArc
 50
331.1685374637312
 51
5.18790410607011
  0
ARC
  5
266
330
1F
100
AcDbEntity
  8
1
  6
Continuous
 62
     7
100
AcDbCircle
 10
5753.76189357528
 20
-2918.83015542906
 30
0.0
 40
407.5499999669119
100
AcDbArc
 50
83.67485987586353
 51
95.45983175806415
  0
ARC
  5
267
330
1F
100
AcDbEntity
  8
1
  6
Continuous
 62
     1
100
AcDbCircle
 10
5799.39448509986
 20
-2507.1515106364
 30
0.0
 40
6.650000018083796
100
AcDbArc
 50
263.6748600713103
 51
24.01291739389823
  0
ARC
  5
268
330
1F
100
AcDbEntity
  8
1
  6
Continuous
 62
     1
100
AcDbCircle
 10
3519.73367248333
 20
-3522.73779525371
 30
0.0
 40
2502.299999933424
100
AcDbArc
 50
24.01291748462376
 51
25.26016597677145
  0
ARC
  5
269
330
1F
100
AcDbEntity
  8
1
  6
Continuous
 62
     1
100
AcDbCircle
 10
5933.97460145043
 20
-2383.58416798355
 30
0.0
 40
167.2000000003559
100
AcDbArc
 50
182.5156322850175
 51
205.2601659770203
  0
ARC
  5
26A
330
1F
100
AcDbEntity
  8
1
  6
Continuous
 62
     1
100
AcDbCircle
 10
4089.39622642613
 20
-2009.07293306011
 30
0.0
 40
1720.4499999999
100
AcDbArc
 50
346.4557732680788
 51
358.5951591981674
  0
ARC
  5
26B
330
1F
100
AcDbEntity
  8
1
  6
Continuous
 62
     1
100
AcDbCircle
 10
5501.24634599235
 20
-2189.84003513325
 30
0.0
 40
324.1170968510235
100
AcDbArc
 50
241.3049905831358
 51
274.0962810661723
  0
ARC
  5
26C
330
1F
100
AcDbEntity
  8
1
  6
Continuous
 62
     1
100
AcDbCircle
 10
5148.12001237551
 20
-2506.14033656345
 30
0.0
 40
7.599999988066922
100
AcDbArc
 50
151.16853746112
 51
274.5491436600068
  0
ARC
  5
26D
330
1F
100
AcDbEntity
  8
1
  6
Continuous
 62
     1
100
AcDbCircle
 10
4811.06285096507
 20
-2320.60049603796
 30
0.0
 40
377.1499999863161
100
AcDbArc
 50
331.1685374637844
 51
5.18790410607008
  0
ARC
  5
26E
330
1F
100
AcDbEntity
  8
1
  6
Continuous
 62
     1
100
AcDbCircle
 10
5145.43961428519
 20
-2042.7717279732
 30
0.0
 40
4.750000008778915
100
AcDbArc
 50
81.17806063411152
 51
184.2199770984784
  0
ARC
  5
26F
330
1F
100
AcDbEntity
  8
1
  6
Continuous
 62
     1
100
AcDbCircle
 10
5632.41577508745
 20
-2006.83972197655
 30
0.0
 40
493.050000259457
100
AcDbArc
 50
184.2199771031732
 51
190.452277812491
  0
ARC
  5
270
330
1F
100
AcDbEntity
  8
1
  6
Continuous
 62
     1
100
AcDbCircle
 10
9825.12600801467
 20
-1233.3783595584
 30
0.0
 40
4756.506529469213
100
AcDbArc
 50
190.4522778130979
 51
193.4326976612618
  0
ARC
  5
271
330
1F
100
AcDbEntity
  8
1
  6
Continuous
 62
     1
100
AcDbCircle
 10
5004.8429548595
 20
-2948.67632664541
 30
0.0
 40
921.5000000290241
100
AcDbArc
 50
75.98906704961355
 51
81.17806063396645
  0
ARC
  5
272
330
1F
100
AcDbEntity
  8
1
  6
Continuous
 62
     1
100
AcDbCircle
 10
5452.656239771
 20
-1154.05425388461
 30
0.0
 40
928.1499998854187
100
AcDbArc
 50
255.9890670487199
 51
265.4367122541285
  0
ARC
  5
273
330
1F
100
AcDbEntity
  8
1
  6
Continuous
 62
     1
100
AcDbCircle
 10
5793.18395131888
 20
-2050.85664394021
 30
0.0
 40
16.15000000284033
100
AcDbArc
 50
358.5951592226535
 51
91.80954338442957
  0
ARC
  5
274
330
1F
100
AcDbEntity
  8
1
  6
Continuous
 62
     1
100
AcDbCircle
 10
5879.63927658476
 20
-4787.39129321945
 30
0.0
 40
2754.049999998381
100
AcDbArc
 50
91.80954338556006
 51
101.4284404408143
  0
ARC
  5
275
330
1F
100
AcDbEntity
  8
1
  6
Continuous
 62
     1
100
AcDbCircle
 10
5371.53591694126
 20
-2020.95467079831
 30
0.0
 40
249.8499999963402
100
AcDbArc
 50
277.1938223031469
 51
316.8872255161558
  0
ARC
  5
276
330
1F
100
AcDbEntity
  8
1
  6
Continuous
 62
     7
100
AcDbCircle
 10
3519.73367248333
 20
-3522.73779525371
 30
0.0
 40
2521.299999934024
100
AcDbArc
 50
23.60517387743721
 51
25.26016597678707
  0
ARC
  5
277
330
1F
100
AcDbEntity
  8
1
  6
Continuous
 62
     7
100
AcDbCircle
 10
5133.03907749724
 20
-2320.60049603985
 30
0.0
 40
358.1499999744113
100
AcDbArc
 50
175.0112821162185
 51
212.5179834996777
  0
ARC
  5
278
330
1F
100
AcDbEntity
  8
1
  6
Continuous
 62
     7
100
AcDbCircle
 10
4491.4456886913
 20
-1154.0542538865
 30
0.0
 40
909.1499998854056
100
AcDbArc
 50
274.7202840152225
 51
284.0109329508346
  0
ARC
  5
279
330
1F
100
AcDbEntity
  8
1
  6
Continuous
 62
     7
100
AcDbCircle
 10
4939.2589736028
 20
-2948.6763266473
 30
0.0
 40
940.5000000290341
100
AcDbArc
 50
97.05982981652906
 51
104.0109329508351
  0
ARC
  5
27A
330
1F
100
AcDbEntity
  8
1
  6
Continuous
 62
     7
100
AcDbCircle
 10
4311.68615336857
 20
-2006.8397220414
 30
0.0
 40
512.0500002570986
100
AcDbArc
 50
349.5477221938879
 51
359.0525265149296
  0
ARC
  5
27B
330
1F
100
AcDbEntity
  8
1
  6
Continuous
 62
     7
100
AcDbCircle
 10
118.975920447574
 20
-1233.3783595603
 30
0.0
 40
4775.506529470405
100
AcDbArc
 50
347.2237292497889
 51
349.5477221868322
  0
ARC
  5
27C
330
1F
100
AcDbEntity
  8
1
  6
Continuous
 62
     7
100
AcDbCircle
 10
5854.70570203612
 20
-2009.072933062
 30
0.0
 40
1739.449999999851
100
AcDbArc
 50
180.1888645233412
 51
192.7363636934982
  0
ARC
  5
27D
330
1F
100
AcDbEntity
  8
1
  6
Continuous
 62
     7
100
AcDbCircle
 10
4064.46265187754
 20
-4787.39129322134
 30
0.0
 40
2773.049999997422
100
AcDbArc
 50
79.57458942089006
 51
88.95027796099063
  0
ARC
  5
27E
330
1F
100
AcDbEntity
  8
1
  6
Continuous
 62
     7
100
AcDbCircle
 10
6424.36825597892
 20
-3522.7377952556
 30
0.0
 40
2521.299999933447
100
AcDbArc
 50
154.739834023213
 51
156.3948261225099
  0
ARC
  5
27F
330
1F
100
AcDbEntity
  8
1
  6
Continuous
 62
     7
100
AcDbCircle
 10
4010.12732701182
 20
-2383.58416798544
 30
0.0
 40
148.1999999958829
100
AcDbArc
 50
334.7398340232119
 51
356.5272153942335
  0
ARC
  5
280
330
1F
100
AcDbEntity
  8
1
  6
Continuous
 62
     7
100
AcDbCircle
 10
4780.70766270549
 20
-2698.11284242735
 30
0.0
 40
184.9791936412761
100
AcDbArc
 50
85.45085634284385
 51
94.9309399975107
  0
ARC
  5
281
330
1F
100
AcDbEntity
  8
1
  6
Continuous
 62
     1
100
AcDbCircle
 10
4010.12732701182
 20
-2383.58416798544
 30
0.0
 40
167.1999999961539
100
AcDbArc
 50
334.7398340231153
 51
357.484367714909
  0
ARC
  5
282
330
1F
100
AcDbEntity
  8
1
  6
Continuous
 62
     1
100
AcDbCircle
 10
5854.70570203612
 20
-2009.072933062
 30
0.0
 40
1720.449999999463
100
AcDbArc
 50
181.4048408018327
 51
193.5442267319215
  0
ARC
  5
283
330
1F
100
AcDbEntity
  8
1
  6
Continuous
 62
     1
100
AcDbCircle
 10
6424.36825597892
 20
-3522.7377952556
 30
0.0
 40
2502.299999933176
100
AcDbArc
 50
154.7398340232195
 51
155.9870825153766
  0
ARC
  5
284
330
1F
100
AcDbEntity
  8
1
  6
Continuous
 62
     1
100
AcDbCircle
 10
4144.70744336239
 20
-2507.1515106383
 30
0.0
 40
6.650000017128797
100
AcDbArc
 50
155.9870826061368
 51
276.3251399372384
  0
ARC
  5
285
330
1F
100
AcDbEntity
  8
1
  6
Continuous
 62
     7
100
AcDbCircle
 10
4190.34003488702
 20
-2918.83015543095
 30
0.0
 40
407.5499999665908
100
AcDbArc
 50
84.54016824194264
 51
96.32514012400414
  0
ARC
  5
286
330
1F
100
AcDbEntity
  8
1
  6
Continuous
 62
     1
100
AcDbCircle
 10
4795.98191608679
 20
-2506.14033656535
 30
0.0
 40
7.599999999396928
100
AcDbArc
 50
265.4508563397459
 51
28.83146253849591
  0
ARC
  5
287
330
1F
100
AcDbEntity
  8
1
  6
Continuous
 62
     1
100
AcDbCircle
 10
5133.03907749312
 20
-2320.60049602019
 30
0.0
 40
377.1499999802825
100
AcDbArc
 50
174.8120958968489
 51
208.8314625391423
  0
ARC
  5
288
330
1F
100
AcDbEntity
  8
1
  6
Continuous
 62
     1
100
AcDbCircle
 10
118.975920447574
 20
-1233.3783595603
 30
0.0
 40
4756.506529468771
100
AcDbArc
 50
346.5673023387384
 51
349.5477221869023
  0
ARC
  5
289
330
1F
100
AcDbEntity
  8
1
  6
Continuous
 62
     1
100
AcDbCircle
 10
4565.41814404727
 20
-2189.84003513514
 30
0.0
 40
324.1170968514694
100
AcDbArc
 50
241.3049905829916
 51
274.0962810660071
  0
ARC
  5
28A
330
1F
100
AcDbEntity
  8
1
  6
Continuous
 62
     1
100
AcDbCircle
 10
4435.70771499525
 20
-2020.9546708002
 30
0.0
 40
249.8499999963402
100
AcDbArc
 50
277.1938223031469
 51
316.8872255161638
  0
ARC
  5
28B
330
1F
100
AcDbEntity
  8
1
  6
Continuous
 62
     1
100
AcDbCircle
 10
4798.66231417711
 20
-2042.7717279751
 30
0.0
 40
4.750000001333325
100
AcDbArc
 50
355.7800228948697
 51
98.82193935749302
  0
ARC
  5
28C
330
1F
100
AcDbEntity
  8
1
  6
Continuous
 62
     1
100
AcDbCircle
 10
4311.68615336385
 20
-2006.83972206392
 30
0.0
 40
493.0500002565288
100
AcDbArc
 50
349.5477221975096
 51
355.780022906762
  0
ARC
  5
28D
330
1F
100
AcDbEntity
  8
1
  6
Continuous
 62
     1
100
AcDbCircle
 10
4939.258973519141
 20
-2948.6763266642
 30
0.0
 40
921.5000000251771
100
AcDbArc
 50
98.82193936068919
 51
104.0109329450885
  0
ARC
  5
28E
330
1F
100
AcDbEntity
  8
1
  6
Continuous
 62
     1
100
AcDbCircle
 10
4491.4456886913
 20
-1154.0542538865
 30
0.0
 40
928.1499998854674
100
AcDbArc
 50
274.5632877458713
 51
284.0109329512767
  0
ARC
  5
28F
330
1F
100
AcDbEntity
  8
1
  6
Continuous
 62
     1
100
AcDbCircle
 10
4150.91797714342
 20
-2050.8566439421
 30
0.0
 40
16.15000000037022
100
AcDbArc
 50
88.19045661544403
 51
181.4048407773468
  0
ARC
  5
290
330
1F
100
AcDbEntity
  8
1
  6
Continuous
 62
     1
100
AcDbCircle
 10
4064.46265187754
 20
-4787.39129322134
 30
0.0
 40
2754.049999995374
100
AcDbArc
 50
78.57155955917388
 51
88.1904566144392
  0
ARC
  5
291
330
1F
100
AcDbEntity
  8
1
  6
Continuous
 62
     7
100
AcDbCircle
 10
5133.03907749724
 20
-2320.60049603985
 30
0.0
 40
358.1499999744113
100
AcDbArc
 50
175.0112821162185
 51
212.5179834996777
  0
ARC
  5
292
330
1F
100
AcDbEntity
  8
1
  6
Continuous
 62
     7
100
AcDbCircle
 10
2752.022095800402
 20
-2383.584167983648
 30
0.0
 40
148.1999999949434
100
AcDbArc
 50
183.4727846054601
 51
208.8241068876725
  0
ARC
  5
293
330
1F
100
AcDbEntity
  8
1
  6
Continuous
 62
     7
100
AcDbCircle
 10
2697.68677093509
 20
-4787.39129321945
 30
0.0
 40
2773.049999998181
100
AcDbArc
 50
91.04972203900846
 51
100.425410579172
  0
ARC
  5
294
330
1F
100
AcDbEntity
  8
1
  6
Continuous
 62
     7
100
AcDbCircle
 10
907.443720776455
 20
-2009.07293306011
 30
0.0
 40
1739.449999999938
100
AcDbArc
 50
347.2636363065297
 51
359.8111354766841
  0
ARC
  5
295
330
1F
100
AcDbEntity
  8
1
  6
Continuous
 62
     7
100
AcDbCircle
 10
6643.173502365
 20
-1233.3783595584
 30
0.0
 40
4775.50652946866
100
AcDbArc
 50
190.452277813168
 51
192.7762707511041
  0
ARC
  5
296
330
1F
100
AcDbEntity
  8
1
  6
Continuous
 62
     7
100
AcDbCircle
 10
2450.46326943777
 20
-2006.83972197655
 30
0.0
 40
512.0500002606478
100
AcDbArc
 50
180.9474734919854
 51
190.4522778131674
  0
ARC
  5
297
330
1F
100
AcDbEntity
  8
1
  6
Continuous
 62
     7
100
AcDbCircle
 10
1822.89044920983
 20
-2948.67632664541
 30
0.0
 40
940.5000000290491
100
AcDbArc
 50
75.98906704916504
 51
82.94017018401252
  0
ARC
  5
298
330
1F
100
AcDbEntity
  8
1
  6
Continuous
 62
     7
100
AcDbCircle
 10
2270.70373412133
 20
-1154.05425388461
 30
0.0
 40
909.1499998853936
100
AcDbArc
 50
255.9890670491652
 51
265.2797159845813
  0
ARC
  5
299
330
1F
100
AcDbEntity
  8
1
  6
Continuous
 62
     7
100
AcDbCircle
 10
1966.16750672584
 20
-2506.14033656345
 30
0.0
 40
26.59999998825916
100
AcDbArc
 50
151.1685374637501
 51
195.2325475956276
  0
ARC
  5
29A
330
1F
100
AcDbEntity
  8
1
  6
Continuous
 62
     7
100
AcDbCircle
 10
1629.11034531539
 20
-2320.60049603796
 30
0.0
 40
358.1499999861325
100
AcDbArc
 50
331.1685374637312
 51
5.18790410606998
  0
ARC
  5
29B
330
1F
100
AcDbEntity
  8
1
  6
Continuous
 62
     1
100
AcDbCircle
 10
2752.02209579784
 20
-2383.5841679748
 30
0.0
 40
167.1999999978233
100
AcDbArc
 50
182.515632288057
 51
214.2988343026875
  0
ARC
  5
29C
330
1F
100
AcDbEntity
  8
1
  6
Continuous
 62
     1
100
AcDbCircle
 10
907.443720776455
 20
-2009.07293306011
 30
0.0
 40
1720.449999999905
100
AcDbArc
 50
346.4557732680788
 51
358.5951591981674
  0
ARC
  5
29D
330
1F
100
AcDbEntity
  8
1
  6
Continuous
 62
     1
100
AcDbCircle
 10
2319.29384034267
 20
-2189.84003513325
 30
0.0
 40
324.1170968510185
100
AcDbArc
 50
241.3049905831375
 51
274.0962810661741
  0
ARC
  5
29E
330
1F
100
AcDbEntity
  8
1
  6
Continuous
 62
     1
100
AcDbCircle
 10
1966.16750672584
 20
-2506.14033656345
 30
0.0
 40
7.599999988076084
100
AcDbArc
 50
151.168537461158
 51
274.5491436600068
  0
ARC
  5
29F
330
1F
100
AcDbEntity
  8
1
  6
Continuous
 62
     1
100
AcDbCircle
 10
1629.11034531539
 20
-2320.60049603796
 30
0.0
 40
377.1499999863155
100
AcDbArc
 50
331.1685374637844
 51
5.18790410607009
  0
ARC
  5
2A0
330
1F
100
AcDbEntity
  8
1
  6
Continuous
 62
     1
100
AcDbCircle
 10
1963.48710863552
 20
-2042.7717279732
 30
0.0
 40
4.750000008778986
100
AcDbArc
 50
81.17806063410609
 51
184.2199770984784
  0
ARC
  5
2A1
330
1F
100
AcDbEntity
  8
1
  6
Continuous
 62
     1
100
AcDbCircle
 10
2450.46326943777
 20
-2006.83972197655
 30
0.0
 40
493.0500002594473
100
AcDbArc
 50
184.2199771031733
 51
190.452277812491
  0
ARC
  5
2A2
330
1F
100
AcDbEntity
  8
1
  6
Continuous
 62
     1
100
AcDbCircle
 10
6643.173502365
 20
-1233.3783595584
 30
0.0
 40
4756.506529469224
100
AcDbArc
 50
190.4522778130979
 51
193.4326976612618
  0
ARC
  5
2A3
330
1F
100
AcDbEntity
  8
1
  6
Continuous
 62
     1
100
AcDbCircle
 10
1822.89044920983
 20
-2948.67632664541
 30
0.0
 40
921.5000000290242
100
AcDbArc
 50
75.98906704961352
 51
81.17806063396641
  0
ARC
  5
2A4
330
1F
100
AcDbEntity
  8
1
  6
Continuous
 62
     1
100
AcDbCircle
 10
2270.70373412133
 20
-1154.05425388461
 30
0.0
 40
928.1499998854184
100
AcDbArc
 50
255.98906704872
 51
265.4367122541285
  0
ARC
  5
2A5
330
1F
100
AcDbEntity
  8
1
  6
Continuous
 62
     1
100
AcDbCircle
 10
2611.23144566921
 20
-2050.85664394021
 30
0.0
 40
16.15000000283942
100
AcDbArc
 50
358.5951592226535
 51
91.80954338443281
  0
ARC
  5
2A6
330
1F
100
AcDbEntity
  8
1
  6
Continuous
 62
     1
100
AcDbCircle
 10
2697.68677093509
 20
-4787.39129321945
 30
0.0
 40
2754.049999998381
100
AcDbArc
 50
91.80954338556006
 51
101.4284404408143
  0
ARC
  5
2A7
330
1F
100
AcDbEntity
  8
1
  6
Continuous
 62
     1
100
AcDbCircle
 10
2189.58341129159
 20
-2020.95467079831
 30
0.0
 40
249.8499999963402
100
AcDbArc
 50
277.1938223031469
 51
316.8872255161558
  0
ARC
  5
2A8
330
1F
100
AcDbEntity
  8
1
  6
Continuous
 62
     7
100
AcDbCircle
 10
2074.14439992441
 20
-2320.60049603985
 30
0.0
 40
358.1499999744117
100
AcDbArc
 50
175.0112821162185
 51
212.5179834996785
  0
ARC
  5
2A9
330
1F
100
AcDbEntity
  8
1
  6
Continuous
 62
     7
100
AcDbCircle
 10
1432.55101111847
 20
-1154.0542538865
 30
0.0
 40
909.1499998854057
100
AcDbArc
 50
274.7202840152225
 51
284.0109329508352
  0
ARC
  5
2AA
330
1F
100
AcDbEntity
  8
1
  6
Continuous
 62
     7
100
AcDbCircle
 10
1880.36429602998
 20
-2948.6763266473
 30
0.0
 40
940.5000000290353
100
AcDbArc
 50
97.05982981652966
 51
104.0109329508351
  0
ARC
  5
2AB
330
1F
100
AcDbEntity
  8
1
  6
Continuous
 62
     7
100
AcDbCircle
 10
1252.79147579574
 20
-2006.8397220414
 30
0.0
 40
512.0500002570986
100
AcDbArc
 50
349.5477221938879
 51
359.0525265149296
  0
ARC
  5
2AC
330
1F
100
AcDbEntity
  8
1
  6
Continuous
 62
     7
100
AcDbCircle
 10
-2939.91875712525
 20
-1233.3783595603
 30
0.0
 40
4775.506529470398
100
AcDbArc
 50
347.2237292497888
 51
349.5477221868322
  0
ARC
  5
2AD
330
1F
100
AcDbEntity
  8
1
  6
Continuous
 62
     7
100
AcDbCircle
 10
2795.81102446329
 20
-2009.072933062
 30
0.0
 40
1739.449999999841
100
AcDbArc
 50
180.1888645233412
 51
192.7363636934983
  0
ARC
  5
2AE
330
1F
100
AcDbEntity
  8
1
  6
Continuous
 62
     7
100
AcDbCircle
 10
1005.56797430471
 20
-4787.39129322134
 30
0.0
 40
2773.049999997422
100
AcDbArc
 50
79.57458942089006
 51
88.9502779609904
  0
ARC
  5
2AF
330
1F
100
AcDbEntity
  8
1
  6
Continuous
 62
     7
100
AcDbCircle
 10
3365.47357840609
 20
-3522.7377952556
 30
0.0
 40
2521.299999933437
100
AcDbArc
 50
154.7398340232129
 51
156.3948261225099
  0
ARC
  5
2B0
330
1F
100
AcDbEntity
  8
1
  6
Continuous
 62
     7
100
AcDbCircle
 10
951.232649438994
 20
-2383.58416798544
 30
0.0
 40
148.1999999958882
100
AcDbArc
 50
334.7398340232129
 51
356.5272153942337
  0
ARC
  5
2B1
330
1F
100
AcDbEntity
  8
1
  6
Continuous
 62
     7
100
AcDbCircle
 10
1721.81298513266
 20
-2698.11284242735
 30
0.0
 40
184.9791936412761
100
AcDbArc
 50
85.45085634284364
 51
94.93093999751049
  0
ARC
  5
2B2
330
1F
100
AcDbEntity
  8
1
  6
Continuous
 62
     1
100
AcDbCircle
 10
951.232649438994
 20
-2383.58416798544
 30
0.0
 40
167.19999999615
100
AcDbArc
 50
334.7398340231147
 51
357.484367714909
  0
ARC
  5
2B3
330
1F
100
AcDbEntity
  8
1
  6
Continuous
 62
     1
100
AcDbCircle
 10
2795.81102446329
 20
-2009.072933062
 30
0.0
 40
1720.449999999462
100
AcDbArc
 50
181.4048408018327
 51
193.5442267319216
  0
ARC
  5
2B4
330
1F
100
AcDbEntity
  8
1
  6
Continuous
 62
     1
100
AcDbCircle
 10
3365.47357840609
 20
-3522.7377952556
 30
0.0
 40
2502.299999933176
100
AcDbArc
 50
154.7398340232195
 51
155.9870825153764
  0
ARC
  5
2B5
330
1F
100
AcDbEntity
  8
1
  6
Continuous
 62
     1
100
AcDbCircle
 10
1085.81276578956
 20
-2507.1515106383
 30
0.0
 40
6.650000017119035
100
AcDbArc
 50
155.9870826060994
 51
276.3251399372364
  0
ARC
  5
2B6
330
1F
100
AcDbEntity
  8
1
  6
Continuous
 62
     7
100
AcDbCircle
 10
1131.44535731419
 20
-2918.83015543095
 30
0.0
 40
407.5499999665907
100
AcDbArc
 50
84.54016824194271
 51
96.3251401240042
  0
ARC
  5
2B7
330
1F
100
AcDbEntity
  8
1
  6
Continuous
 62
     1
100
AcDbCircle
 10
1737.08723851396
 20
-2506.14033656535
 30
0.0
 40
7.599999999396892
100
AcDbArc
 50
265.4508563397494
 51
28.83146253849425
  0
ARC
  5
2B8
330
1F
100
AcDbEntity
  8
1
  6
Continuous
 62
     1
100
AcDbCircle
 10
2074.14439992029
 20
-2320.60049602019
 30
0.0
 40
377.1499999802825
100
AcDbArc
 50
174.8120958968489
 51
208.8314625391423
  0
ARC
  5
2B9
330
1F
100
AcDbEntity
  8
1
  6
Continuous
 62
     1
100
AcDbCircle
 10
-2939.91875712525
 20
-1233.3783595603
 30
0.0
 40
4756.506529468766
100
AcDbArc
 50
346.5673023387384
 51
349.5477221869023
  0
ARC
  5
2BA
330
1F
100
AcDbEntity
  8
1
  6
Continuous
 62
     1
100
AcDbCircle
 10
1506.52346647445
 20
-2189.84003513514
 30
0.0
 40
324.1170968514743
100
AcDbArc
 50
241.3049905829901
 51
274.0962810660054
  0
ARC
  5
2BB
330
1F
100
AcDbEntity
  8
1
  6
Continuous
 62
     1
100
AcDbCircle
 10
1376.81303742242
 20
-2020.9546708002
 30
0.0
 40
249.8499999963415
100
AcDbArc
 50
277.1938223031493
 51
316.8872255161639
  0
ARC
  5
2BC
330
1F
100
AcDbEntity
  8
1
  6
Continuous
 62
     1
100
AcDbCircle
 10
1739.76763660428
 20
-2042.7717279751
 30
0.0
 40
4.750000001333325
100
AcDbArc
 50
355.7800228948697
 51
98.82193935749574
  0
ARC
  5
2BD
330
1F
100
AcDbEntity
  8
1
  6
Continuous
 62
     1
100
AcDbCircle
 10
1252.79147579102
 20
-2006.83972206392
 30
0.0
 40
493.0500002565291
100
AcDbArc
 50
349.5477221975096
 51
355.780022906762
  0
ARC
  5
2BE
330
1F
100
AcDbEntity
  8
1
  6
Continuous
 62
     1
100
AcDbCircle
 10
1880.36429594632
 20
-2948.6763266642
 30
0.0
 40
921.5000000251783
100
AcDbArc
 50
98.82193936068971
 51
104.0109329450891
  0
ARC
  5
2BF
330
1F
100
AcDbEntity
  8
1
  6
Continuous
 62
     1
100
AcDbCircle
 10
1432.55101111847
 20
-1154.0542538865
 30
0.0
 40
928.1499998854674
100
AcDbArc
 50
274.5632877458713
 51
284.0109329512767
  0
ARC
  5
2C0
330
1F
100
AcDbEntity
  8
1
  6
Continuous
 62
     1
100
AcDbCircle
 10
1092.02329957059
 20
-2050.8566439421
 30
0.0
 40
16.1500000003702
100
AcDbArc
 50
88.19045661544564
 51
181.4048407773468
  0
ARC
  5
2C1
330
1F
100
AcDbEntity
  8
1
  6
Continuous
 62
     1
100
AcDbCircle
 10
1005.56797430471
 20
-4787.39129322134
 30
0.0
 40
2754.049999995374
100
AcDbArc
 50
78.57155955917388
 51
88.19045661443921
  0
ARC
  5
2C2
330
1F
100
AcDbEntity
  8
1
  6
Continuous
 62
     7
100
AcDbCircle
 10
3365.47357840609
 20
-3522.7377952556
 30
0.0
 40
2521.299999933437
100
AcDbArc
 50
154.7398340232129
 51
156.3948261225099
  0
ARC
  5
2C3
330
1F
100
AcDbEntity
  8
1
  6
Continuous
 62
     7
100
AcDbCircle
 10
-989.956294996026
 20
-2320.60049603985
 30
0.0
 40
358.1499999744154
100
AcDbArc
 50
175.0112821162186
 51
212.5179834996782
  0
ARC
  5
2C4
330
1F
100
AcDbEntity
  8
1
  6
Continuous
 62
     7
100
AcDbCircle
 10
-1631.54968380197
 20
-1154.0542538865
 30
0.0
 40
909.1499998854057
100
AcDbArc
 50
274.7202840152225
 51
284.0109329508352
  0
ARC
  5
2C5
330
1F
100
AcDbEntity
  8
1
  6
Continuous
 62
     7
100
AcDbCircle
 10
-1183.73639889046
 20
-2948.6763266473
 30
0.0
 40
940.5000000290341
100
AcDbArc
 50
97.05982981652906
 51
104.0109329508351
  0
ARC
  5
2C6
330
1F
100
AcDbEntity
  8
1
  6
Continuous
 62
     7
100
AcDbCircle
 10
-1811.30921912469
 20
-2006.8397220414
 30
0.0
 40
512.0500002570888
100
AcDbArc
 50
349.5477221938877
 51
359.0525265149296
  0
ARC
  5
2C7
330
1F
100
AcDbEntity
  8
1
  6
Continuous
 62
     7
100
AcDbCircle
 10
-6004.01945204569
 20
-1233.3783595603
 30
0.0
 40
4775.506529470398
100
AcDbArc
 50
347.2237292497888
 51
349.5477221868322
  0
ARC
  5
2C8
330
1F
100
AcDbEntity
  8
1
  6
Continuous
 62
     7
100
AcDbCircle
 10
-268.289670457143
 20
-2009.072933062
 30
0.0
 40
1739.449999999848
100
AcDbArc
 50
180.1888645233412
 51
192.7363636934959
  0
ARC
  5
2C9
330
1F
100
AcDbEntity
  8
1
  6
Continuous
 62
     7
100
AcDbCircle
 10
-2058.53272061572
 20
-4787.39129322134
 30
0.0
 40
2773.04999999742
100
AcDbArc
 50
79.57458942089026
 51
88.95027796099063
  0
ARC
  5
2CA
330
1F
100
AcDbEntity
  8
1
  6
Continuous
 62
     7
100
AcDbCircle
 10
-2112.86804548144
 20
-2383.58416798544
 30
0.0
 40
148.1999999955956
100
AcDbArc
 50
343.4872901976636
 51
356.5272153942308
  0
ARC
  5
2CB
330
1F
100
AcDbEntity
  8
1
  6
Continuous
 62
     7
100
AcDbCircle
 10
-1342.28770978777
 20
-2698.11284242735
 30
0.0
 40
184.9791936412753
100
AcDbArc
 50
85.45085634284672
 51
94.93093999751049
  0
ARC
  5
2CC
330
1F
100
AcDbEntity
  8
1
  6
Continuous
 62
     1
100
AcDbCircle
 10
-2112.86804548144
 20
-2383.58416798544
 30
0.0
 40
167.1999999956002
100
AcDbArc
 50
335.4299121145901
 51
357.484367714911
  0
ARC
  5
2CD
330
1F
100
AcDbEntity
  8
1
  6
Continuous
 62
     1
100
AcDbCircle
 10
-268.289670457143
 20
-2009.072933062
 30
0.0
 40
1720.449999999469
100
AcDbArc
 50
181.4048408018327
 51
193.5442267319215
  0
ARC
  5
2CE
330
1F
100
AcDbEntity
  8
1
  6
Continuous
 62
     1
100
AcDbCircle
 10
-1327.01345640647
 20
-2506.14033656535
 30
0.0
 40
7.599999999397686
100
AcDbArc
 50
265.4508563396742
 51
28.83146253853063
  0
ARC
  5
2CF
330
1F
100
AcDbEntity
  8
1
  6
Continuous
 62
     1
100
AcDbCircle
 10
-989.956295000141
 20
-2320.60049602019
 30
0.0
 40
377.1499999802912
100
AcDbArc
 50
174.812095896849
 51
208.8314625391417
  0
ARC
  5
2D0
330
1F
100
AcDbEntity
  8
1
  6
Continuous
 62
     1
100
AcDbCircle
 10
-6004.01945204569
 20
-1233.3783595603
 30
0.0
 40
4756.506529468775
100
AcDbArc
 50
346.5673023387384
 51
349.5477221869023
  0
ARC
  5
2D1
330
1F
100
AcDbEntity
  8
1
  6
Continuous
 62
     1
100
AcDbCircle
 10
-1557.57722844599
 20
-2189.84003513514
 30
0.0
 40
324.1170968514695
100
AcDbArc
 50
241.3049905829916
 51
274.0962810660071
  0
ARC
  5
2D2
330
1F
100
AcDbEntity
  8
1
  6
Continuous
 62
     1
100
AcDbCircle
 10
-1687.28765749802
 20
-2020.9546708002
 30
0.0
 40
249.8499999963415
100
AcDbArc
 50
277.1938223031493
 51
316.8872255161638
  0
ARC
  5
2D3
330
1F
100
AcDbEntity
  8
1
  6
Continuous
 62
     1
100
AcDbCircle
 10
-1324.33305831616
 20
-2042.7717279751
 30
0.0
 40
4.750000001333325
100
AcDbArc
 50
355.7800228948697
 51
98.82193935749574
  0
ARC
  5
2D4
330
1F
100
AcDbEntity
  8
1
  6
Continuous
 62
     1
100
AcDbCircle
 10
-1811.30921912941
 20
-2006.83972206392
 30
0.0
 40
493.0500002565193
100
AcDbArc
 50
349.5477221975094
 51
355.7800229067619
  0
ARC
  5
2D5
330
1F
100
AcDbEntity
  8
1
  6
Continuous
 62
     1
100
AcDbCircle
 10
-1183.73639897412
 20
-2948.6763266642
 30
0.0
 40
921.5000000251783
100
AcDbArc
 50
98.82193936068971
 51
104.0109329450891
  0
ARC
  5
2D6
330
1F
100
AcDbEntity
  8
1
  6
Continuous
 62
     1
100
AcDbCircle
 10
-1631.54968380197
 20
-1154.0542538865
 30
0.0
 40
928.1499998854682
100
AcDbArc
 50
274.5632877458719
 51
284.0109329512767
  0
ARC
  5
2D7
330
1F
100
AcDbEntity
  8
1
  6
Continuous
 62
     1
100
AcDbCircle
 10
-1972.07739534984
 20
-2050.8566439421
 30
0.0
 40
16.1500000003702
100
AcDbArc
 50
88.19045661544564
 51
181.404840777346
  0
ARC
  5
2D8
330
1F
100
AcDbEntity
  8
1
  6
Continuous
 62
     1
100
AcDbCircle
 10
-2058.53272061572
 20
-4787.39129322134
 30
0.0
 40
2754.049999995374
100
AcDbArc
 50
78.57155955917388
 51
88.19045661443921
  0
ARC
  5
2D9
330
1F
100
AcDbEntity
  8
1
  6
Continuous
 62
     7
100
AcDbCircle
 10
-465.05426344186
 20
-2383.58416798355
 30
0.0
 40
148.1999999953019
100
AcDbArc
 50
183.4727846054896
 51
196.5127098035119
  0
ARC
  5
2DA
330
1F
100
AcDbEntity
  8
1
  6
Continuous
 62
     7
100
AcDbCircle
 10
-519.389588307524
 20
-4787.39129321945
 30
0.0
 40
2773.049999998181
100
AcDbArc
 50
91.04972203900836
 51
100.4254105791721
  0
ARC
  5
2DB
330
1F
100
AcDbEntity
  8
1
  6
Continuous
 62
     7
100
AcDbCircle
 10
-2309.63263846616
 20
-2009.07293306011
 30
0.0
 40
1739.449999999938
100
AcDbArc
 50
347.2636363065297
 51
359.8111354766841
  0
ARC
  5
2DC
330
1F
100
AcDbEntity
  8
1
  6
Continuous
 62
     7
100
AcDbCircle
 10
3426.09714312239
 20
-1233.3783595584
 30
0.0
 40
4775.506529468661
100
AcDbArc
 50
190.452277813168
 51
192.7762707511041
  0
ARC
  5
2DD
330
1F
100
AcDbEntity
  8
1
  6
Continuous
 62
     7
100
AcDbCircle
 10
-766.61308980484
 20
-2006.83972197655
 30
0.0
 40
512.0500002606576
100
AcDbArc
 50
180.9474734919854
 51
190.4522778131674
  0
ARC
  5
2DE
330
1F
100
AcDbEntity
  8
1
  6
Continuous
 62
     7
100
AcDbCircle
 10
-1394.18591003279
 20
-2948.67632664541
 30
0.0
 40
940.500000029049
100
AcDbArc
 50
75.98906704916504
 51
82.94017018401252
  0
ARC
  5
2DF
330
1F
100
AcDbEntity
  8
1
  6
Continuous
 62
     7
100
AcDbCircle
 10
-946.372625121281
 20
-1154.05425388461
 30
0.0
 40
909.1499998853959
100
AcDbArc
 50
255.9890670491647
 51
265.2797159845809
  0
ARC
  5
2E0
330
1F
100
AcDbEntity
  8
1
  6
Continuous
 62
     7
100
AcDbCircle
 10
-1250.90885251677
 20
-2506.14033656345
 30
0.0
 40
26.59999998825936
100
AcDbArc
 50
151.1685374637503
 51
195.2325475956218
  0
ARC
  5
2E1
330
1F
100
AcDbEntity
  8
1
  6
Continuous
 62
     7
100
AcDbCircle
 10
-1587.96601392722
 20
-2320.60049603796
 30
0.0
 40
358.1499999861325
100
AcDbArc
 50
331.1685374637312
 51
5.18790410607012
  0
ARC
  5
2E2
330
1F
100
AcDbEntity
  8
1
  6
Continuous
 62
     1
100
AcDbCircle
 10
-465.054263444934
 20
-2383.58416797112
 30
0.0
 40
167.1999999978279
100
AcDbArc
 50
182.5156322893191
 51
204.5700878906702
  0
ARC
  5
2E3
330
1F
100
AcDbEntity
  8
1
  6
Continuous
 62
     1
100
AcDbCircle
 10
-2309.63263846616
 20
-2009.07293306011
 30
0.0
 40
1720.449999999905
100
AcDbArc
 50
346.4557732680788
 51
358.5951591981674
  0
ARC
  5
2E4
330
1F
100
AcDbEntity
  8
1
  6
Continuous
 62
     1
100
AcDbCircle
 10
-897.78251889994
 20
-2189.84003513325
 30
0.0
 40
324.1170968510185
100
AcDbArc
 50
241.3049905831375
 51
274.0962810661725
  0
ARC
  5
2E5
330
1F
100
AcDbEntity
  8
1
  6
Continuous
 62
     1
100
AcDbCircle
 10
-1250.90885251677
 20
-2506.14033656345
 30
0.0
 40
7.599999988076283
100
AcDbArc
 50
151.1685374611588
 51
274.5491436600052
  0
ARC
  5
2E6
330
1F
100
AcDbEntity
  8
1
  6
Continuous
 62
     1
100
AcDbCircle
 10
-1587.96601392722
 20
-2320.60049603796
 30
0.0
 40
377.1499999863155
100
AcDbArc
 50
331.1685374637844
 51
5.18790410607009
  0
ARC
  5
2E7
330
1F
100
AcDbEntity
  8
1
  6
Continuous
 62
     1
100
AcDbCircle
 10
-1253.58925060709
 20
-2042.7717279732
 30
0.0
 40
4.750000008778986
100
AcDbArc
 50
81.17806063410609
 51
184.2199770984784
  0
ARC
  5
2E8
330
1F
100
AcDbEntity
  8
1
  6
Continuous
 62
     1
100
AcDbCircle
 10
-766.61308980484
 20
-2006.83972197655
 30
0.0
 40
493.0500002594471
100
AcDbArc
 50
184.2199771031733
 51
190.452277812491
  0
ARC
  5
2E9
330
1F
100
AcDbEntity
  8
1
  6
Continuous
 62
     1
100
AcDbCircle
 10
3426.09714312239
 20
-1233.3783595584
 30
0.0
 40
4756.506529469224
100
AcDbArc
 50
190.4522778130979
 51
193.4326976612618
  0
ARC
  5
2EA
330
1F
100
AcDbEntity
  8
1
  6
Continuous
 62
     1
100
AcDbCircle
 10
-1394.18591003279
 20
-2948.67632664541
 30
0.0
 40
921.5000000290266
100
AcDbArc
 50
75.98906704961291
 51
81.1780606339658
  0
ARC
  5
2EB
330
1F
100
AcDbEntity
  8
1
  6
Continuous
 62
     1
100
AcDbCircle
 10
-946.372625121281
 20
-1154.05425388461
 30
0.0
 40
928.1499998854183
100
AcDbArc
 50
255.98906704872
 51
265.4367122541286
  0
ARC
  5
2EC
330
1F
100
AcDbEntity
  8
1
  6
Continuous
 62
     1
100
AcDbCircle
 10
-605.844913573404
 20
-2050.85664394021
 30
0.0
 40
16.15000000284271
100
AcDbArc
 50
358.5951592226537
 51
91.80954338444207
  0
ARC
  5
2ED
330
1F
100
AcDbEntity
  8
1
  6
Continuous
 62
     1
100
AcDbCircle
 10
-519.389588307524
 20
-4787.39129321945
 30
0.0
 40
2754.049999998382
100
AcDbArc
 50
91.80954338556013
 51
101.4284404408142
  0
ARC
  5
2EE
330
1F
100
AcDbEntity
  8
1
  6
Continuous
 62
     1
100
AcDbCircle
 10
-1027.49294795103
 20
-2020.95467079831
 30
0.0
 40
249.8499999963414
100
AcDbArc
 50
277.1938223031492
 51
316.8872255161568
  0
ARC
  5
2EF
330
1F
100
AcDbEntity
  8
1
  6
Continuous
 62
     7
100
AcDbCircle
 10
-495.926852252947
 20
-2229.48374843597
 30
0.0
 40
30.00000000000001
100
AcDbArc
 50
340.5307112232339
 51
90.0
  0
ARC
  5
2F0
330
1F
100
AcDbEntity
  8
1
  6
Continuous
 62
     7
100
AcDbCircle
 10
-528.961001873014
 20
-2239.48374843597
 30
0.0
 40
40.0
100
AcDbArc
 50
90.0
 51
180.0
  0
ARC
  5
2F1
330
1F
100
AcDbEntity
  8
1
  6
Continuous
 62
     7
100
AcDbCircle
 10
-2048.9613070488
 20
-2239.48374843597
 30
0.0
 40
39.99999999999977
100
AcDbArc
 50
0.0
 51
90.0
  0
ARC
  5
2F2
330
1F
100
AcDbEntity
  8
1
  6
Continuous
 62
     7
100
AcDbCircle
 10
-2081.99545666886
 20
-2229.48374843597
 30
0.0
 40
30.0
100
AcDbArc
 50
90.0
 51
199.4692887767621
  0
ARC
  5
2F3
330
1F
100
AcDbEntity
  8
1
  6
Continuous
 62
     7
100
AcDbCircle
 10
3918.00454333114
 20
-2229.48374843597
 30
0.0
 40
30.0
100
AcDbArc
 50
90.0
 51
199.4692887767621
  0
ARC
  5
2F4
330
1F
100
AcDbEntity
  8
1
  6
Continuous
 62
     7
100
AcDbCircle
 10
3951.0386929512
 20
-2239.48374843597
 30
0.0
 40
40.0
100
AcDbArc
 50
0.0
 51
90.0
  0
ARC
  5
2F5
330
1F
100
AcDbEntity
  8
1
  6
Continuous
 62
     7
100
AcDbCircle
 10
5951.03899812699
 20
-2239.48374843597
 30
0.0
 40
40.0
100
AcDbArc
 50
90.0
 51
180.0
  0
ARC
  5
2F6
330
1F
100
AcDbEntity
  8
1
  6
Continuous
 62
     7
100
AcDbCircle
 10
5984.07314774705
 20
-2229.48374843597
 30
0.0
 40
30.0000000000059
100
AcDbArc
 50
340.5307112232379
 51
90.0
  0
ARC
  5
2F7
330
1F
100
AcDbEntity
  8
1
  6
Continuous
 62
     7
100
AcDbCircle
 10
918.004543331137
 20
-2229.48374843597
 30
0.0
 40
30.0
100
AcDbArc
 50
90.0
 51
199.4692887767661
  0
ARC
  5
2F8
330
1F
100
AcDbEntity
  8
1
  6
Continuous
 62
     7
100
AcDbCircle
 10
951.038692951204
 20
-2239.48374843597
 30
0.0
 40
40.0
100
AcDbArc
 50
0.0
 51
90.0
  0
ARC
  5
2F9
330
1F
100
AcDbEntity
  8
1
  6
Continuous
 62
     7
100
AcDbCircle
 10
2711.03899812699
 20
-2239.48374843597
 30
0.0
 40
40.0
100
AcDbArc
 50
90.0
 51
180.0
  0
ARC
  5
2FA
330
1F
100
AcDbEntity
  8
1
  6
Continuous
 62
     7
100
AcDbCircle
 10
2744.07314774705
 20
-2229.48374843597
 30
0.0
 40
30.0000000000059
100
AcDbArc
 50
340.5307112232379
 51
90.0
  0
ARC
  5
2FB
330
1F
100
AcDbEntity
  8
1
  6
Continuous
 62
     7
100
AcDbCircle
 10
9224.07314774705
 20
-2229.48374843597
 30
0.0
 40
30.00000000000419
100
AcDbArc
 50
340.5307112232367
 51
90.0
  0
ARC
  5
2FC
330
1F
100
AcDbEntity
  8
1
  6
Continuous
 62
     7
100
AcDbCircle
 10
9191.03899812699
 20
-2239.48374843597
 30
0.0
 40
40.0
100
AcDbArc
 50
90.0
 51
180.0
  0
ARC
  5
2FD
330
1F
100
AcDbEntity
  8
1
  6
Continuous
 62
     7
100
AcDbCircle
 10
6951.0386929512
 20
-2239.48374843597
 30
0.0
 40
40.0
100
AcDbArc
 50
0.0
 51
90.0
  0
ARC
  5
2FE
330
1F
100
AcDbEntity
  8
1
  6
Continuous
 62
     7
100
AcDbCircle
 10
6918.00454333114
 20
-2229.48374843597
 30
0.0
 40
30.0
100
AcDbArc
 50
90.0
 51
199.4692887767627
  0
ARC
  5
2FF
330
1F
100
AcDbEntity
  8
1
  6
Continuous
 62
     7
100
AcDbCircle
 10
-6012.4468649297
 20
387.5194940567071
 30
0.0
 40
1276.999999999997
100
AcDbArc
 50
257.629946748767
 51
273.7883770289139
  0
ARC
  5
300
330
1F
100
AcDbEntity
  8
1
  6
Continuous
 62
     7
100
AcDbCircle
 10
-5688.27678815366
 20
-2138.176207219103
 30
0.0
 40
1274.252690396546
100
AcDbArc
 50
84.55617611497301
 51
100.8469525990055
  0
ARC
  5
301
330
1F
100
AcDbEntity
  8
1
  6
Continuous
 62
     1
100
AcDbCircle
 10
-5688.27678815366
 20
-2138.176207219103
 30
0.0
 40
1294.252690396548
100
AcDbArc
 50
86.0382012470352
 51
100.7919175638602
  0
ARC
  5
302
330
1F
100
AcDbEntity
  8
1
  6
Continuous
 62
     1
100
AcDbCircle
 10
-6012.4468649297
 20
387.5194940567071
 30
0.0
 40
1256.999999999997
100
AcDbArc
 50
259.1624572111125
 51
275.4109594410801
  0
ARC
  5
303
330
1F
100
AcDbEntity
  8
1
  6
Continuous
 62
     1
100
AcDbCircle
 10
-6329.77160588319
 20
-3120.691242725034
 30
0.0
 40
2754.049999995385
100
AcDbArc
 50
78.57155955917393
 51
88.19045661443921
  0
ARC
  5
304
330
1F
100
AcDbEntity
  8
1
  6
Continuous
 62
     1
100
AcDbCircle
 10
-6243.31628061731
 20
-384.1565934457931
 30
0.0
 40
16.15000000036982
100
AcDbArc
 50
88.19045661544398
 51
181.4048407773501
  0
ARC
  5
305
330
1F
100
AcDbEntity
  8
1
  6
Continuous
 62
     1
100
AcDbCircle
 10
-5902.78856906943
 20
512.6457966098069
 30
0.0
 40
928.1499998854678
100
AcDbArc
 50
274.5632877458713
 51
284.0109329512768
  0
ARC
  5
306
330
1F
100
AcDbEntity
  8
1
  6
Continuous
 62
     1
100
AcDbCircle
 10
-5454.97528424159
 20
-1281.976276167893
 30
0.0
 40
921.5000000251762
100
AcDbArc
 50
98.82193936068907
 51
104.0109329450884
  0
ARC
  5
307
330
1F
100
AcDbEntity
  8
1
  6
Continuous
 62
     1
100
AcDbCircle
 10
-6082.54810439688
 20
-340.1396715676137
 30
0.0
 40
493.0500002565298
100
AcDbArc
 50
349.5477221975096
 51
355.780022906762
  0
ARC
  5
308
330
1F
100
AcDbEntity
  8
1
  6
Continuous
 62
     1
100
AcDbCircle
 10
-5595.57194358362
 20
-376.0716774787834
 30
0.0
 40
4.750000001334079
100
AcDbArc
 50
355.7800228947465
 51
98.82193935751197
  0
ARC
  5
309
330
1F
100
AcDbEntity
  8
1
  6
Continuous
 62
     1
100
AcDbCircle
 10
-5958.52654276548
 20
-354.2546203038937
 30
0.0
 40
249.8499999963411
100
AcDbArc
 50
277.1938223031494
 51
316.887225516164
  0
ARC
  5
30A
330
1F
100
AcDbEntity
  8
1
  6
Continuous
 62
     1
100
AcDbCircle
 10
-5828.81611371345
 20
-523.1399846388331
 30
0.0
 40
324.1170968514746
100
AcDbArc
 50
241.3049905829901
 51
274.0962810660071
  0
ARC
  5
30B
330
1F
100
AcDbEntity
  8
1
  6
Continuous
 62
     1
100
AcDbCircle
 10
-10275.2583373131
 20
433.3216909360162
 30
0.0
 40
4756.506529468717
100
AcDbArc
 50
346.5673023387383
 51
349.5477221869021
  0
ARC
  5
30C
330
1F
100
AcDbEntity
  8
1
  6
Continuous
 62
     1
100
AcDbCircle
 10
-5261.19518026761
 20
-653.9004455238837
 30
0.0
 40
377.1499999802817
100
AcDbArc
 50
174.8120958968487
 51
208.8314625391409
  0
ARC
  5
30D
330
1F
100
AcDbEntity
  8
1
  6
Continuous
 62
     1
100
AcDbCircle
 10
-5598.25234167394
 20
-839.4402860690334
 30
0.0
 40
7.599999999406448
100
AcDbArc
 50
265.4508563397517
 51
28.83146253849891
  0
ARC
  5
30E
330
1F
100
AcDbEntity
  8
1
  6
Continuous
 62
     1
100
AcDbCircle
 10
-6249.52681439834
 20
-840.4514601419933
 30
0.0
 40
6.650000017123084
100
AcDbArc
 50
155.9870826060163
 51
276.3251399372665
  0
ARC
  5
30F
330
1F
100
AcDbEntity
  8
1
  6
Continuous
 62
     1
100
AcDbCircle
 10
-3969.86600178181
 20
-1856.037744759294
 30
0.0
 40
2502.299999933176
100
AcDbArc
 50
154.7398340232195
 51
155.9870825153762
  0
ARC
  5
310
330
1F
100
AcDbEntity
  8
1
  6
Continuous
 62
     1
100
AcDbCircle
 10
-4539.52855572461
 20
-342.3728825656935
 30
0.0
 40
1720.449999999463
100
AcDbArc
 50
181.4048408018327
 51
193.5442267319216
  0
ARC
  5
311
330
1F
100
AcDbEntity
  8
1
  6
Continuous
 62
     1
100
AcDbCircle
 10
-6384.10693074891
 20
-716.8841174891331
 30
0.0
 40
167.1999999961535
100
AcDbArc
 50
334.739834023115
 51
357.4843677149124
  0
ARC
  5
312
330
1F
100
AcDbEntity
  8
1
  6
Continuous
 62
     7
100
AcDbCircle
 10
-6384.10693074891
 20
-716.8841174891331
 30
0.0
 40
148.1999999958919
100
AcDbArc
 50
334.7398340232136
 51
356.5272153942338
  0
ARC
  5
313
330
1F
100
AcDbEntity
  8
1
  6
Continuous
 62
     7
100
AcDbCircle
 10
-3969.86600178181
 20
-1856.037744759294
 30
0.0
 40
2521.299999933437
100
AcDbArc
 50
154.7398340232129
 51
156.7268501405733
  0
ARC
  5
314
330
1F
100
AcDbEntity
  8
1
  6
Continuous
 62
     7
100
AcDbCircle
 10
-6329.77160588319
 20
-3120.691242725034
 30
0.0
 40
2773.049999997423
100
AcDbArc
 50
79.57458942089004
 51
88.95027796099043
  0
ARC
  5
315
330
1F
100
AcDbEntity
  8
1
  6
Continuous
 62
     7
100
AcDbCircle
 10
-4539.52855572461
 20
-342.3728825656935
 30
0.0
 40
1739.449999999841
100
AcDbArc
 50
180.1888645233409
 51
192.7363636934983
  0
ARC
  5
316
330
1F
100
AcDbEntity
  8
1
  6
Continuous
 62
     7
100
AcDbCircle
 10
-10275.2583373131
 20
433.3216909360162
 30
0.0
 40
4775.506529470351
100
AcDbArc
 50
347.2237292497887
 51
349.5477221868319
  0
ARC
  5
317
330
1F
100
AcDbEntity
  8
1
  6
Continuous
 62
     7
100
AcDbCircle
 10
-6082.54810439216
 20
-340.1396715450937
 30
0.0
 40
512.0500002570986
100
AcDbArc
 50
349.5477221938879
 51
359.0525265149297
  0
ARC
  5
318
330
1F
100
AcDbEntity
  8
1
  6
Continuous
 62
     7
100
AcDbCircle
 10
-5454.97528415792
 20
-1281.976276150994
 30
0.0
 40
940.5000000290357
100
AcDbArc
 50
97.05982981652966
 51
104.0109329508351
  0
ARC
  5
319
330
1F
100
AcDbEntity
  8
1
  6
Continuous
 62
     7
100
AcDbCircle
 10
-5902.78856906943
 20
512.6457966098069
 30
0.0
 40
909.1499998854059
100
AcDbArc
 50
274.7202840152225
 51
284.0109329508352
  0
ARC
  5
31A
330
1F
100
AcDbEntity
  8
1
  6
Continuous
 62
     7
100
AcDbCircle
 10
-5261.19518026349
 20
-653.9004455435434
 30
0.0
 40
358.1499999744113
100
AcDbArc
 50
175.0112821162184
 51
213.9903473590937
  0
ARC
  5
31B
330
1F
100
AcDbEntity
  8
1
  6
Continuous
 62
     7
100
AcDbCircle
 10
-5566.44004071334
 20
-859.7158911498336
 30
0.0
 40
10.0000000000025
100
AcDbArc
 50
264.5561761149786
 51
33.99034735907124
  0
ARC
  5
31C
330
1F
100
AcDbEntity
  8
1
  6
Continuous
 62
     5
100
AcDbCircle
 10
11318.75358210664
 20
-767.5069261465032
 30
0.0
 40
3.0
100
AcDbArc
 50
0.0
 51
90.0
  0
ARC
  5
31D
330
1F
100
AcDbEntity
  8
1
  6
Continuous
 62
     5
100
AcDbCircle
 10
11353.58032137529
 20
-732.5069261465032
 30
0.0
 40
3.000000000002517
100
AcDbArc
 50
359.9824189699594
 51
90.0
  0
ARC
  5
31E
330
1F
100
AcDbEntity
  8
1
  6
Continuous
 62
     5
100
AcDbCircle
 10
10910.75358210664
 20
-767.5069261465032
 30
0.0
 40
3.0
100
AcDbArc
 50
90.0
 51
180.0
  0
ARC
  5
31F
330
1F
100
AcDbEntity
  8
1
  6
Continuous
 62
     5
100
AcDbCircle
 10
10875.92684283799
 20
-732.5069261465032
 30
0.0
 40
3.0
100
AcDbArc
 50
90.0
 51
180.0175810300406
  0
ARC
  5
320
330
1F
100
AcDbEntity
  8
1
  6
Continuous
 62
     7
100
AcDbCircle
 10
10902.92646281792
 20
-517.6687383651588
 30
0.0
 40
30.0
100
AcDbArc
 50
180.0
 51
270.0
  0
ARC
  5
321
330
1F
100
AcDbEntity
  8
1
  6
Continuous
 62
     7
100
AcDbCircle
 10
10902.92646281792
 20
-507.6687383651588
 30
0.0
 40
30.0
100
AcDbArc
 50
90.0
 51
180.0
  0
ARC
  5
322
330
1F
100
AcDbEntity
  8
1
  6
Continuous
 62
     7
100
AcDbCircle
 10
11326.56297286924
 20
-517.6687383651588
 30
0.0
 40
30.0
100
AcDbArc
 50
270.0
 51
0.0
  0
ARC
  5
323
330
1F
100
AcDbEntity
  8
1
  6
Continuous
 62
     7
100
AcDbCircle
 10
11326.56297286924
 20
-507.6687383651588
 30
0.0
 40
30.0
100
AcDbArc
 50
0.0
 51
90.0
  0
ARC
  5
324
330
1F
100
AcDbEntity
  8
1
  6
Continuous
 62
     5
100
AcDbCircle
 10
12455.69432197241
 20
-779.1411208216377
 30
0.0
 40
49.49985755514366
100
AcDbArc
 50
72.36024617728451
 51
107.6397538227396
  0
ARC
  5
325
330
1F
100
AcDbEntity
  8
1
  6
Continuous
 62
     5
100
AcDbCircle
 10
11925.6943219724
 20
-779.1411208216596
 30
0.0
 40
49.49985755516777
100
AcDbArc
 50
72.36024617728012
 51
107.6397538227199
  0
ARC
  5
326
330
1F
100
AcDbEntity
  8
1
  6
Continuous
 62
     7
100
AcDbCircle
 10
-3932.88840000453
 20
-530.103606777784
 30
0.0
 40
50.0
100
AcDbArc
 50
0.0
 51
15.99961691493854
  0
ARC
  5
327
330
1F
100
AcDbEntity
  8
1
  6
Continuous
 62
     7
100
AcDbCircle
 10
-3862.88840000453
 20
-219.483748435973
 30
0.0
 40
20.0
100
AcDbArc
 50
90.0
 51
180.0
  0
ARC
  5
328
330
1F
100
AcDbEntity
  8
1
  6
Continuous
 62
     7
100
AcDbCircle
 10
-3132.89083353261
 20
-219.483748435973
 30
0.0
 40
20.0
100
AcDbArc
 50
0.0
 51
90.0
  0
ARC
  5
329
330
1F
100
AcDbEntity
  8
1
  6
Continuous
 62
     7
100
AcDbCircle
 10
-3932.48938355392
 20
-219.483748435973
 30
0.0
 40
20.0
100
AcDbArc
 50
90.0
 51
195.9996169149419
  0
ARC
  5
32A
330
1F
100
AcDbEntity
  8
1
  6
Continuous
 62
     7
100
AcDbCircle
 10
-3919.10118364655
 20
-219.483748435973
 30
0.0
 40
20.00000000000678
100
AcDbArc
 50
32.17773930172064
 51
90.0
  0
ARC
  5
32B
330
1F
100
AcDbEntity
  8
0
  6
Continuous
 62
     7
100
AcDbCircle
 10
7457.47460222244
 20
2212.41053485871
 30
0.0
 40
555.6028842066277
100
AcDbArc
 50
160.1288736966769
 51
179.8910203147532
  0
ARC
  5
32C
330
1F
100
AcDbEntity
  8
0
  6
Continuous
 62
     7
100
AcDbCircle
 10
6446.1077580452
 20
2592.82835865021
 30
0.0
 40
525.0396998301418
100
AcDbArc
 50
338.6006943805443
 51
1.16102777515001
  0
ARC
  5
32D
330
1F
100
AcDbEntity
  8
0
  6
Continuous
 62
     7
100
AcDbCircle
 10
7457.47460222244
 20
2214.52387714387
 30
0.0
 40
555.6028842066344
100
AcDbArc
 50
180.1089796852468
 51
199.8711263033241
  0
ARC
  5
32E
330
1F
100
AcDbEntity
  8
0
  6
Continuous
 62
     7
100
AcDbCircle
 10
6446.1077580452
 20
1834.10605335236
 30
0.0
 40
525.0396998301409
100
AcDbArc
 50
358.8389722248511
 51
21.39930561945679
  0
ARC
  5
32F
330
1F
100
AcDbEntity
  8
0
  6
Continuous
 62
     7
100
AcDbCircle
 10
8759.95884752274
 20
2117.05597782136
 30
0.0
 40
555.6028842066276
100
AcDbArc
 50
70.12887369667679
 51
89.89102031475305
  0
ARC
  5
330
330
1F
100
AcDbEntity
  8
0
  6
Continuous
 62
     7
100
AcDbCircle
 10
9140.37667131424
 20
3128.4228219986
 30
0.0
 40
525.0396998301447
100
AcDbArc
 50
248.6006943805433
 51
271.161027775149
  0
ARC
  5
331
330
1F
100
AcDbEntity
  8
0
  6
Continuous
 62
     7
100
AcDbCircle
 10
7382.09523057938
 20
2117.05597782136
 30
0.0
 40
555.6028842066244
100
AcDbArc
 50
90.10897968524678
 51
109.8711263033235
  0
ARC
  5
332
330
1F
100
AcDbEntity
  8
0
  6
Continuous
 62
     7
100
AcDbCircle
 10
7001.67740678787
 20
3128.4228219986
 30
0.0
 40
525.0396998301511
100
AcDbArc
 50
268.8389722248523
 51
291.3993056194576
  0
ARC
  5
333
330
1F
100
AcDbEntity
  8
0
  6
Continuous
 62
     7
100
AcDbCircle
 10
8684.60331773758
 20
2212.41101169587
 30
0.0
 40
555.6028321935111
100
AcDbArc
 50
0.10903717808718
 51
19.87118379616364
  0
ARC
  5
334
330
1F
100
AcDbEntity
  8
0
  6
Continuous
 62
     7
100
AcDbCircle
 10
9695.96968507767
 20
2592.82978916169
 30
0.0
 40
525.0396893193706
100
AcDbArc
 50
178.839028822273
 51
201.399362216879
  0
ARC
  5
335
330
1F
100
AcDbEntity
  8
0
  6
Continuous
 62
     7
100
AcDbCircle
 10
8684.60331773758
 20
2214.52435398102
 30
0.0
 40
555.6028801645468
100
AcDbArc
 50
340.1289291002333
 51
359.8910757183095
  0
ARC
  5
336
330
1F
100
AcDbEntity
  8
0
  6
Continuous
 62
     7
100
AcDbCircle
 10
9695.97016191483
 20
1834.10748386384
 30
0.0
 40
525.0397103603158
100
AcDbArc
 50
158.6007510795755
 51
181.1610844741805
  0
ARC
  5
337
330
1F
100
AcDbEntity
  8
0
  6
Continuous
 62
     7
100
AcDbCircle
 10
6455.97016191483
 20
1834.10748386384
 30
0.0
 40
525.0397103603141
100
AcDbArc
 50
158.6007510795754
 51
181.1610844741805
  0
ARC
  5
338
330
1F
100
AcDbEntity
  8
0
  6
Continuous
 62
     7
100
AcDbCircle
 10
5444.60331773758
 20
2214.52435398102
 30
0.0
 40
555.6028801645374
100
AcDbArc
 50
340.128929100233
 51
359.8910757183095
  0
ARC
  5
339
330
1F
100
AcDbEntity
  8
0
  6
Continuous
 62
     7
100
AcDbCircle
 10
6455.96968507768
 20
2592.82978916169
 30
0.0
 40
525.0396893193806
100
AcDbArc
 50
178.839028822273
 51
201.3993622168787
  0
ARC
  5
33A
330
1F
100
AcDbEntity
  8
0
  6
Continuous
 62
     7
100
AcDbCircle
 10
5444.60331773758
 20
2212.41101169587
 30
0.0
 40
555.6028321935111
100
AcDbArc
 50
0.10903717808718
 51
19.87118379616371
  0
ARC
  5
33B
330
1F
100
AcDbEntity
  8
0
  6
Continuous
 62
     7
100
AcDbCircle
 10
4001.67740678787
 20
3128.4228219986
 30
0.0
 40
525.0396998301513
100
AcDbArc
 50
268.8389722248511
 51
291.3993056194574
  0
ARC
  5
33C
330
1F
100
AcDbEntity
  8
0
  6
Continuous
 62
     7
100
AcDbCircle
 10
4382.09523057938
 20
2117.05597782136
 30
0.0
 40
555.6028842066244
100
AcDbArc
 50
90.10897968524678
 51
109.8711263033235
  0
ARC
  5
33D
330
1F
100
AcDbEntity
  8
0
  6
Continuous
 62
     7
100
AcDbCircle
 10
5900.37667131424
 20
3128.4228219986
 30
0.0
 40
525.0396998301454
100
AcDbArc
 50
248.6006943805431
 51
271.1610277751489
  0
ARC
  5
33E
330
1F
100
AcDbEntity
  8
0
  6
Continuous
 62
     7
100
AcDbCircle
 10
5519.95884752273
 20
2117.05597782136
 30
0.0
 40
555.602884206634
100
AcDbArc
 50
70.12887369667493
 51
89.89102031475221
  0
ARC
  5
33F
330
1F
100
AcDbEntity
  8
0
  6
Continuous
 62
     7
100
AcDbCircle
 10
3446.10775804521
 20
1834.10605335236
 30
0.0
 40
525.0396998301313
100
AcDbArc
 50
358.838972224851
 51
21.39930561945721
  0
ARC
  5
340
330
1F
100
AcDbEntity
  8
0
  6
Continuous
 62
     7
100
AcDbCircle
 10
4457.47460222244
 20
2214.52387714387
 30
0.0
 40
555.6028842066244
100
AcDbArc
 50
180.1089796852468
 51
199.8711263033241
  0
ARC
  5
341
330
1F
100
AcDbEntity
  8
0
  6
Continuous
 62
     7
100
AcDbCircle
 10
3446.10775804521
 20
2592.82835865021
 30
0.0
 40
525.039699830132
100
AcDbArc
 50
338.6006943805438
 51
1.16102777515003
  0
ARC
  5
342
330
1F
100
AcDbEntity
  8
0
  6
Continuous
 62
     7
100
AcDbCircle
 10
4457.47460222244
 20
2212.41053485871
 30
0.0
 40
555.6028842066273
100
AcDbArc
 50
160.1288736966769
 51
179.8910203147532
  0
ARC
  5
343
330
1F
100
AcDbEntity
  8
0
  6
Continuous
 62
     7
100
AcDbCircle
 10
1457.47460222244
 20
2212.41053485871
 30
0.0
 40
555.6028842066237
100
AcDbArc
 50
160.1288736966767
 51
179.8910203147532
  0
ARC
  5
344
330
1F
100
AcDbEntity
  8
0
  6
Continuous
 62
     7
100
AcDbCircle
 10
446.107758045205
 20
2592.82835865021
 30
0.0
 40
525.0396998301406
100
AcDbArc
 50
338.6006943805442
 51
1.16102777515001
  0
ARC
  5
345
330
1F
100
AcDbEntity
  8
0
  6
Continuous
 62
     7
100
AcDbCircle
 10
1457.47460222244
 20
2214.52387714387
 30
0.0
 40
555.6028842066295
100
AcDbArc
 50
180.1089796852468
 51
199.8711263033241
  0
ARC
  5
346
330
1F
100
AcDbEntity
  8
0
  6
Continuous
 62
     7
100
AcDbCircle
 10
446.107758045205
 20
1834.10605335236
 30
0.0
 40
525.0396998301404
100
AcDbArc
 50
358.8389722248511
 51
21.399305619457
  0
ARC
  5
347
330
1F
100
AcDbEntity
  8
0
  6
Continuous
 62
     7
100
AcDbCircle
 10
2279.95884752274
 20
2117.05597782136
 30
0.0
 40
555.6028842066307
100
AcDbArc
 50
70.1288736966759
 51
89.89102031475319
  0
ARC
  5
348
330
1F
100
AcDbEntity
  8
0
  6
Continuous
 62
     7
100
AcDbCircle
 10
2660.37667131424
 20
3128.4228219986
 30
0.0
 40
525.0396998301452
100
AcDbArc
 50
248.6006943805432
 51
271.16102777515
  0
ARC
  5
349
330
1F
100
AcDbEntity
  8
0
  6
Continuous
 62
     7
100
AcDbCircle
 10
1382.09523057938
 20
2117.05597782136
 30
0.0
 40
555.6028842066244
100
AcDbArc
 50
90.10897968524684
 51
109.8711263033235
  0
ARC
  5
34A
330
1F
100
AcDbEntity
  8
0
  6
Continuous
 62
     7
100
AcDbCircle
 10
1001.67740678787
 20
3128.4228219986
 30
0.0
 40
525.0396998301512
100
AcDbArc
 50
268.8389722248515
 51
291.3993056194574
  0
ARC
  5
34B
330
1F
100
AcDbEntity
  8
0
  6
Continuous
 62
     7
100
AcDbCircle
 10
2204.60331773758
 20
2212.41101169587
 30
0.0
 40
555.6028321935111
100
AcDbArc
 50
0.10903717808718
 51
19.87118379616367
  0
ARC
  5
34C
330
1F
100
AcDbEntity
  8
0
  6
Continuous
 62
     7
100
AcDbCircle
 10
3215.96968507768
 20
2592.82978916169
 30
0.0
 40
525.0396893193802
100
AcDbArc
 50
178.839028822273
 51
201.3993622168787
  0
ARC
  5
34D
330
1F
100
AcDbEntity
  8
0
  6
Continuous
 62
     7
100
AcDbCircle
 10
2204.60331773758
 20
2214.52435398102
 30
0.0
 40
555.6028801645374
100
AcDbArc
 50
340.128929100233
 51
359.8910757183095
  0
ARC
  5
34E
330
1F
100
AcDbEntity
  8
0
  6
Continuous
 62
     7
100
AcDbCircle
 10
3215.97016191483
 20
1834.10748386384
 30
0.0
 40
525.0397103603145
100
AcDbArc
 50
158.6007510795754
 51
181.1610844741805
  0
ARC
  5
34F
330
1F
100
AcDbEntity
  8
0
  6
Continuous
 62
     7
100
AcDbCircle
 10
-24.0298380851755
 20
1834.10748386384
 30
0.0
 40
525.0397103603045
100
AcDbArc
 50
158.600751079575
 51
181.1610844741805
  0
ARC
  5
350
330
1F
100
AcDbEntity
  8
0
  6
Continuous
 62
     7
100
AcDbCircle
 10
-1035.39668226242
 20
2214.52435398102
 30
0.0
 40
555.6028801645421
100
AcDbArc
 50
340.1289291002332
 51
359.8910757183095
  0
ARC
  5
351
330
1F
100
AcDbEntity
  8
0
  6
Continuous
 62
     7
100
AcDbCircle
 10
-24.0303149223255
 20
2592.82978916169
 30
0.0
 40
525.0396893193707
100
AcDbArc
 50
178.839028822273
 51
201.399362216879
  0
ARC
  5
352
330
1F
100
AcDbEntity
  8
0
  6
Continuous
 62
     7
100
AcDbCircle
 10
-1035.39668226242
 20
2212.41101169587
 30
0.0
 40
555.602832193515
100
AcDbArc
 50
0.10903717808718
 51
19.87118379616368
  0
ARC
  5
353
330
1F
100
AcDbEntity
  8
0
  6
Continuous
 62
     7
100
AcDbCircle
 10
-1998.32259321213
 20
3128.4228219986
 30
0.0
 40
525.0396998301513
100
AcDbArc
 50
268.8389722248511
 51
291.3993056194574
  0
ARC
  5
354
330
1F
100
AcDbEntity
  8
0
  6
Continuous
 62
     7
100
AcDbCircle
 10
-1617.90476942062
 20
2117.05597782136
 30
0.0
 40
555.6028842066244
100
AcDbArc
 50
90.10897968524684
 51
109.8711263033235
  0
ARC
  5
355
330
1F
100
AcDbEntity
  8
0
  6
Continuous
 62
     7
100
AcDbCircle
 10
-579.623328685756
 20
3128.4228219986
 30
0.0
 40
525.0396998301452
100
AcDbArc
 50
248.6006943805432
 51
271.161027775149
  0
ARC
  5
356
330
1F
100
AcDbEntity
  8
0
  6
Continuous
 62
     7
100
AcDbCircle
 10
-960.041152477265
 20
2117.05597782136
 30
0.0
 40
555.6028842066304
100
AcDbArc
 50
70.12887369667598
 51
89.89102031475316
  0
ARC
  5
357
330
1F
100
AcDbEntity
  8
0
  6
Continuous
 62
     7
100
AcDbCircle
 10
-2553.89224195479
 20
1834.10605335236
 30
0.0
 40
525.0396998301311
100
AcDbArc
 50
358.838972224851
 51
21.39930561945721
  0
ARC
  5
358
330
1F
100
AcDbEntity
  8
0
  6
Continuous
 62
     7
100
AcDbCircle
 10
-1542.52539777756
 20
2214.52387714387
 30
0.0
 40
555.6028842066244
100
AcDbArc
 50
180.1089796852468
 51
199.8711263033241
  0
ARC
  5
359
330
1F
100
AcDbEntity
  8
0
  6
Continuous
 62
     7
100
AcDbCircle
 10
-2553.89224195479
 20
2592.82835865021
 30
0.0
 40
525.039699830132
100
AcDbArc
 50
338.6006943805438
 51
1.16102777515003
  0
ARC
  5
35A
330
1F
100
AcDbEntity
  8
0
  6
Continuous
 62
     7
100
AcDbCircle
 10
-1542.52539777756
 20
2212.41053485871
 30
0.0
 40
555.6028842066273
100
AcDbArc
 50
160.1288736966769
 51
179.8910203147532
  0
ARC
  5
35B
330
1F
100
AcDbEntity
  8
1
  6
Continuous
 62
     7
100
AcDbCircle
 10
-3624.08622418012
 20
-72.5945937304405
 30
0.0
 40
307.943906504438
100
AcDbArc
 50
172.9514487302242
 51
212.8161720869099
  0
ARC
  5
35C
330
1F
100
AcDbEntity
  8
1
  6
Continuous
 62
     7
100
AcDbCircle
 10
-3662.00489893339
 20
-22.0864006615343
 30
0.0
 40
268.0000000000048
100
AcDbArc
 50
178.443476572466
 51
221.4472629267148
  0
ARC
  5
35D
330
1F
100
AcDbEntity
  8
1
  6
Continuous
 62
     7
100
AcDbCircle
 10
-4258.15727682831
 20
-493.010064901548
 30
0.0
 40
576.0000000000032
100
AcDbArc
 50
30.63681000937938
 51
53.416553191251
  0
ARC
  5
35E
330
1F
100
AcDbEntity
  8
1
  6
Continuous
 62
     1
100
AcDbCircle
 10
-3662.00489893339
 20
-22.0864006615343
 30
0.0
 40
253.000000000002
100
AcDbArc
 50
181.9030225837181
 51
224.5213737119022
  0
ENDSEC
  0
SECTION
  2
OBJECTS
  0
DICTIONARY
  5
C
330
0
100
AcDbDictionary
281
     1
  3
ACAD_GROUP
350
D
  3
ACAD_LAYOUT
350
1A
  3
ACAD_MATERIAL
350
3B
  3
ACAD_MLEADERSTYLE
350
361
  3
ACAD_MLINESTYLE
350
17
  3
ACAD_PLOTSETTINGS
350
19
  3
ACAD_PLOTSTYLENAME
350
E
  3
ACAD_VISUALSTYLE
350
2A
  3
AcDbVariableDictionary
350
35F
  0
DICTIONARY
  5
D
102
{ACAD_REACTORS
330
C
102
}
330
C
100
AcDbDictionary
281
     1
  0
DICTIONARY
  5
1A
102
{ACAD_REACTORS
330
C
102
}
330
C
100
AcDbDictionary
281
     1
  3
Layout1
350
1E
  3
Layout2
350
26
  3
Model
350
22
  0
DICTIONARY
  5
3B
102
{ACAD_REACTORS
330
C
102
}
330
C
100
AcDbDictionary
281
     1
  3
ByBlock
350
3D
  3
ByLayer
350
3C
  3
Global
350
3E
  0
DICTIONARY
  5
361
102
{ACAD_REACTORS
330
C
102
}
330
C
100
AcDbDictionary
281
     1
  0
DICTIONARY
  5
17
102
{ACAD_REACTORS
330
C
102
}
330
C
100
AcDbDictionary
281
     1
  3
Standard
350
18
  0
DICTIONARY
  5
19
102
{ACAD_REACTORS
330
C
102
}
330
C
100
AcDbDictionary
281
     1
  0
ACDBDICTIONARYWDFLT
  5
E
102
{ACAD_REACTORS
330
C
102
}
330
C
100
AcDbDictionary
281
     1
  3
Normal
350
F
100
AcDbDictionaryWithDefault
340
F
  0
DICTIONARY
  5
2A
102
{ACAD_REACTORS
330
C
102
}
330
C
100
AcDbDictionary
281
     1
  3
2dWireframe
350
2F
  3
3D Hidden
350
31
  3
3dWireframe
350
30
  3
Basic
350
32
  3
Brighten
350
36
  3
ColorChange
350
3A
  3
Conceptual
350
34
  3
Dim
350
35
  3
Facepattern
350
39
  3
Flat
350
2B
  3
FlatWithEdges
350
2C
  3
Gouraud
350
2D
  3
GouraudWithEdges
350
2E
  3
Linepattern
350
38
  3
Realistic
350
33
  3
Thicken
350
37
  0
DICTIONARY
  5
35F
102
{ACAD_REACTORS
330
C
102
}
330
C
100
AcDbDictionary
281
     1
  3
DIMASSOC
350
362
  3
HIDETEXT
350
363
  0
LAYOUT
  5
1E
102
{ACAD_REACTORS
330
1A
102
}
330
1A
100
AcDbPlotSettings
  1

  2
none_device
  4

  6

 40
0.0
 41
0.0
 42
0.0
 43
0.0
 44
0.0
 45
0.0
 46
0.0
 47
0.0
 48
0.0
 49
0.0
140
0.0
141
0.0
142
1.0
143
1.0
 70
   688
 72
     0
 73
     0
 74
     5
  7

 75
    16
147
1.0
148
0.0
149
0.0
100
AcDbLayout
  1
Layout1
 70
     1
 71
     1
 10
0.0
 20
0.0
 11
12.0
 21
9.0
 12
0.0
 22
0.0
 32
0.0
 14
1.00000000000000E+20
 24
1.00000000000000E+20
 34
1.00000000000000E+20
 15
-1.00000000000000E+20
 25
-1.00000000000000E+20
 35
-1.00000000000000E+20
146
0.0
 13
0.0
 23
0.0
 33
0.0
 16
1.0
 26
0.0
 36
0.0
 17
0.0
 27
1.0
 37
0.0
 76
     0
330
1B
  0
LAYOUT
  5
26
102
{ACAD_REACTORS
330
1A
102
}
330
1A
100
AcDbPlotSettings
  1

  2
none_device
  4

  6

 40
0.0
 41
0.0
 42
0.0
 43
0.0
 44
0.0
 45
0.0
 46
0.0
 47
0.0
 48
0.0
 49
0.0
140
0.0
141
0.0
142
1.0
143
1.0
 70
   688
 72
     0
 73
     0
 74
     5
  7

 75
    16
147
1.0
148
0.0
149
0.0
100
AcDbLayout
  1
Layout2
 70
     1
 71
     2
 10
0.0
 20
0.0
 11
0.0
 21
0.0
 12
0.0
 22
0.0
 32
0.0
 14
0.0
 24
0.0
 34
0.0
 15
0.0
 25
0.0
 35
0.0
146
0.0
 13
0.0
 23
0.0
 33
0.0
 16
1.0
 26
0.0
 36
0.0
 17
0.0
 27
1.0
 37
0.0
 76
     0
330
23
  0
LAYOUT
  5
22
102
{ACAD_REACTORS
330
1A
102
}
330
1A
100
AcDbPlotSettings
  1

  2
none_device
  4

  6

 40
0.0
 41
0.0
 42
0.0
 43
0.0
 44
0.0
 45
0.0
 46
0.0
 47
0.0
 48
0.0
 49
0.0
140
0.0
141
0.0
142
1.0
143
1.0
 70
  1712
 72
     0
 73
     0
 74
     0
  7

 75
     0
147
1.0
148
0.0
149
0.0
100
AcDbLayout
  1
Model
 70
     1
 71
     0
 10
0.0
 20
0.0
 11
12.0
 21
9.0
 12
0.0
 22
0.0
 32
0.0
 14
-6286.01196157465
 24
-2889.48050594329
 34
0.0
 15
12640.6943217956
 25
2672.65805149079
 35
0.0
146
0.0
 13
0.0
 23
0.0
 33
0.0
 16
1.0
 26
0.0
 36
0.0
 17
0.0
 27
1.0
 37
0.0
 76
     0
330
1F
331
29
  0
MATERIAL
  5
3D
102
{ACAD_REACTORS
330
3B
102
}
102
{ACAD_XDICTIONARY
360
386
102
}
330
3B
100
AcDbMaterial
  1
ByBlock
  0
MATERIAL
  5
3C
102
{ACAD_REACTORS
330
3B
102
}
102
{ACAD_XDICTIONARY
360
384
102
}
330
3B
100
AcDbMaterial
  1
ByLayer
  0
MATERIAL
  5
3E
102
{ACAD_REACTORS
330
3B
102
}
102
{ACAD_XDICTIONARY
360
388
102
}
330
3B
100
AcDbMaterial
  1
Global
  0
MLINESTYLE
  5
18
102
{ACAD_REACTORS
330
17
102
}
330
17
100
AcDbMlineStyle
  2
Standard
 70
     0
  3

 62
   256
 51
90.0
 52
90.0
 71
     2
 49
0.5
 62
   256
  6
BYLAYER
 49
-0.5
 62
   256
  6
BYLAYER
  0
ACDBPLACEHOLDER
  5
F
102
{ACAD_REACTORS
330
E
102
}
330
E
  0
VISUALSTYLE
  5
2F
102
{ACAD_REACTORS
330
2A
102
}
102
{ACAD_XDICTIONARY
360
36C
102
}
330
2A
100
AcDbVisualStyle
  2
2dWireframe
 70
     4
 71
     0
 72
     2
 73
     0
 90
        0
 40
-0.6
 41
-30.0
 62
     5
 63
     7
 74
     1
 91
        4
 64
     7
 65
   257
 75
     1
175
     1
 42
1.0
 92
        0
 66
   257
 43
1.0
 76
     1
 77
     6
 78
     2
 67
     7
 79
     5
170
     0
171
     0
290
     0
174
     0
 93
        1
 44
0.0
173
     0
291
     0
 45
0.0
1001
ACAD
1000
AcDbSavedByObjectVersion
1070
     0
  0
VISUALSTYLE
  5
31
102
{ACAD_REACTORS
330
2A
102
}
102
{ACAD_XDICTIONARY
360
370
102
}
330
2A
100
AcDbVisualStyle
  2
3D Hidden
 70
     6
 71
     1
 72
     2
 73
     2
 90
        0
 40
-0.6
 41
-30.0
 62
     5
 63
     7
 74
     2
 91
        2
 64
     7
 65
   257
 75
     2
175
     1
 42
40.0
 92
        0
 66
   257
 43
1.0
 76
     1
 77
     6
 78
     2
 67
     7
 79
     3
170
     0
171
     0
290
     0
174
     0
 93
        1
 44
0.0
173
     0
291
     0
 45
0.0
1001
ACAD
1000
AcDbSavedByObjectVersion
1070
     0
  0
VISUALSTYLE
  5
30
102
{ACAD_REACTORS
330
2A
102
}
102
{ACAD_XDICTIONARY
360
36E
102
}
330
2A
100
AcDbVisualStyle
  2
3dWireframe
 70
     5
 71
     0
 72
     2
 73
     0
 90
        0
 40
-0.6
 41
-30.0
 62
     5
 63
     7
 74
     1
 91
        4
 64
     7
 65
   257
 75
     1
175
     1
 42
1.0
 92
        0
 66
   257
 43
1.0
 76
     1
 77
     6
 78
     2
 67
     7
 79
     5
170
     0
171
     0
290
     0
174
     0
 93
        1
 44
0.0
173
     0
291
     0
 45
0.0
1001
ACAD
1000
AcDbSavedByObjectVersion
1070
     0
  0
VISUALSTYLE
  5
32
102
{ACAD_REACTORS
330
2A
102
}
102
{ACAD_XDICTIONARY
360
372
102
}
330
2A
100
AcDbVisualStyle
  2
Basic
 70
     7
 71
     1
 72
     0
 73
     1
 90
        0
 40
-0.6
 41
-30.0
 62
     5
 63
     7
 74
     0
 91
        4
 64
     7
 65
   257
 75
     1
175
     1
 42
1.0
 92
        8
 66
     7
 43
1.0
 76
     1
 77
     6
 78
     2
 67
     7
 79
     5
170
     0
171
     0
290
     0
174
     0
 93
        1
 44
0.0
173
     0
291
     1
 45
0.0
1001
ACAD
1000
AcDbSavedByObjectVersion
1070
     0
  0
VISUALSTYLE
  5
36
102
{ACAD_REACTORS
330
2A
102
}
102
{ACAD_XDICTIONARY
360
37A
102
}
330
2A
100
AcDbVisualStyle
  2
Brighten
 70
    12
 71
     2
 72
     2
 73
     0
 90
        0
 40
-0.6
 41
-30.0
 62
     5
 63
     7
 74
     1
 91
        4
 64
     7
 65
   257
 75
     1
175
     1
 42
1.0
 92
        8
 66
     7
 43
1.0
 76
     1
 77
     6
 78
     2
 67
     7
 79
     5
170
     0
171
     0
290
     0
174
     0
 93
        1
 44
50.0
173
     0
291
     1
 45
0.0
1001
ACAD
1000
AcDbSavedByObjectVersion
1070
     0
  0
VISUALSTYLE
  5
3A
102
{ACAD_REACTORS
330
2A
102
}
102
{ACAD_XDICTIONARY
360
382
102
}
330
2A
100
AcDbVisualStyle
  2
ColorChange
 70
    16
 71
     2
 72
     2
 73
     3
 90
        0
 40
-0.6
 41
-30.0
 62
     5
 63
     8
 74
     1
 91
        4
 64
     7
 65
   257
 75
     1
175
     1
 42
1.0
 92
        8
 66
     8
 43
1.0
 76
     1
 77
     6
 78
     2
 67
     7
 79
     5
170
     0
171
     0
290
     0
174
     0
 93
        1
 44
0.0
173
     0
291
     1
 45
0.0
1001
ACAD
1000
AcDbSavedByObjectVersion
1070
     0
  0
VISUALSTYLE
  5
34
102
{ACAD_REACTORS
330
2A
102
}
102
{ACAD_XDICTIONARY
360
376
102
}
330
2A
100
AcDbVisualStyle
  2
Conceptual
 70
     9
 71
     3
 72
     2
 73
     0
 90
        0
 40
-0.6
 41
-30.0
 62
     5
 63
     7
 74
     2
 91
        2
 64
     7
 65
   257
 75
     1
175
     1
 42
40.0
 92
        8
 66
     7
 43
1.0
 76
     1
 77
     6
 78
     2
 67
     7
 79
     3
170
     0
171
     0
290
     0
174
     0
 93
        1
 44
0.0
173
     0
291
     0
 45
0.0
1001
ACAD
1000
AcDbSavedByObjectVersion
1070
     0
  0
VISUALSTYLE
  5
35
102
{ACAD_REACTORS
330
2A
102
}
102
{ACAD_XDICTIONARY
360
378
102
}
330
2A
100
AcDbVisualStyle
  2
Dim
 70
    11
 71
     2
 72
     2
 73
     0
 90
        0
 40
-0.6
 41
-30.0
 62
     5
 63
     7
 74
     1
 91
        4
 64
     7
 65
   257
 75
     1
175
     1
 42
1.0
 92
        8
 66
     7
 43
1.0
 76
     1
 77
     6
 78
     2
 67
     7
 79
     5
170
     0
171
     0
290
     0
174
     0
 93
        1
 44
-50.0
173
     0
291
     1
 45
0.0
1001
ACAD
1000
AcDbSavedByObjectVersion
1070
     0
  0
VISUALSTYLE
  5
39
102
{ACAD_REACTORS
330
2A
102
}
102
{ACAD_XDICTIONARY
360
380
102
}
330
2A
100
AcDbVisualStyle
  2
Facepattern
 70
    15
 71
     2
 72
     2
 73
     0
 90
        0
 40
-0.6
 41
-30.0
 62
     5
 63
     7
 74
     1
 91
        4
 64
     7
 65
   257
 75
     1
175
     1
 42
1.0
 92
        8
 66
     7
 43
1.0
 76
     1
 77
     6
 78
     2
 67
     7
 79
     5
170
     0
171
     0
290
     0
174
     0
 93
        1
 44
0.0
173
     0
291
     1
 45
0.0
1001
ACAD
1000
AcDbSavedByObjectVersion
1070
     0
  0
VISUALSTYLE
  5
2B
102
{ACAD_REACTORS
330
2A
102
}
102
{ACAD_XDICTIONARY
360
364
102
}
330
2A
100
AcDbVisualStyle
  2
Flat
 70
     0
 71
     2
 72
     1
 73
     1
 90
        2
 40
-0.6
 41
30.0
 62
     5
 63
     7
 74
     0
 91
        4
 64
     7
 65
   257
 75
     1
175
     1
 42
1.0
 92
        8
 66
     7
 43
1.0
 76
     1
 77
     6
 78
     2
 67
     7
 79
     5
170
     0
171
     0
290
     0
174
     0
 93
       13
 44
0.0
173
     0
291
     1
 45
0.0
1001
ACAD
1000
AcDbSavedByObjectVersion
1070
     0
  0
VISUALSTYLE
  5
2C
102
{ACAD_REACTORS
330
2A
102
}
102
{ACAD_XDICTIONARY
360
366
102
}
330
2A
100
AcDbVisualStyle
  2
FlatWithEdges
 70
     1
 71
     2
 72
     1
 73
     1
 90
        2
 40
-0.6
 41
30.0
 62
     5
 63
     7
 74
     1
 91
        4
 64
     7
 65
   257
 75
     1
175
     1
 42
1.0
 92
        0
 66
   257
 43
1.0
 76
     1
 77
     6
 78
     2
 67
     7
 79
     5
170
     0
171
     0
290
     0
174
     0
 93
       13
 44
0.0
173
     0
291
     1
 45
0.0
1001
ACAD
1000
AcDbSavedByObjectVersion
1070
     0
  0
VISUALSTYLE
  5
2D
102
{ACAD_REACTORS
330
2A
102
}
102
{ACAD_XDICTIONARY
360
368
102
}
330
2A
100
AcDbVisualStyle
  2
Gouraud
 70
     2
 71
     2
 72
     2
 73
     1
 90
        2
 40
-0.6
 41
30.0
 62
     5
 63
     7
 74
     0
 91
        4
 64
     7
 65
   257
 75
     1
175
     1
 42
1.0
 92
        0
 66
     7
 43
1.0
 76
     1
 77
     6
 78
     2
 67
     7
 79
     5
170
     0
171
     0
290
     0
174
     0
 93
       13
 44
0.0
173
     0
291
     1
 45
0.0
1001
ACAD
1000
AcDbSavedByObjectVersion
1070
     0
  0
VISUALSTYLE
  5
2E
102
{ACAD_REACTORS
330
2A
102
}
102
{ACAD_XDICTIONARY
360
36A
102
}
330
2A
100
AcDbVisualStyle
  2
GouraudWithEdges
 70
     3
 71
     2
 72
     2
 73
     1
 90
        2
 40
-0.6
 41
30.0
 62
     5
 63
     7
 74
     1
 91
        4
 64
     7
 65
   257
 75
     1
175
     1
 42
1.0
 92
        0
 66
   257
 43
1.0
 76
     1
 77
     6
 78
     2
 67
     7
 79
     5
170
     0
171
     0
290
     0
174
     0
 93
       13
 44
0.0
173
     0
291
     1
 45
0.0
1001
ACAD
1000
AcDbSavedByObjectVersion
1070
     0
  0
VISUALSTYLE
  5
38
102
{ACAD_REACTORS
330
2A
102
}
102
{ACAD_XDICTIONARY
360
37E
102
}
330
2A
100
AcDbVisualStyle
  2
Linepattern
 70
    14
 71
     2
 72
     2
 73
     0
 90
        0
 40
-0.6
 41
-30.0
 62
     5
 63
     7
 74
     1
 91
        4
 64
     7
 65
   257
 75
     7
175
     7
 42
1.0
 92
        8
 66
     7
 43
1.0
 76
     1
 77
     6
 78
     2
 67
     7
 79
     5
170
     0
171
     0
290
     0
174
     0
 93
        1
 44
0.0
173
     0
291
     1
 45
0.0
1001
ACAD
1000
AcDbSavedByObjectVersion
1070
     0
  0
VISUALSTYLE
  5
33
102
{ACAD_REACTORS
330
2A
102
}
102
{ACAD_XDICTIONARY
360
374
102
}
330
2A
100
AcDbVisualStyle
  2
Realistic
 70
     8
 71
     2
 72
     2
 73
     0
 90
        0
 40
-0.6
 41
-30.0
 62
     5
 63
     7
 74
     1
 91
        0
 64
     7
 65
   257
 75
     1
175
     1
 42
1.0
 92
        8
 66
     8
 43
1.0
 76
     1
 77
     6
 78
     2
 67
     7
 79
     5
170
     0
171
     0
290
     0
174
     0
 93
       13
 44
0.0
173
     0
291
     0
 45
0.0
1001
ACAD
1000
AcDbSavedByObjectVersion
1070
     0
  0
VISUALSTYLE
  5
37
102
{ACAD_REACTORS
330
2A
102
}
102
{ACAD_XDICTIONARY
360
37C
102
}
330
2A
100
AcDbVisualStyle
  2
Thicken
 70
    13
 71
     2
 72
     2
 73
     0
 90
        0
 40
-0.6
 41
-30.0
 62
     5
 63
     7
 74
     1
 91
        4
 64
     7
 65
   257
 75
     1
175
     1
 42
1.0
 92
       12
 66
     7
 43
1.0
 76
     1
 77
     6
 78
     2
 67
     7
 79
     5
170
     0
171
     0
290
     0
174
     0
 93
        1
 44
0.0
173
     0
291
     1
 45
0.0
1001
ACAD
1000
AcDbSavedByObjectVersion
1070
     0
  0
DICTIONARYVAR
  5
362
102
{ACAD_REACTORS
330
35F
102
}
330
35F
100
DictionaryVariables
280
     0
  1
2
  0
DICTIONARYVAR
  5
363
102
{ACAD_REACTORS
330
35F
102
}
330
35F
100
DictionaryVariables
280
     0
  1
1
  0
DICTIONARY
  5
386
330
3D
100
AcDbDictionary
280
     1
281
     1
  3
ACAD_XREC_ROUNDTRIP
360
387
  0
DICTIONARY
  5
384
330
3C
100
AcDbDictionary
280
     1
281
     1
  3
ACAD_XREC_ROUNDTRIP
360
385
  0
DICTIONARY
  5
388
330
3E
100
AcDbDictionary
280
     1
281
     1
  3
ACAD_XREC_ROUNDTRIP
360
389
  0
DICTIONARY
  5
36C
330
2F
100
AcDbDictionary
280
     1
281
     1
  3
ACAD_XREC_ROUNDTRIP
360
36D
  0
DICTIONARY
  5
370
330
31
100
AcDbDictionary
280
     1
281
     1
  3
ACAD_XREC_ROUNDTRIP
360
371
  0
DICTIONARY
  5
36E
330
30
100
AcDbDictionary
280
     1
281
     1
  3
ACAD_XREC_ROUNDTRIP
360
36F
  0
DICTIONARY
  5
372
330
32
100
AcDbDictionary
280
     1
281
     1
  3
ACAD_XREC_ROUNDTRIP
360
373
  0
DICTIONARY
  5
37A
330
36
100
AcDbDictionary
280
     1
281
     1
  3
ACAD_XREC_ROUNDTRIP
360
37B
  0
DICTIONARY
  5
382
330
3A
100
AcDbDictionary
280
     1
281
     1
  3
ACAD_XREC_ROUNDTRIP
360
383
  0
DICTIONARY
  5
376
330
34
100
AcDbDictionary
280
     1
281
     1
  3
ACAD_XREC_ROUNDTRIP
360
377
  0
DICTIONARY
  5
378
330
35
100
AcDbDictionary
280
     1
281
     1
  3
ACAD_XREC_ROUNDTRIP
360
379
  0
DICTIONARY
  5
380
330
39
100
AcDbDictionary
280
     1
281
     1
  3
ACAD_XREC_ROUNDTRIP
360
381
  0
DICTIONARY
  5
364
330
2B
100
AcDbDictionary
280
     1
281
     1
  3
ACAD_XREC_ROUNDTRIP
360
365
  0
DICTIONARY
  5
366
330
2C
100
AcDbDictionary
280
     1
281
     1
  3
ACAD_XREC_ROUNDTRIP
360
367
  0
DICTIONARY
  5
368
330
2D
100
AcDbDictionary
280
     1
281
     1
  3
ACAD_XREC_ROUNDTRIP
360
369
  0
DICTIONARY
  5
36A
330
2E
100
AcDbDictionary
280
     1
281
     1
  3
ACAD_XREC_ROUNDTRIP
360
36B
  0
DICTIONARY
  5
37E
330
38
100
AcDbDictionary
280
     1
281
     1
  3
ACAD_XREC_ROUNDTRIP
360
37F
  0
DICTIONARY
  5
374
330
33
100
AcDbDictionary
280
     1
281
     1
  3
ACAD_XREC_ROUNDTRIP
360
375
  0
DICTIONARY
  5
37C
330
37
100
AcDbDictionary
280
     1
281
     1
  3
ACAD_XREC_ROUNDTRIP
360
37D
  0
XRECORD
  5
387
102
{ACAD_REACTORS
330
386
102
}
330
386
100
AcDbXrecord
280
     1
102
MATERIAL
148
0.0
149
0.0
149
0.0
 93
        0
 94
      127
282
     0
 72
     1
 77
     1
171
     1
175
     1
179
     1
273
     0
  0
XRECORD
  5
385
102
{ACAD_REACTORS
330
384
102
}
330
384
100
AcDbXrecord
280
     1
102
MATERIAL
148
0.0
149
0.0
149
0.0
 93
        0
 94
      127
282
     0
 72
     1
 77
     1
171
     1
175
     1
179
     1
273
     0
  0
XRECORD
  5
389
102
{ACAD_REACTORS
330
388
102
}
330
388
100
AcDbXrecord
280
     1
102
MATERIAL
148
0.0
149
0.0
149
0.0
 93
        0
 94
      127
282
     0
 72
     1
 77
     1
171
     1
175
     1
179
     1
273
     0
  0
XRECORD
  5
36D
102
{ACAD_REACTORS
330
36C
102
}
330
36C
100
AcDbXrecord
280
     1
102
RTVSPropertyOp0
 70
     1
102
RTVSPropertyOp1
 70
     1
102
RTVSPropertyOp2
 70
     1
102
RTVSPropertyOp3
 70
     1
102
RTVSPropertyOp4
 70
     1
102
RTVSPropertyOp5
 70
     1
102
RTVSPropertyOp6
 70
     1
102
RTVSPropertyOp7
 70
     1
102
RTVSPropertyOp8
 70
     1
102
RTVSPropertyOp9
 70
     1
102
RTVSPropertyOp10
 70
     1
102
RTVSPropertyOp11
 70
     1
102
RTVSPropertyOp12
 70
     1
102
RTVSPropertyOp13
 70
     1
102
RTVSPropertyOp14
 70
     1
102
RTVSPropertyOp15
 70
     1
102
RTVSPropertyOp16
 70
     1
102
RTVSPropertyOp17
 70
     1
102
RTVSPropertyOp18
 70
     1
102
RTVSPropertyOp19
 70
     1
102
RTVSPropertyOp20
 70
     1
102
RTVSPropertyOp21
 70
     1
102
RTVSPropertyOp22
 70
     1
102
RTVSPropertyOp23
 70
     1
102
RTVSPropertyOp24
 70
     1
102
RTVSPropertyOp25
 70
     1
102
RTVSPropertyOp26
 70
     1
102
RTVSPropertyOp27
 70
     1
  0
XRECORD
  5
371
102
{ACAD_REACTORS
330
370
102
}
330
370
100
AcDbXrecord
280
     1
102
RTVSPropertyOp0
 70
     1
102
RTVSPropertyOp1
 70
     1
102
RTVSPropertyOp2
 70
     1
102
RTVSPropertyOp3
 70
     1
102
RTVSPropertyOp4
 70
     1
102
RTVSPropertyOp5
 70
     1
102
RTVSPropertyOp6
 70
     1
102
RTVSPropertyOp7
 70
     1
102
RTVSPropertyOp8
 70
     1
102
RTVSPropertyOp9
 70
     1
102
RTVSPropertyOp10
 70
     1
102
RTVSPropertyOp11
 70
     1
102
RTVSPropertyOp12
 70
     1
102
RTVSPropertyOp13
 70
     1
102
RTVSPropertyOp14
 70
     1
102
RTVSPropertyOp15
 70
     1
102
RTVSPropertyOp16
 70
     1
102
RTVSPropertyOp17
 70
     1
102
RTVSPropertyOp18
 70
     1
102
RTVSPropertyOp19
 70
     1
102
RTVSPropertyOp20
 70
     1
102
RTVSPropertyOp21
 70
     1
102
RTVSPropertyOp22
 70
     1
102
RTVSPropertyOp23
 70
     1
102
RTVSPropertyOp24
 70
     1
102
RTVSPropertyOp25
 70
     1
102
RTVSPropertyOp26
 70
     1
102
RTVSPropertyOp27
 70
     1
  0
XRECORD
  5
36F
102
{ACAD_REACTORS
330
36E
102
}
330
36E
100
AcDbXrecord
280
     1
102
RTVSPropertyOp0
 70
     1
102
RTVSPropertyOp1
 70
     1
102
RTVSPropertyOp2
 70
     1
102
RTVSPropertyOp3
 70
     1
102
RTVSPropertyOp4
 70
     1
102
RTVSPropertyOp5
 70
     1
102
RTVSPropertyOp6
 70
     1
102
RTVSPropertyOp7
 70
     1
102
RTVSPropertyOp8
 70
     1
102
RTVSPropertyOp9
 70
     1
102
RTVSPropertyOp10
 70
     1
102
RTVSPropertyOp11
 70
     1
102
RTVSPropertyOp12
 70
     1
102
RTVSPropertyOp13
 70
     1
102
RTVSPropertyOp14
 70
     1
102
RTVSPropertyOp15
 70
     1
102
RTVSPropertyOp16
 70
     1
102
RTVSPropertyOp17
 70
     1
102
RTVSPropertyOp18
 70
     1
102
RTVSPropertyOp19
 70
     1
102
RTVSPropertyOp20
 70
     1
102
RTVSPropertyOp21
 70
     1
102
RTVSPropertyOp22
 70
     1
102
RTVSPropertyOp23
 70
     1
102
RTVSPropertyOp24
 70
     1
102
RTVSPropertyOp25
 70
     1
102
RTVSPropertyOp26
 70
     1
102
RTVSPropertyOp27
 70
     1
  0
XRECORD
  5
373
102
{ACAD_REACTORS
330
372
102
}
330
372
100
AcDbXrecord
280
     1
102
RTVSPropertyOp0
 70
     1
102
RTVSPropertyOp1
 70
     1
102
RTVSPropertyOp2
 70
     1
102
RTVSPropertyOp3
 70
     1
102
RTVSPropertyOp4
 70
     1
102
RTVSPropertyOp5
 70
     1
102
RTVSPropertyOp6
 70
     1
102
RTVSPropertyOp7
 70
     1
102
RTVSPropertyOp8
 70
     1
102
RTVSPropertyOp9
 70
     1
102
RTVSPropertyOp10
 70
     1
102
RTVSPropertyOp11
 70
     1
102
RTVSPropertyOp12
 70
     1
102
RTVSPropertyOp13
 70
     1
102
RTVSPropertyOp14
 70
     1
102
RTVSPropertyOp15
 70
     1
102
RTVSPropertyOp16
 70
     1
102
RTVSPropertyOp17
 70
     1
102
RTVSPropertyOp18
 70
     1
102
RTVSPropertyOp19
 70
     1
102
RTVSPropertyOp20
 70
     1
102
RTVSPropertyOp21
 70
     1
102
RTVSPropertyOp22
 70
     1
102
RTVSPropertyOp23
 70
     1
102
RTVSPropertyOp24
 70
     1
102
RTVSPropertyOp25
 70
     1
102
RTVSPropertyOp26
 70
     1
102
RTVSPropertyOp27
 70
     1
  0
XRECORD
  5
37B
102
{ACAD_REACTORS
330
37A
102
}
330
37A
100
AcDbXrecord
280
     1
102
RTVSPropertyOp0
 70
     1
102
RTVSPropertyOp1
 70
     1
102
RTVSPropertyOp2
 70
     1
102
RTVSPropertyOp3
 70
     1
102
RTVSPropertyOp4
 70
     1
102
RTVSPropertyOp5
 70
     1
102
RTVSPropertyOp6
 70
     1
102
RTVSPropertyOp7
 70
     1
102
RTVSPropertyOp8
 70
     1
102
RTVSPropertyOp9
 70
     1
102
RTVSPropertyOp10
 70
     1
102
RTVSPropertyOp11
 70
     1
102
RTVSPropertyOp12
 70
     1
102
RTVSPropertyOp13
 70
     1
102
RTVSPropertyOp14
 70
     1
102
RTVSPropertyOp15
 70
     1
102
RTVSPropertyOp16
 70
     1
102
RTVSPropertyOp17
 70
     1
102
RTVSPropertyOp18
 70
     1
102
RTVSPropertyOp19
 70
     1
102
RTVSPropertyOp20
 70
     1
102
RTVSPropertyOp21
 70
     1
102
RTVSPropertyOp22
 70
     1
102
RTVSPropertyOp23
 70
     1
102
RTVSPropertyOp24
 70
     1
102
RTVSPropertyOp25
 70
     1
102
RTVSPropertyOp26
 70
     1
102
RTVSPropertyOp27
 70
     1
  0
XRECORD
  5
383
102
{ACAD_REACTORS
330
382
102
}
330
382
100
AcDbXrecord
280
     1
102
RTVSPropertyOp0
 70
     1
102
RTVSPropertyOp1
 70
     1
102
RTVSPropertyOp2
 70
     1
102
RTVSPropertyOp3
 70
     1
102
RTVSPropertyOp4
 70
     1
102
RTVSPropertyOp5
 70
     1
102
RTVSPropertyOp6
 70
     1
102
RTVSPropertyOp7
 70
     1
102
RTVSPropertyOp8
 70
     1
102
RTVSPropertyOp9
 70
     1
102
RTVSPropertyOp10
 70
     1
102
RTVSPropertyOp11
 70
     1
102
RTVSPropertyOp12
 70
     1
102
RTVSPropertyOp13
 70
     1
102
RTVSPropertyOp14
 70
     1
102
RTVSPropertyOp15
 70
     1
102
RTVSPropertyOp16
 70
     1
102
RTVSPropertyOp17
 70
     1
102
RTVSPropertyOp18
 70
     1
102
RTVSPropertyOp19
 70
     1
102
RTVSPropertyOp20
 70
     1
102
RTVSPropertyOp21
 70
     1
102
RTVSPropertyOp22
 70
     1
102
RTVSPropertyOp23
 70
     1
102
RTVSPropertyOp24
 70
     1
102
RTVSPropertyOp25
 70
     1
102
RTVSPropertyOp26
 70
     1
102
RTVSPropertyOp27
 70
     1
  0
XRECORD
  5
377
102
{ACAD_REACTORS
330
376
102
}
330
376
100
AcDbXrecord
280
     1
102
RTVSPropertyOp0
 70
     1
102
RTVSPropertyOp1
 70
     1
102
RTVSPropertyOp2
 70
     1
102
RTVSPropertyOp3
 70
     1
102
RTVSPropertyOp4
 70
     1
102
RTVSPropertyOp5
 70
     1
102
RTVSPropertyOp6
 70
     1
102
RTVSPropertyOp7
 70
     1
102
RTVSPropertyOp8
 70
     1
102
RTVSPropertyOp9
 70
     1
102
RTVSPropertyOp10
 70
     1
102
RTVSPropertyOp11
 70
     1
102
RTVSPropertyOp12
 70
     1
102
RTVSPropertyOp13
 70
     1
102
RTVSPropertyOp14
 70
     1
102
RTVSPropertyOp15
 70
     1
102
RTVSPropertyOp16
 70
     1
102
RTVSPropertyOp17
 70
     1
102
RTVSPropertyOp18
 70
     1
102
RTVSPropertyOp19
 70
     1
102
RTVSPropertyOp20
 70
     1
102
RTVSPropertyOp21
 70
     1
102
RTVSPropertyOp22
 70
     1
102
RTVSPropertyOp23
 70
     1
102
RTVSPropertyOp24
 70
     1
102
RTVSPropertyOp25
 70
     1
102
RTVSPropertyOp26
 70
     1
102
RTVSPropertyOp27
 70
     1
  0
XRECORD
  5
379
102
{ACAD_REACTORS
330
378
102
}
330
378
100
AcDbXrecord
280
     1
102
RTVSPropertyOp0
 70
     1
102
RTVSPropertyOp1
 70
     1
102
RTVSPropertyOp2
 70
     1
102
RTVSPropertyOp3
 70
     1
102
RTVSPropertyOp4
 70
     1
102
RTVSPropertyOp5
 70
     1
102
RTVSPropertyOp6
 70
     1
102
RTVSPropertyOp7
 70
     1
102
RTVSPropertyOp8
 70
     1
102
RTVSPropertyOp9
 70
     1
102
RTVSPropertyOp10
 70
     1
102
RTVSPropertyOp11
 70
     1
102
RTVSPropertyOp12
 70
     1
102
RTVSPropertyOp13
 70
     1
102
RTVSPropertyOp14
 70
     1
102
RTVSPropertyOp15
 70
     1
102
RTVSPropertyOp16
 70
     1
102
RTVSPropertyOp17
 70
     1
102
RTVSPropertyOp18
 70
     1
102
RTVSPropertyOp19
 70
     1
102
RTVSPropertyOp20
 70
     1
102
RTVSPropertyOp21
 70
     1
102
RTVSPropertyOp22
 70
     1
102
RTVSPropertyOp23
 70
     1
102
RTVSPropertyOp24
 70
     1
102
RTVSPropertyOp25
 70
     1
102
RTVSPropertyOp26
 70
     1
102
RTVSPropertyOp27
 70
     1
  0
XRECORD
  5
381
102
{ACAD_REACTORS
330
380
102
}
330
380
100
AcDbXrecord
280
     1
102
RTVSPropertyOp0
 70
     1
102
RTVSPropertyOp1
 70
     1
102
RTVSPropertyOp2
 70
     1
102
RTVSPropertyOp3
 70
     1
102
RTVSPropertyOp4
 70
     1
102
RTVSPropertyOp5
 70
     1
102
RTVSPropertyOp6
 70
     1
102
RTVSPropertyOp7
 70
     1
102
RTVSPropertyOp8
 70
     1
102
RTVSPropertyOp9
 70
     1
102
RTVSPropertyOp10
 70
     1
102
RTVSPropertyOp11
 70
     1
102
RTVSPropertyOp12
 70
     1
102
RTVSPropertyOp13
 70
     1
102
RTVSPropertyOp14
 70
     1
102
RTVSPropertyOp15
 70
     1
102
RTVSPropertyOp16
 70
     1
102
RTVSPropertyOp17
 70
     1
102
RTVSPropertyOp18
 70
     1
102
RTVSPropertyOp19
 70
     1
102
RTVSPropertyOp20
 70
     1
102
RTVSPropertyOp21
 70
     1
102
RTVSPropertyOp22
 70
     1
102
RTVSPropertyOp23
 70
     1
102
RTVSPropertyOp24
 70
     1
102
RTVSPropertyOp25
 70
     1
102
RTVSPropertyOp26
 70
     1
102
RTVSPropertyOp27
 70
     1
  0
XRECORD
  5
365
102
{ACAD_REACTORS
330
364
102
}
330
364
100
AcDbXrecord
280
     1
102
RTVSPropertyOp0
 70
     1
102
RTVSPropertyOp1
 70
     1
102
RTVSPropertyOp2
 70
     1
102
RTVSPropertyOp3
 70
     1
102
RTVSPropertyOp4
 70
     1
102
RTVSPropertyOp5
 70
     1
102
RTVSPropertyOp6
 70
     1
102
RTVSPropertyOp7
 70
     1
102
RTVSPropertyOp8
 70
     1
102
RTVSPropertyOp9
 70
     1
102
RTVSPropertyOp10
 70
     1
102
RTVSPropertyOp11
 70
     1
102
RTVSPropertyOp12
 70
     1
102
RTVSPropertyOp13
 70
     1
102
RTVSPropertyOp14
 70
     1
102
RTVSPropertyOp15
 70
     1
102
RTVSPropertyOp16
 70
     1
102
RTVSPropertyOp17
 70
     1
102
RTVSPropertyOp18
 70
     1
102
RTVSPropertyOp19
 70
     1
102
RTVSPropertyOp20
 70
     1
102
RTVSPropertyOp21
 70
     1
102
RTVSPropertyOp22
 70
     1
102
RTVSPropertyOp23
 70
     1
102
RTVSPropertyOp24
 70
     1
102
RTVSPropertyOp25
 70
     1
102
RTVSPropertyOp26
 70
     1
102
RTVSPropertyOp27
 70
     1
  0
XRECORD
  5
367
102
{ACAD_REACTORS
330
366
102
}
330
366
100
AcDbXrecord
280
     1
102
RTVSPropertyOp0
 70
     1
102
RTVSPropertyOp1
 70
     1
102
RTVSPropertyOp2
 70
     1
102
RTVSPropertyOp3
 70
     1
102
RTVSPropertyOp4
 70
     1
102
RTVSPropertyOp5
 70
     1
102
RTVSPropertyOp6
 70
     1
102
RTVSPropertyOp7
 70
     1
102
RTVSPropertyOp8
 70
     1
102
RTVSPropertyOp9
 70
     1
102
RTVSPropertyOp10
 70
     1
102
RTVSPropertyOp11
 70
     1
102
RTVSPropertyOp12
 70
     1
102
RTVSPropertyOp13
 70
     1
102
RTVSPropertyOp14
 70
     1
102
RTVSPropertyOp15
 70
     1
102
RTVSPropertyOp16
 70
     1
102
RTVSPropertyOp17
 70
     1
102
RTVSPropertyOp18
 70
     1
102
RTVSPropertyOp19
 70
     1
102
RTVSPropertyOp20
 70
     1
102
RTVSPropertyOp21
 70
     1
102
RTVSPropertyOp22
 70
     1
102
RTVSPropertyOp23
 70
     1
102
RTVSPropertyOp24
 70
     1
102
RTVSPropertyOp25
 70
     1
102
RTVSPropertyOp26
 70
     1
102
RTVSPropertyOp27
 70
     1
  0
XRECORD
  5
369
102
{ACAD_REACTORS
330
368
102
}
330
368
100
AcDbXrecord
280
     1
102
RTVSPropertyOp0
 70
     1
102
RTVSPropertyOp1
 70
     1
102
RTVSPropertyOp2
 70
     1
102
RTVSPropertyOp3
 70
     1
102
RTVSPropertyOp4
 70
     1
102
RTVSPropertyOp5
 70
     1
102
RTVSPropertyOp6
 70
     1
102
RTVSPropertyOp7
 70
     1
102
RTVSPropertyOp8
 70
     1
102
RTVSPropertyOp9
 70
     1
102
RTVSPropertyOp10
 70
     1
102
RTVSPropertyOp11
 70
     1
102
RTVSPropertyOp12
 70
     1
102
RTVSPropertyOp13
 70
     1
102
RTVSPropertyOp14
 70
     1
102
RTVSPropertyOp15
 70
     1
102
RTVSPropertyOp16
 70
     1
102
RTVSPropertyOp17
 70
     1
102
RTVSPropertyOp18
 70
     1
102
RTVSPropertyOp19
 70
     1
102
RTVSPropertyOp20
 70
     1
102
RTVSPropertyOp21
 70
     1
102
RTVSPropertyOp22
 70
     1
102
RTVSPropertyOp23
 70
     1
102
RTVSPropertyOp24
 70
     1
102
RTVSPropertyOp25
 70
     1
102
RTVSPropertyOp26
 70
     1
102
RTVSPropertyOp27
 70
     1
  0
XRECORD
  5
36B
102
{ACAD_REACTORS
330
36A
102
}
330
36A
100
AcDbXrecord
280
     1
102
RTVSPropertyOp0
 70
     1
102
RTVSPropertyOp1
 70
     1
102
RTVSPropertyOp2
 70
     1
102
RTVSPropertyOp3
 70
     1
102
RTVSPropertyOp4
 70
     1
102
RTVSPropertyOp5
 70
     1
102
RTVSPropertyOp6
 70
     1
102
RTVSPropertyOp7
 70
     1
102
RTVSPropertyOp8
 70
     1
102
RTVSPropertyOp9
 70
     1
102
RTVSPropertyOp10
 70
     1
102
RTVSPropertyOp11
 70
     1
102
RTVSPropertyOp12
 70
     1
102
RTVSPropertyOp13
 70
     1
102
RTVSPropertyOp14
 70
     1
102
RTVSPropertyOp15
 70
     1
102
RTVSPropertyOp16
 70
     1
102
RTVSPropertyOp17
 70
     1
102
RTVSPropertyOp18
 70
     1
102
RTVSPropertyOp19
 70
     1
102
RTVSPropertyOp20
 70
     1
102
RTVSPropertyOp21
 70
     1
102
RTVSPropertyOp22
 70
     1
102
RTVSPropertyOp23
 70
     1
102
RTVSPropertyOp24
 70
     1
102
RTVSPropertyOp25
 70
     1
102
RTVSPropertyOp26
 70
     1
102
RTVSPropertyOp27
 70
     1
  0
XRECORD
  5
37F
102
{ACAD_REACTORS
330
37E
102
}
330
37E
100
AcDbXrecord
280
     1
102
RTVSPropertyOp0
 70
     1
102
RTVSPropertyOp1
 70
     1
102
RTVSPropertyOp2
 70
     1
102
RTVSPropertyOp3
 70
     1
102
RTVSPropertyOp4
 70
     1
102
RTVSPropertyOp5
 70
     1
102
RTVSPropertyOp6
 70
     1
102
RTVSPropertyOp7
 70
     1
102
RTVSPropertyOp8
 70
     1
102
RTVSPropertyOp9
 70
     1
102
RTVSPropertyOp10
 70
     1
102
RTVSPropertyOp11
 70
     1
102
RTVSPropertyOp12
 70
     1
102
RTVSPropertyOp13
 70
     1
102
RTVSPropertyOp14
 70
     1
102
RTVSPropertyOp15
 70
     1
102
RTVSPropertyOp16
 70
     1
102
RTVSPropertyOp17
 70
     1
102
RTVSPropertyOp18
 70
     1
102
RTVSPropertyOp19
 70
     1
102
RTVSPropertyOp20
 70
     1
102
RTVSPropertyOp21
 70
     1
102
RTVSPropertyOp22
 70
     1
102
RTVSPropertyOp23
 70
     1
102
RTVSPropertyOp24
 70
     1
102
RTVSPropertyOp25
 70
     1
102
RTVSPropertyOp26
 70
     1
102
RTVSPropertyOp27
 70
     1
  0
XRECORD
  5
375
102
{ACAD_REACTORS
330
374
102
}
330
374
100
AcDbXrecord
280
     1
102
RTVSPropertyOp0
 70
     1
102
RTVSPropertyOp1
 70
     1
102
RTVSPropertyOp2
 70
     1
102
RTVSPropertyOp3
 70
     1
102
RTVSPropertyOp4
 70
     1
102
RTVSPropertyOp5
 70
     1
102
RTVSPropertyOp6
 70
     1
102
RTVSPropertyOp7
 70
     1
102
RTVSPropertyOp8
 70
     1
102
RTVSPropertyOp9
 70
     1
102
RTVSPropertyOp10
 70
     1
102
RTVSPropertyOp11
 70
     1
102
RTVSPropertyOp12
 70
     1
102
RTVSPropertyOp13
 70
     1
102
RTVSPropertyOp14
 70
     1
102
RTVSPropertyOp15
 70
     1
102
RTVSPropertyOp16
 70
     1
102
RTVSPropertyOp17
 70
     1
102
RTVSPropertyOp18
 70
     1
102
RTVSPropertyOp19
 70
     1
102
RTVSPropertyOp20
 70
     1
102
RTVSPropertyOp21
 70
     1
102
RTVSPropertyOp22
 70
     1
102
RTVSPropertyOp23
 70
     1
102
RTVSPropertyOp24
 70
     1
102
RTVSPropertyOp25
 70
     1
102
RTVSPropertyOp26
 70
     1
102
RTVSPropertyOp27
 70
     1
  0
XRECORD
  5
37D
102
{ACAD_REACTORS
330
37C
102
}
330
37C
100
AcDbXrecord
280
     1
102
RTVSPropertyOp0
 70
     1
102
RTVSPropertyOp1
 70
     1
102
RTVSPropertyOp2
 70
     1
102
RTVSPropertyOp3
 70
     1
102
RTVSPropertyOp4
 70
     1
102
RTVSPropertyOp5
 70
     1
102
RTVSPropertyOp6
 70
     1
102
RTVSPropertyOp7
 70
     1
102
RTVSPropertyOp8
 70
     1
102
RTVSPropertyOp9
 70
     1
102
RTVSPropertyOp10
 70
     1
102
RTVSPropertyOp11
 70
     1
102
RTVSPropertyOp12
 70
     1
102
RTVSPropertyOp13
 70
     1
102
RTVSPropertyOp14
 70
     1
102
RTVSPropertyOp15
 70
     1
102
RTVSPropertyOp16
 70
     1
102
RTVSPropertyOp17
 70
     1
102
RTVSPropertyOp18
 70
     1
102
RTVSPropertyOp19
 70
     1
102
RTVSPropertyOp20
 70
     1
102
RTVSPropertyOp21
 70
     1
102
RTVSPropertyOp22
 70
     1
102
RTVSPropertyOp23
 70
     1
102
RTVSPropertyOp24
 70
     1
102
RTVSPropertyOp25
 70
     1
102
RTVSPropertyOp26
 70
     1
102
RTVSPropertyOp27
 70
     1
  0
ENDSEC
  0
EOF
