  0
SECTION
  2
HEADER
  9
$ACADVER
  1
AC1015
  9
$ACADMAINTVER
 70
     6
  9
$DWGCODEPAGE
  3
ANSI_1252
  9
$INSBASE
 10
0.0
 20
0.0
 30
0.0
  9
$EXTMIN
 10
-695.16997913752
 20
-4594.39801381593
 30
0.0
  9
$EXTMAX
 10
3840.83002086248
 20
-719.1805807484718
 30
0.0
  9
$LIMMIN
 10
0.0
 20
0.0
  9
$LIMMAX
 10
12.0
 20
9.0
  9
$ORTHOMODE
 70
     0
  9
$REGENMODE
 70
     1
  9
$FILLMODE
 70
     1
  9
$QTEXTMODE
 70
     0
  9
$MIRRTEXT
 70
     1
  9
$LTSCALE
 40
1.0
  9
$ATTMODE
 70
     1
  9
$TEXTSIZE
 40
0.2
  9
$TRACEWID
 40
0.05
  9
$TEXTSTYLE
  7
Standard
  9
$CLAYER
  8
0
  9
$CELTYPE
  6
ByLayer
  9
$CECOLOR
 62
   256
  9
$CELTSCALE
 40
1.0
  9
$DISPSILH
 70
     0
  9
$DIMSCALE
 40
1.0
  9
$DIMASZ
 40
0.18
  9
$DIMEXO
 40
0.0625
  9
$DIMDLI
 40
0.38
  9
$DIMRND
 40
0.0
  9
$DIMDLE
 40
0.0
  9
$DIMEXE
 40
0.18
  9
$DIMTP
 40
0.0
  9
$DIMTM
 40
0.0
  9
$DIMTXT
 40
0.18
  9
$DIMCEN
 40
0.09
  9
$DIMTSZ
 40
0.0
  9
$DIMTOL
 70
     0
  9
$DIMLIM
 70
     0
  9
$DIMTIH
 70
     1
  9
$DIMTOH
 70
     1
  9
$DIMSE1
 70
     0
  9
$DIMSE2
 70
     0
  9
$DIMTAD
 70
     0
  9
$DIMZIN
 70
     0
  9
$DIMBLK
  1

  9
$DIMASO
 70
     1
  9
$DIMSHO
 70
     1
  9
$DIMPOST
  1

  9
$DIMAPOST
  1

  9
$DIMALT
 70
     0
  9
$DIMALTD
 70
     2
  9
$DIMALTF
 40
25.4
  9
$DIMLFAC
 40
1.0
  9
$DIMTOFL
 70
     0
  9
$DIMTVP
 40
0.0
  9
$DIMTIX
 70
     0
  9
$DIMSOXD
 70
     0
  9
$DIMSAH
 70
     0
  9
$DIMBLK1
  1

  9
$DIMBLK2
  1

  9
$DIMSTYLE
  2
Standard
  9
$DIMCLRD
 70
     0
  9
$DIMCLRE
 70
     0
  9
$DIMCLRT
 70
     0
  9
$DIMTFAC
 40
1.0
  9
$DIMGAP
 40
0.09
  9
$DIMJUST
 70
     0
  9
$DIMSD1
 70
     0
  9
$DIMSD2
 70
     0
  9
$DIMTOLJ
 70
     1
  9
$DIMTZIN
 70
     0
  9
$DIMALTZ
 70
     0
  9
$DIMALTTZ
 70
     0
  9
$DIMUPT
 70
     0
  9
$DIMDEC
 70
     4
  9
$DIMTDEC
 70
     4
  9
$DIMALTU
 70
     2
  9
$DIMALTTD
 70
     2
  9
$DIMTXSTY
  7
Standard
  9
$DIMAUNIT
 70
     0
  9
$DIMADEC
 70
     0
  9
$DIMALTRND
 40
0.0
  9
$DIMAZIN
 70
     0
  9
$DIMDSEP
 70
    46
  9
$DIMATFIT
 70
     3
  9
$DIMFRAC
 70
     0
  9
$DIMLDRBLK
  1

  9
$DIMLUNIT
 70
     2
  9
$DIMLWD
 70
    -2
  9
$DIMLWE
 70
    -2
  9
$DIMTMOVE
 70
     0
  9
$LUNITS
 70
     2
  9
$LUPREC
 70
     4
  9
$SKETCHINC
 40
0.1
  9
$FILLETRAD
 40
0.5
  9
$AUNITS
 70
     0
  9
$AUPREC
 70
     0
  9
$MENU
  1
.
  9
$ELEVATION
 40
0.0
  9
$PELEVATION
 40
0.0
  9
$THICKNESS
 40
0.0
  9
$LIMCHECK
 70
     0
  9
$CHAMFERA
 40
0.5
  9
$CHAMFERB
 40
0.5
  9
$CHAMFERC
 40
1.0
  9
$CHAMFERD
 40
0.0
  9
$SKPOLY
 70
     0
  9
$TDCREATE
 40
2456853.463048333
  9
$TDUCREATE
 40
2456853.379715
  9
$TDUPDATE
 40
2456853.463048345
  9
$TDUUPDATE
 40
2456853.379715011
  9
$TDINDWG
 40
0.0000000116
  9
$TDUSRTIMER
 40
0.0000000116
  9
$USRTIMER
 70
     1
  9
$ANGBASE
 50
0.0
  9
$ANGDIR
 70
     0
  9
$PDMODE
 70
     0
  9
$PDSIZE
 40
0.0
  9
$PLINEWID
 40
0.0
  9
$SPLFRAME
 70
     0
  9
$SPLINETYPE
 70
     6
  9
$SPLINESEGS
 70
     8
  9
$HANDSEED
  5
187
  9
$SURFTAB1
 70
     6
  9
$SURFTAB2
 70
     6
  9
$SURFTYPE
 70
     6
  9
$SURFU
 70
     6
  9
$SURFV
 70
     6
  9
$UCSBASE
  2

  9
$UCSNAME
  2

  9
$UCSORG
 10
0.0
 20
0.0
 30
0.0
  9
$UCSXDIR
 10
1.0
 20
0.0
 30
0.0
  9
$UCSYDIR
 10
0.0
 20
1.0
 30
0.0
  9
$UCSORTHOREF
  2

  9
$UCSORTHOVIEW
 70
     0
  9
$UCSORGTOP
 10
0.0
 20
0.0
 30
0.0
  9
$UCSORGBOTTOM
 10
0.0
 20
0.0
 30
0.0
  9
$UCSORGLEFT
 10
0.0
 20
0.0
 30
0.0
  9
$UCSORGRIGHT
 10
0.0
 20
0.0
 30
0.0
  9
$UCSORGFRONT
 10
0.0
 20
0.0
 30
0.0
  9
$UCSORGBACK
 10
0.0
 20
0.0
 30
0.0
  9
$PUCSBASE
  2

  9
$PUCSNAME
  2

  9
$PUCSORG
 10
0.0
 20
0.0
 30
0.0
  9
$PUCSXDIR
 10
1.0
 20
0.0
 30
0.0
  9
$PUCSYDIR
 10
0.0
 20
1.0
 30
0.0
  9
$PUCSORTHOREF
  2

  9
$PUCSORTHOVIEW
 70
     0
  9
$PUCSORGTOP
 10
0.0
 20
0.0
 30
0.0
  9
$PUCSORGBOTTOM
 10
0.0
 20
0.0
 30
0.0
  9
$PUCSORGLEFT
 10
0.0
 20
0.0
 30
0.0
  9
$PUCSORGRIGHT
 10
0.0
 20
0.0
 30
0.0
  9
$PUCSORGFRONT
 10
0.0
 20
0.0
 30
0.0
  9
$PUCSORGBACK
 10
0.0
 20
0.0
 30
0.0
  9
$USERI1
 70
     0
  9
$USERI2
 70
     0
  9
$USERI3
 70
     0
  9
$USERI4
 70
     0
  9
$USERI5
 70
     0
  9
$USERR1
 40
17.0
  9
$USERR2
 40
0.0
  9
$USERR3
 40
0.0
  9
$USERR4
 40
0.0
  9
$USERR5
 40
0.0
  9
$WORLDVIEW
 70
     1
  9
$SHADEDGE
 70
     3
  9
$SHADEDIF
 70
    70
  9
$TILEMODE
 70
     1
  9
$MAXACTVP
 70
    64
  9
$PINSBASE
 10
0.0
 20
0.0
 30
0.0
  9
$PLIMCHECK
 70
     0
  9
$PEXTMIN
 10
1.00000000000000E+20
 20
1.00000000000000E+20
 30
1.00000000000000E+20
  9
$PEXTMAX
 10
-1.00000000000000E+20
 20
-1.00000000000000E+20
 30
-1.00000000000000E+20
  9
$PLIMMIN
 10
0.0
 20
0.0
  9
$PLIMMAX
 10
12.0
 20
9.0
  9
$UNITMODE
 70
     0
  9
$VISRETAIN
 70
     1
  9
$PLINEGEN
 70
     0
  9
$PSLTSCALE
 70
     1
  9
$TREEDEPTH
 70
  3020
  9
$CMLSTYLE
  2
Standard
  9
$CMLJUST
 70
     0
  9
$CMLSCALE
 40
1.0
  9
$PROXYGRAPHICS
 70
     1
  9
$MEASUREMENT
 70
     1
  9
$CELWEIGHT
370
    -1
  9
$ENDCAPS
280
     0
  9
$JOINSTYLE
280
     0
  9
$LWDISPLAY
290
     0
  9
$INSUNITS
 70
     1
  9
$HYPERLINKBASE
  1

  9
$STYLESHEET
  1

  9
$XEDIT
290
     1
  9
$CEPSNTYPE
380
     0
  9
$PSTYLEMODE
290
     1
  9
$FINGERPRINTGUID
  2
{B534D215-15DB-4DC0-9997-EBAF946B9D8B}
  9
$VERSIONGUID
  2
{FAEB1C32-E019-11D5-929B-00C0DF256EC4}
  9
$EXTNAMES
290
     1
  9
$PSVPSCALE
 40
0.0
  9
$OLESTARTUP
290
     0
  0
ENDSEC
  0
SECTION
  2
CLASSES
  0
CLASS
  1
ACDBDICTIONARYWDFLT
  2
AcDbDictionaryWithDefault
  3
ObjectDBX Classes
 90
        0
280
     0
281
     0
  0
CLASS
  1
VISUALSTYLE
  2
AcDbVisualStyle
  3
ObjectDBX Classes
 90
     4095
280
     0
281
     0
  0
CLASS
  1
MATERIAL
  2
AcDbMaterial
  3
ObjectDBX Classes
 90
     1153
280
     0
281
     0
  0
CLASS
  1

  2
exOdDbSpline
  3

 90
        0
280
     0
281
     1
  0
CLASS
  1
DICTIONARYVAR
  2
AcDbDictionaryVar
  3
ObjectDBX Classes
 90
        0
280
     0
281
     0
  0
CLASS
  1
ACDBPLACEHOLDER
  2
AcDbPlaceHolder
  3
ObjectDBX Classes
 90
        0
280
     0
281
     0
  0
CLASS
  1
LAYOUT
  2
AcDbLayout
  3
ObjectDBX Classes
 90
        0
280
     0
281
     0
  0
ENDSEC
  0
SECTION
  2
TABLES
  0
TABLE
  2
VPORT
  5
8
330
0
100
AcDbSymbolTable
 70
     1
  0
VPORT
  5
29
330
8
100
AcDbSymbolTableRecord
100
AcDbViewportTableRecord
  2
*Active
 70
     0
 10
0.0
 20
0.0
 11
1.0
 21
1.0
 12
1572.83002086248
 22
-2656.789297282201
 13
0.0
 23
0.0
 14
0.5
 24
0.5
 15
0.5
 25
0.5
 16
0.0
 26
0.0
 36
1.0
 17
0.0
 27
0.0
 37
0.0
 40
4262.739176374205
 41
1.60267857142857
 42
50.0
 43
0.0
 44
0.0
 50
0.0
 51
0.0
 71
     0
 72
   100
 73
     1
 74
     3
 75
     0
 76
     0
 77
     0
 78
     0
281
     0
 65
     1
110
0.0
120
0.0
130
0.0
111
1.0
121
0.0
131
0.0
112
0.0
122
1.0
132
0.0
 79
     0
146
0.0
  0
ENDTAB
  0
TABLE
  2
LTYPE
  5
5
330
0
100
AcDbSymbolTable
 70
     8
  0
LTYPE
  5
14
330
5
100
AcDbSymbolTableRecord
100
AcDbLinetypeTableRecord
  2
ByBlock
 70
     0
  3

 72
    65
 73
     0
 40
0.0
  0
LTYPE
  5
15
330
5
100
AcDbSymbolTableRecord
100
AcDbLinetypeTableRecord
  2
ByLayer
 70
     0
  3

 72
    65
 73
     0
 40
0.0
  0
LTYPE
  5
16
330
5
100
AcDbSymbolTableRecord
100
AcDbLinetypeTableRecord
  2
Continuous
 70
     0
  3
Solid line
 72
    65
 73
     0
 40
0.0
  0
LTYPE
  5
3F
330
5
100
AcDbSymbolTableRecord
100
AcDbLinetypeTableRecord
  2
DASHED
 70
     0
  3
Dashed
 72
    65
 73
     2
 40
15.0
 49
7.0
 74
     0
 49
-8.0
 74
     0
  0
LTYPE
  5
40
330
5
100
AcDbSymbolTableRecord
100
AcDbLinetypeTableRecord
  2
DOTTED
 70
     0
  3
Dotted
 72
    65
 73
     2
 40
1.0
 49
0.0
 74
     0
 49
-1.0
 74
     0
  0
LTYPE
  5
41
330
5
100
AcDbSymbolTableRecord
100
AcDbLinetypeTableRecord
  2
DOT_CENTER
 70
     0
  3
Dot_Center
 72
    65
 73
     4
 40
14.0
 49
12.0
 74
     0
 49
-1.0
 74
     0
 49
0.0
 74
     0
 49
-1.0
 74
     0
  0
LTYPE
  5
42
330
5
100
AcDbSymbolTableRecord
100
AcDbLinetypeTableRecord
  2
LONG_DASHED
 70
     0
  3
Long_Dashed
 72
    65
 73
     2
 40
15.0
 49
10.0
 74
     0
 49
-5.0
 74
     0
  0
LTYPE
  5
43
330
5
100
AcDbSymbolTableRecord
100
AcDbLinetypeTableRecord
  2
DASH_CENTER
 70
     0
  3
Dash_Center
 72
    65
 73
     4
 40
14.0
 49
11.0
 74
     0
 49
-1.0
 74
     0
 49
1.0
 74
     0
 49
-1.0
 74
     0
  0
LTYPE
  5
44
330
5
100
AcDbSymbolTableRecord
100
AcDbLinetypeTableRecord
  2
PHANTOM
 70
     0
  3
Phantom
 72
    65
 73
     6
 40
13.0
 49
10.0
 74
     0
 49
-1.0
 74
     0
 49
0.0
 74
     0
 49
-1.0
 74
     0
 49
0.0
 74
     0
 49
-1.0
 74
     0
  0
LTYPE
  5
45
330
5
100
AcDbSymbolTableRecord
100
AcDbLinetypeTableRecord
  2
CENTER_DASH_DASH
 70
     0
  3
Center_Dash_Dash
 72
    65
 73
     6
 40
14.0
 49
9.0
 74
     0
 49
-1.0
 74
     0
 49
1.0
 74
     0
 49
-1.0
 74
     0
 49
1.0
 74
     0
 49
-1.0
 74
     0
  0
ENDTAB
  0
TABLE
  2
LAYER
  5
2
330
0
100
AcDbSymbolTable
 70
     2
  0
LAYER
  5
10
330
2
100
AcDbSymbolTableRecord
100
AcDbLayerTableRecord
  2
0
 70
     0
 62
     7
  6
Continuous
370
    -3
390
F
  0
LAYER
  5
46
330
2
100
AcDbSymbolTableRecord
100
AcDbLayerTableRecord
  2
1
 70
     0
 62
     7
  6
Continuous
370
    -3
390
F
  0
ENDTAB
  0
TABLE
  2
STYLE
  5
3
330
0
100
AcDbSymbolTable
 70
     1
  0
STYLE
  5
11
330
3
100
AcDbSymbolTableRecord
100
AcDbTextStyleTableRecord
  2
Standard
 70
     0
 40
0.0
 41
1.0
 50
0.0
 71
     0
 42
0.2
  3
txt
  4

  0
ENDTAB
  0
TABLE
  2
VIEW
  5
6
330
0
100
AcDbSymbolTable
 70
     0
  0
ENDTAB
  0
TABLE
  2
UCS
  5
7
330
0
100
AcDbSymbolTable
 70
     0
  0
ENDTAB
  0
TABLE
  2
APPID
  5
9
330
0
100
AcDbSymbolTable
 70
     1
  0
APPID
  5
12
330
9
100
AcDbSymbolTableRecord
100
AcDbRegAppTableRecord
  2
ACAD
 70
     0
  0
ENDTAB
  0
TABLE
  2
DIMSTYLE
  5
A
330
0
100
AcDbSymbolTable
 70
     1
100
AcDbDimStyleTable
  0
DIMSTYLE
105
27
330
A
100
AcDbSymbolTableRecord
100
AcDbDimStyleTableRecord
  2
Standard
 70
     0
340
11
  0
ENDTAB
  0
TABLE
  2
BLOCK_RECORD
  5
1
330
0
100
AcDbSymbolTable
 70
     1
  0
BLOCK_RECORD
  5
1F
330
1
100
AcDbSymbolTableRecord
100
AcDbBlockTableRecord
  2
*Model_Space
340
22
  0
BLOCK_RECORD
  5
1B
330
1
100
AcDbSymbolTableRecord
100
AcDbBlockTableRecord
  2
*Paper_Space
340
1E
  0
BLOCK_RECORD
  5
23
330
1
100
AcDbSymbolTableRecord
100
AcDbBlockTableRecord
  2
*Paper_Space0
340
26
  0
ENDTAB
  0
ENDSEC
  0
SECTION
  2
BLOCKS
  0
BLOCK
  5
20
330
1F
100
AcDbEntity
  8
0
100
AcDbBlockBegin
  2
*Model_Space
 70
     0
 10
0.0
 20
0.0
 30
0.0
  3
*Model_Space
  1

  0
ENDBLK
  5
21
330
1F
100
AcDbEntity
  8
0
100
AcDbBlockEnd
  0
BLOCK
  5
1C
330
1B
100
AcDbEntity
 67
     1
  8
0
100
AcDbBlockBegin
  2
*Paper_Space
 70
     0
 10
0.0
 20
0.0
 30
0.0
  3
*Paper_Space
  1

  0
ENDBLK
  5
1D
330
1B
100
AcDbEntity
 67
     1
  8
0
100
AcDbBlockEnd
  0
BLOCK
  5
24
330
23
100
AcDbEntity
  8
0
100
AcDbBlockBegin
  2
*Paper_Space0
 70
     0
 10
0.0
 20
0.0
 30
0.0
  3
*Paper_Space0
  1

  0
ENDBLK
  5
25
330
23
100
AcDbEntity
  8
0
100
AcDbBlockEnd
  0
ENDSEC
  0
SECTION
  2
ENTITIES
  0
LINE
  5
47
330
1F
100
AcDbEntity
  8
1
  6
Continuous
 62
     7
100
AcDbLine
 10
2931.040115706035
 20
-1594.398013815931
 30
0.0
 11
2951.045681372709
 21
-1594.398013815931
 31
0.0
  0
LINE
  5
48
330
1F
100
AcDbEntity
  8
1
  6
Continuous
 62
     7
100
AcDbLine
 10
1312.208808083109
 20
-1594.398013815931
 30
0.0
 11
1332.321519870945
 21
-1594.398013815931
 31
0.0
  0
LINE
  5
49
330
1F
100
AcDbEntity
  8
1
  6
Continuous
 62
     7
100
AcDbLine
 10
770.0646595400434
 20
-1594.398013815931
 30
0.0
 11
790.0702252067175
 21
-1594.398013815931
 31
0.0
  0
LINE
  5
4A
330
1F
100
AcDbEntity
  8
1
  6
Continuous
 62
     7
100
AcDbLine
 10
873.1158619113826
 20
-965.166933091584
 30
0.0
 11
873.1158619113826
 21
-1192.520970465281
 31
0.0
  0
LINE
  5
4B
330
1F
100
AcDbEntity
  8
1
  6
Continuous
 62
     7
100
AcDbLine
 10
790.4503571104739
 20
-1190.505641399283
 30
0.0
 11
1262.922825353086
 21
-1202.024200445482
 31
0.0
  0
LINE
  5
4C
330
1F
100
AcDbEntity
  8
0
  6
Continuous
 62
     7
100
AcDbLine
 10
3151.040790919133
 20
-1189.892268645531
 30
0.0
 11
2958.934238316135
 21
-1189.892268645531
 31
0.0
  0
LINE
  5
4D
330
1F
100
AcDbEntity
  8
0
  6
Continuous
 62
     7
100
AcDbLine
 10
789.6047347717304
 20
-1189.999000009349
 30
0.0
 11
767.6543934283167
 21
-1151.268188727689
 31
0.0
  0
LINE
  5
4E
330
1F
100
AcDbEntity
  8
0
  6
Continuous
 62
     7
100
AcDbLine
 10
761.7054778158506
 20
-1140.687552526506
 30
0.0
 11
761.6618350711805
 21
-1147.727438326913
 31
0.0
  0
LINE
  5
4F
330
1F
100
AcDbEntity
  8
0
  6
Continuous
 62
     7
100
AcDbLine
 10
1328.569915938703
 20
-727.246450305549
 30
0.0
 11
1257.952468941766
 21
-720.4288062845408
 31
0.0
  0
LINE
  5
50
330
1F
100
AcDbEntity
  8
0
  6
Continuous
 62
     7
100
AcDbLine
 10
3151.040790919133
 20
-1129.044048322006
 30
0.0
 11
2926.14289853972
 21
-1129.044048322004
 31
0.0
  0
LINE
  5
51
330
1F
100
AcDbEntity
  8
0
  6
Continuous
 62
     7
100
AcDbLine
 10
2922.642898539293
 20
-1140.709249848801
 30
0.0
 11
2922.642898539214
 21
-1132.544048322005
 31
0.0
  0
LINE
  5
52
330
1F
100
AcDbEntity
  8
0
  6
Continuous
 62
     7
100
AcDbLine
 10
2922.642898539293
 20
-1140.709249848801
 30
0.0
 11
2922.642898539293
 21
-1147.752235266681
 31
0.0
  0
LINE
  5
53
330
1F
100
AcDbEntity
  8
0
  6
Continuous
 62
     7
100
AcDbLine
 10
790.0702252067175
 20
-1594.398013815931
 30
0.0
 11
797.4087829024443
 21
-1190.675283111215
 31
0.0
  0
LINE
  5
54
330
1F
100
AcDbEntity
  8
0
  6
Continuous
 62
     7
100
AcDbLine
 10
2931.040115706035
 20
-1594.398013815931
 30
0.0
 11
2922.921336241436
 21
-1147.752235266681
 31
0.0
  0
LINE
  5
55
330
1F
100
AcDbEntity
  8
0
  6
Continuous
 62
     7
100
AcDbLine
 10
2951.045681372709
 20
-1594.398013815931
 30
0.0
 11
2958.401268942949
 21
-1189.738403178124
 31
0.0
  0
LINE
  5
56
330
1F
100
AcDbEntity
  8
0
  6
Continuous
 62
     7
100
AcDbLine
 10
770.0646595400434
 20
-1594.398013815931
 30
0.0
 11
761.9454612969663
 21
-1147.729196626309
 31
0.0
  0
LINE
  5
57
330
1F
100
AcDbEntity
  8
0
  6
Continuous
 62
     7
100
AcDbLine
 10
767.6543934283167
 20
-1151.268188727689
 30
0.0
 11
765.9470175036907
 21
-1148.255567935649
 31
0.0
  0
LINE
  5
58
330
1F
100
AcDbEntity
  8
0
  6
Continuous
 62
     7
100
AcDbLine
 10
761.6618350711805
 20
-1147.727438326913
 30
0.0
 11
765.0832223183215
 21
-1147.748648717859
 31
0.0
  0
LINE
  5
59
330
1F
100
AcDbEntity
  8
1
  6
Continuous
 62
     7
100
AcDbLine
 10
2922.642898539293
 20
-1147.752235266681
 30
0.0
 11
2929.82442375313
 21
-1147.752235266681
 31
0.0
  0
LINE
  5
5A
330
1F
100
AcDbEntity
  8
1
  6
Continuous
 62
     7
100
AcDbLine
 10
875.1158619113826
 20
-963.166933091584
 30
0.0
 11
1190.636483853622
 21
-963.166933091584
 31
0.0
  0
LINE
  5
5B
330
1F
100
AcDbEntity
  8
1
  6
Continuous
 62
     7
100
AcDbLine
 10
2930.656975895081
 20
-1148.198288580679
 30
0.0
 11
2958.101686174184
 21
-1189.446215331533
 31
0.0
  0
LINE
  5
5C
330
1F
100
AcDbEntity
  8
1
  6
Continuous
 62
     7
100
AcDbLine
 10
1872.656975895081
 20
-1148.198288580679
 30
0.0
 11
1900.101686174184
 21
-1189.446215331533
 31
0.0
  0
LINE
  5
5D
330
1F
100
AcDbEntity
  8
1
  6
Continuous
 62
     7
100
AcDbLine
 10
1871.022814097266
 20
-992.166933091584
 30
0.0
 11
1871.022814097266
 21
-1129.044048322004
 31
0.0
  0
LINE
  5
5E
330
1F
100
AcDbEntity
  8
1
  6
Continuous
 62
     7
100
AcDbLine
 10
1826.14339839997
 20
-963.166933091584
 30
0.0
 11
1842.022814097266
 21
-963.166933091584
 31
0.0
  0
LINE
  5
5F
330
1F
100
AcDbEntity
  8
1
  6
Continuous
 62
     7
100
AcDbLine
 10
1854.954741888646
 20
-988.8644361002871
 30
0.0
 11
1871.022814097266
 21
-1129.044048322004
 31
0.0
  0
LINE
  5
60
330
1F
100
AcDbEntity
  8
1
  6
Continuous
 62
     7
100
AcDbLine
 10
1824.341323294816
 20
-985.2266679202918
 30
0.0
 11
1842.967955737771
 21
-1147.727438326913
 31
0.0
  0
LINE
  5
61
330
1F
100
AcDbEntity
  8
1
  6
Continuous
 62
     7
100
AcDbLine
 10
1864.642898539293
 20
-1147.752235266681
 30
0.0
 11
1871.82442375313
 21
-1147.752235266681
 31
0.0
  0
LINE
  5
62
330
1F
100
AcDbEntity
  8
0
  6
Continuous
 62
     7
100
AcDbLine
 10
1893.045681372709
 20
-1594.398013815931
 30
0.0
 11
1900.401268942949
 21
-1189.738403178124
 31
0.0
  0
LINE
  5
63
330
1F
100
AcDbEntity
  8
0
  6
Continuous
 62
     7
100
AcDbLine
 10
1873.040115706035
 20
-1594.398013815931
 30
0.0
 11
1864.921336241436
 21
-1147.752235266681
 31
0.0
  0
LINE
  5
64
330
1F
100
AcDbEntity
  8
0
  6
Continuous
 62
     7
100
AcDbLine
 10
1864.642898539293
 20
-1140.709249848801
 30
0.0
 11
1864.642898539293
 21
-1147.752235266681
 31
0.0
  0
LINE
  5
65
330
1F
100
AcDbEntity
  8
0
  6
Continuous
 62
     7
100
AcDbLine
 10
1864.642898539293
 20
-1140.709249848801
 30
0.0
 11
1864.642898539214
 21
-1132.544048322004
 31
0.0
  0
LINE
  5
66
330
1F
100
AcDbEntity
  8
0
  6
Continuous
 62
     7
100
AcDbLine
 10
2093.040790919133
 20
-1129.044048322006
 30
0.0
 11
1868.14289853972
 21
-1129.044048322004
 31
0.0
  0
LINE
  5
67
330
1F
100
AcDbEntity
  8
0
  6
Continuous
 62
     7
100
AcDbLine
 10
2093.040790919133
 20
-1189.892268645531
 30
0.0
 11
1900.934238316135
 21
-1189.892268645531
 31
0.0
  0
LINE
  5
68
330
1F
100
AcDbEntity
  8
1
  6
Continuous
 62
     7
100
AcDbLine
 10
1873.040115706035
 20
-1594.398013815931
 30
0.0
 11
1893.045681372709
 21
-1594.398013815931
 31
0.0
  0
LINE
  5
69
330
1F
100
AcDbEntity
  8
1
  6
Continuous
 62
     7
100
AcDbLine
 10
2922.642898539214
 20
-1132.544048322005
 30
0.0
 11
2928.492287368219
 21
-862.1506503166715
 31
0.0
  0
LINE
  5
6A
330
1F
100
AcDbEntity
  8
1
  6
Continuous
 62
     7
100
AcDbLine
 10
2293.03590046596
 20
-1594.398013815931
 30
0.0
 11
2313.041466132634
 21
-1594.398013815931
 31
0.0
  0
LINE
  5
6B
330
1F
100
AcDbEntity
  8
0
  6
Continuous
 62
     7
100
AcDbLine
 10
2285.147343522534
 20
-1189.892268645531
 30
0.0
 11
2093.040790919536
 21
-1189.892268645531
 31
0.0
  0
LINE
  5
6C
330
1F
100
AcDbEntity
  8
0
  6
Continuous
 62
     7
100
AcDbLine
 10
2317.938683298949
 20
-1129.044048322004
 30
0.0
 11
2093.040790919536
 21
-1129.044048322006
 31
0.0
  0
LINE
  5
6D
330
1F
100
AcDbEntity
  8
0
  6
Continuous
 62
     7
100
AcDbLine
 10
2321.438683299455
 20
-1132.544048322004
 30
0.0
 11
2321.438683299376
 21
-1140.709249848801
 31
0.0
  0
LINE
  5
6E
330
1F
100
AcDbEntity
  8
0
  6
Continuous
 62
     7
100
AcDbLine
 10
2321.438683299376
 20
-1147.752235266681
 30
0.0
 11
2321.438683299376
 21
-1140.709249848801
 31
0.0
  0
LINE
  5
6F
330
1F
100
AcDbEntity
  8
0
  6
Continuous
 62
     7
100
AcDbLine
 10
2321.160245597233
 20
-1147.752235266681
 30
0.0
 11
2313.041466132634
 21
-1594.398013815931
 31
0.0
  0
LINE
  5
70
330
1F
100
AcDbEntity
  8
0
  6
Continuous
 62
     7
100
AcDbLine
 10
2285.68031289572
 20
-1189.738403178124
 30
0.0
 11
2293.03590046596
 21
-1594.398013815931
 31
0.0
  0
LINE
  5
71
330
1F
100
AcDbEntity
  8
1
  6
Continuous
 62
     7
100
AcDbLine
 10
2314.257158085539
 20
-1147.752235266681
 30
0.0
 11
2321.438683299376
 21
-1147.752235266681
 31
0.0
  0
LINE
  5
72
330
1F
100
AcDbEntity
  8
1
  6
Continuous
 62
     7
100
AcDbLine
 10
2343.113626100898
 20
-1147.727438326913
 30
0.0
 11
2361.740258543854
 21
-985.2266679202918
 31
0.0
  0
LINE
  5
73
330
1F
100
AcDbEntity
  8
1
  6
Continuous
 62
     7
100
AcDbLine
 10
2315.058767741403
 20
-1129.044048322004
 30
0.0
 11
2331.126839950023
 21
-988.8644361002871
 31
0.0
  0
LINE
  5
74
330
1F
100
AcDbEntity
  8
1
  6
Continuous
 62
     7
100
AcDbLine
 10
2344.058767741403
 20
-963.166933091584
 30
0.0
 11
2359.938183438699
 21
-963.166933091584
 31
0.0
  0
LINE
  5
75
330
1F
100
AcDbEntity
  8
1
  6
Continuous
 62
     7
100
AcDbLine
 10
2315.058767741403
 20
-1129.044048322004
 30
0.0
 11
2315.058767741403
 21
-992.166933091584
 31
0.0
  0
LINE
  5
76
330
1F
100
AcDbEntity
  8
1
  6
Continuous
 62
     7
100
AcDbLine
 10
2285.979895664485
 20
-1189.446215331533
 30
0.0
 11
2313.424605943588
 21
-1148.198288580679
 31
0.0
  0
LINE
  5
77
330
1F
100
AcDbEntity
  8
1
  6
Continuous
 62
     7
100
AcDbLine
 10
3373.589294470046
 20
-862.1506503166715
 30
0.0
 11
3379.438683299051
 21
-1132.544048322004
 31
0.0
  0
LINE
  5
78
330
1F
100
AcDbEntity
  8
1
  6
Continuous
 62
     7
100
AcDbLine
 10
3343.979895664082
 20
-1189.446215331533
 30
0.0
 11
3371.424605943184
 21
-1148.198288580679
 31
0.0
  0
LINE
  5
79
330
1F
100
AcDbEntity
  8
1
  6
Continuous
 62
     7
100
AcDbLine
 10
3372.257158085135
 20
-1147.752235266681
 30
0.0
 11
3379.438683298972
 21
-1147.752235266681
 31
0.0
  0
LINE
  5
7A
330
1F
100
AcDbEntity
  8
0
  6
Continuous
 62
     7
100
AcDbLine
 10
3343.680312895316
 20
-1189.738403178124
 30
0.0
 11
3351.035900465557
 21
-1594.398013815931
 31
0.0
  0
LINE
  5
7B
330
1F
100
AcDbEntity
  8
0
  6
Continuous
 62
     7
100
AcDbLine
 10
3379.160245596829
 20
-1147.752235266681
 30
0.0
 11
3371.04146613223
 21
-1594.398013815931
 31
0.0
  0
LINE
  5
7C
330
1F
100
AcDbEntity
  8
0
  6
Continuous
 62
     7
100
AcDbLine
 10
3379.438683298972
 20
-1147.752235266681
 30
0.0
 11
3379.438683298972
 21
-1140.709249848801
 31
0.0
  0
LINE
  5
7D
330
1F
100
AcDbEntity
  8
0
  6
Continuous
 62
     7
100
AcDbLine
 10
3379.438683299051
 20
-1132.544048322004
 30
0.0
 11
3379.438683298972
 21
-1140.709249848801
 31
0.0
  0
LINE
  5
7E
330
1F
100
AcDbEntity
  8
0
  6
Continuous
 62
     7
100
AcDbLine
 10
3375.938683298546
 20
-1129.044048322004
 30
0.0
 11
3151.040790919133
 21
-1129.044048322006
 31
0.0
  0
LINE
  5
7F
330
1F
100
AcDbEntity
  8
0
  6
Continuous
 62
     7
100
AcDbLine
 10
3343.147343522131
 20
-1189.892268645531
 30
0.0
 11
3151.040790919133
 21
-1189.892268645531
 31
0.0
  0
LINE
  5
80
330
1F
100
AcDbEntity
  8
1
  6
Continuous
 62
     7
100
AcDbLine
 10
3351.035900465557
 20
-1594.398013815931
 30
0.0
 11
3371.04146613223
 21
-1594.398013815931
 31
0.0
  0
LINE
  5
81
330
1F
100
AcDbEntity
  8
0
  6
Continuous
 62
     7
100
AcDbLine
 10
-347.3381649288195
 20
-1147.727438326913
 30
0.0
 11
-343.9167776816785
 21
-1147.748648717859
 31
0.0
  0
LINE
  5
82
330
1F
100
AcDbEntity
  8
0
  6
Continuous
 62
     7
100
AcDbLine
 10
-341.3456065716833
 20
-1151.268188727689
 30
0.0
 11
-343.0529824963093
 21
-1148.255567935649
 31
0.0
  0
LINE
  5
83
330
1F
100
AcDbEntity
  8
0
  6
Continuous
 62
     7
100
AcDbLine
 10
-338.9353404599566
 20
-1594.398013815931
 30
0.0
 11
-347.0545387030337
 21
-1147.729196626309
 31
0.0
  0
LINE
  5
84
330
1F
100
AcDbEntity
  8
0
  6
Continuous
 62
     7
100
AcDbLine
 10
-318.9297747932825
 20
-1594.398013815931
 30
0.0
 11
-311.5912170975557
 21
-1190.675283111215
 31
0.0
  0
LINE
  5
85
330
1F
100
AcDbEntity
  8
0
  6
Continuous
 62
     7
100
AcDbLine
 10
219.5699159387027
 20
-727.246450305549
 30
0.0
 11
147.4739661477387
 21
-720.2860666902563
 31
0.0
  0
LINE
  5
86
330
1F
100
AcDbEntity
  8
0
  6
Continuous
 62
     7
100
AcDbLine
 10
-347.2945225064792
 20
-1140.687604520609
 30
0.0
 11
-347.3381649288195
 21
-1147.727438326913
 31
0.0
  0
LINE
  5
87
330
1F
100
AcDbEntity
  8
0
  6
Continuous
 62
     7
100
AcDbLine
 10
-319.3952652282696
 20
-1189.999000009349
 30
0.0
 11
-341.3456065716833
 21
-1151.268188727689
 31
0.0
  0
LINE
  5
88
330
1F
100
AcDbEntity
  8
1
  6
Continuous
 62
     7
100
AcDbLine
 10
-318.5496428895261
 20
-1190.505641399283
 30
0.0
 11
153.9228253530857
 21
-1202.024200445482
 31
0.0
  0
LINE
  5
89
330
1F
100
AcDbEntity
  8
1
  6
Continuous
 62
     7
100
AcDbLine
 10
-338.9353404599566
 20
-1594.398013815931
 30
0.0
 11
-318.9297747932825
 21
-1594.398013815931
 31
0.0
  0
LINE
  5
8A
330
1F
100
AcDbEntity
  8
1
  6
Continuous
 62
     7
100
AcDbLine
 10
203.208808083109
 20
-1594.398013815931
 30
0.0
 11
223.3215198709449
 21
-1594.398013815931
 31
0.0
  0
LINE
  5
8B
330
1F
100
AcDbEntity
  8
1
  6
Continuous
 62
     7
100
AcDbLine
 10
79.82305178833934
 20
-1150.33043668941
 30
0.0
 11
-67.27982153398989
 21
-1135.579839185488
 31
0.0
  0
LINE
  5
8C
330
1F
100
AcDbEntity
  8
1
  6
Continuous
 62
     7
100
AcDbLine
 10
79.82305178833934
 20
-4150.33043668941
 30
0.0
 11
-67.27982153398989
 21
-4135.579839185488
 31
0.0
  0
LINE
  5
8D
330
1F
100
AcDbEntity
  8
1
  6
Continuous
 62
     7
100
AcDbLine
 10
203.208808083109
 20
-4594.39801381593
 30
0.0
 11
223.3215198709449
 21
-4594.39801381593
 31
0.0
  0
LINE
  5
8E
330
1F
100
AcDbEntity
  8
1
  6
Continuous
 62
     7
100
AcDbLine
 10
-338.9353404599566
 20
-4594.39801381593
 30
0.0
 11
-318.9297747932825
 21
-4594.39801381593
 31
0.0
  0
LINE
  5
8F
330
1F
100
AcDbEntity
  8
1
  6
Continuous
 62
     7
100
AcDbLine
 10
-318.5496428895261
 20
-4190.505641399283
 30
0.0
 11
153.9228253530857
 21
-4202.024200445481
 31
0.0
  0
LINE
  5
90
330
1F
100
AcDbEntity
  8
0
  6
Continuous
 62
     7
100
AcDbLine
 10
-319.3952652282696
 20
-4189.999000009349
 30
0.0
 11
-341.3456065716833
 21
-4151.268188727689
 31
0.0
  0
LINE
  5
91
330
1F
100
AcDbEntity
  8
0
  6
Continuous
 62
     7
100
AcDbLine
 10
-347.2945225064792
 20
-4140.687604520608
 30
0.0
 11
-347.3381649288195
 21
-4147.727438326912
 31
0.0
  0
LINE
  5
92
330
1F
100
AcDbEntity
  8
0
  6
Continuous
 62
     7
100
AcDbLine
 10
219.5699159387027
 20
-3727.246450305549
 30
0.0
 11
147.4739661477387
 21
-3720.286066690256
 31
0.0
  0
LINE
  5
93
330
1F
100
AcDbEntity
  8
0
  6
Continuous
 62
     7
100
AcDbLine
 10
-318.9297747932825
 20
-4594.39801381593
 30
0.0
 11
-311.5912170975557
 21
-4190.675283111214
 31
0.0
  0
LINE
  5
94
330
1F
100
AcDbEntity
  8
0
  6
Continuous
 62
     7
100
AcDbLine
 10
-338.9353404599566
 20
-4594.39801381593
 30
0.0
 11
-347.0545387030337
 21
-4147.729196626309
 31
0.0
  0
LINE
  5
95
330
1F
100
AcDbEntity
  8
0
  6
Continuous
 62
     7
100
AcDbLine
 10
-341.3456065716833
 20
-4151.268188727689
 30
0.0
 11
-343.0529824963093
 21
-4148.255567935649
 31
0.0
  0
LINE
  5
96
330
1F
100
AcDbEntity
  8
0
  6
Continuous
 62
     7
100
AcDbLine
 10
-347.3381649288195
 20
-4147.727438326912
 30
0.0
 11
-343.9167776816785
 21
-4147.748648717859
 31
0.0
  0
LINE
  5
97
330
1F
100
AcDbEntity
  8
1
  6
Continuous
 62
     7
100
AcDbLine
 10
3351.035900465557
 20
-4594.39801381593
 30
0.0
 11
3371.04146613223
 21
-4594.39801381593
 31
0.0
  0
LINE
  5
98
330
1F
100
AcDbEntity
  8
0
  6
Continuous
 62
     7
100
AcDbLine
 10
3343.147343522131
 20
-4189.892268645531
 30
0.0
 11
3151.040790919133
 21
-4189.892268645531
 31
0.0
  0
LINE
  5
99
330
1F
100
AcDbEntity
  8
0
  6
Continuous
 62
     7
100
AcDbLine
 10
3375.938683298546
 20
-4129.044048322004
 30
0.0
 11
3151.040790919133
 21
-4129.044048322005
 31
0.0
  0
LINE
  5
9A
330
1F
100
AcDbEntity
  8
0
  6
Continuous
 62
     7
100
AcDbLine
 10
3379.438683299051
 20
-4132.544048322004
 30
0.0
 11
3379.438683298972
 21
-4140.709249848801
 31
0.0
  0
LINE
  5
9B
330
1F
100
AcDbEntity
  8
0
  6
Continuous
 62
     7
100
AcDbLine
 10
3379.438683298972
 20
-4147.75223526668
 30
0.0
 11
3379.438683298972
 21
-4140.709249848801
 31
0.0
  0
LINE
  5
9C
330
1F
100
AcDbEntity
  8
0
  6
Continuous
 62
     7
100
AcDbLine
 10
3379.160245596829
 20
-4147.75223526668
 30
0.0
 11
3371.04146613223
 21
-4594.39801381593
 31
0.0
  0
LINE
  5
9D
330
1F
100
AcDbEntity
  8
0
  6
Continuous
 62
     7
100
AcDbLine
 10
3343.680312895316
 20
-4189.738403178123
 30
0.0
 11
3351.035900465557
 21
-4594.39801381593
 31
0.0
  0
LINE
  5
9E
330
1F
100
AcDbEntity
  8
1
  6
Continuous
 62
     7
100
AcDbLine
 10
3372.257158085135
 20
-4147.75223526668
 30
0.0
 11
3379.438683298972
 21
-4147.75223526668
 31
0.0
  0
LINE
  5
9F
330
1F
100
AcDbEntity
  8
1
  6
Continuous
 62
     7
100
AcDbLine
 10
3343.979895664082
 20
-4189.446215331533
 30
0.0
 11
3371.424605943184
 21
-4148.198288580678
 31
0.0
  0
LINE
  5
A0
330
1F
100
AcDbEntity
  8
1
  6
Continuous
 62
     7
100
AcDbLine
 10
3373.589294470046
 20
-3862.150650316671
 30
0.0
 11
3379.438683299051
 21
-4132.544048322005
 31
0.0
  0
LINE
  5
A1
330
1F
100
AcDbEntity
  8
1
  6
Continuous
 62
     7
100
AcDbLine
 10
2285.979895664485
 20
-4189.446215331533
 30
0.0
 11
2313.424605943588
 21
-4148.198288580678
 31
0.0
  0
LINE
  5
A2
330
1F
100
AcDbEntity
  8
1
  6
Continuous
 62
     7
100
AcDbLine
 10
2315.058767741403
 20
-4129.044048322004
 30
0.0
 11
2315.058767741403
 21
-3992.166933091584
 31
0.0
  0
LINE
  5
A3
330
1F
100
AcDbEntity
  8
1
  6
Continuous
 62
     7
100
AcDbLine
 10
2344.058767741403
 20
-3963.166933091584
 30
0.0
 11
2359.938183438699
 21
-3963.166933091584
 31
0.0
  0
LINE
  5
A4
330
1F
100
AcDbEntity
  8
1
  6
Continuous
 62
     7
100
AcDbLine
 10
2315.058767741403
 20
-4129.044048322004
 30
0.0
 11
2331.126839950023
 21
-3988.864436100287
 31
0.0
  0
LINE
  5
A5
330
1F
100
AcDbEntity
  8
1
  6
Continuous
 62
     7
100
AcDbLine
 10
2343.113626100898
 20
-4147.727438326913
 30
0.0
 11
2361.740258543854
 21
-3985.226667920291
 31
0.0
  0
LINE
  5
A6
330
1F
100
AcDbEntity
  8
1
  6
Continuous
 62
     7
100
AcDbLine
 10
2314.257158085539
 20
-4147.75223526668
 30
0.0
 11
2321.438683299376
 21
-4147.75223526668
 31
0.0
  0
LINE
  5
A7
330
1F
100
AcDbEntity
  8
0
  6
Continuous
 62
     7
100
AcDbLine
 10
2285.68031289572
 20
-4189.738403178123
 30
0.0
 11
2293.03590046596
 21
-4594.39801381593
 31
0.0
  0
LINE
  5
A8
330
1F
100
AcDbEntity
  8
0
  6
Continuous
 62
     7
100
AcDbLine
 10
2321.160245597233
 20
-4147.75223526668
 30
0.0
 11
2313.041466132634
 21
-4594.39801381593
 31
0.0
  0
LINE
  5
A9
330
1F
100
AcDbEntity
  8
0
  6
Continuous
 62
     7
100
AcDbLine
 10
2321.438683299376
 20
-4147.75223526668
 30
0.0
 11
2321.438683299376
 21
-4140.709249848801
 31
0.0
  0
LINE
  5
AA
330
1F
100
AcDbEntity
  8
0
  6
Continuous
 62
     7
100
AcDbLine
 10
2321.438683299455
 20
-4132.544048322004
 30
0.0
 11
2321.438683299376
 21
-4140.709249848801
 31
0.0
  0
LINE
  5
AB
330
1F
100
AcDbEntity
  8
0
  6
Continuous
 62
     7
100
AcDbLine
 10
2317.938683298949
 20
-4129.044048322004
 30
0.0
 11
2093.040790919536
 21
-4129.044048322005
 31
0.0
  0
LINE
  5
AC
330
1F
100
AcDbEntity
  8
0
  6
Continuous
 62
     7
100
AcDbLine
 10
2285.147343522534
 20
-4189.892268645531
 30
0.0
 11
2093.040790919536
 21
-4189.892268645531
 31
0.0
  0
LINE
  5
AD
330
1F
100
AcDbEntity
  8
1
  6
Continuous
 62
     7
100
AcDbLine
 10
2293.03590046596
 20
-4594.39801381593
 30
0.0
 11
2313.041466132634
 21
-4594.39801381593
 31
0.0
  0
LINE
  5
AE
330
1F
100
AcDbEntity
  8
1
  6
Continuous
 62
     7
100
AcDbLine
 10
2922.642898539214
 20
-4132.544048322005
 30
0.0
 11
2928.492287368219
 21
-3862.150650316671
 31
0.0
  0
LINE
  5
AF
330
1F
100
AcDbEntity
  8
1
  6
Continuous
 62
     7
100
AcDbLine
 10
1873.040115706035
 20
-4594.39801381593
 30
0.0
 11
1893.045681372709
 21
-4594.39801381593
 31
0.0
  0
LINE
  5
B0
330
1F
100
AcDbEntity
  8
0
  6
Continuous
 62
     7
100
AcDbLine
 10
2093.040790919133
 20
-4189.892268645531
 30
0.0
 11
1900.934238316135
 21
-4189.892268645531
 31
0.0
  0
LINE
  5
B1
330
1F
100
AcDbEntity
  8
0
  6
Continuous
 62
     7
100
AcDbLine
 10
2093.040790919133
 20
-4129.044048322005
 30
0.0
 11
1868.14289853972
 21
-4129.044048322004
 31
0.0
  0
LINE
  5
B2
330
1F
100
AcDbEntity
  8
0
  6
Continuous
 62
     7
100
AcDbLine
 10
1864.642898539293
 20
-4140.709249848801
 30
0.0
 11
1864.642898539214
 21
-4132.544048322004
 31
0.0
  0
LINE
  5
B3
330
1F
100
AcDbEntity
  8
0
  6
Continuous
 62
     7
100
AcDbLine
 10
1864.642898539293
 20
-4140.709249848801
 30
0.0
 11
1864.642898539293
 21
-4147.75223526668
 31
0.0
  0
LINE
  5
B4
330
1F
100
AcDbEntity
  8
0
  6
Continuous
 62
     7
100
AcDbLine
 10
1873.040115706035
 20
-4594.39801381593
 30
0.0
 11
1864.921336241436
 21
-4147.75223526668
 31
0.0
  0
LINE
  5
B5
330
1F
100
AcDbEntity
  8
0
  6
Continuous
 62
     7
100
AcDbLine
 10
1893.045681372709
 20
-4594.39801381593
 30
0.0
 11
1900.401268942949
 21
-4189.738403178123
 31
0.0
  0
LINE
  5
B6
330
1F
100
AcDbEntity
  8
1
  6
Continuous
 62
     7
100
AcDbLine
 10
1864.642898539293
 20
-4147.75223526668
 30
0.0
 11
1871.82442375313
 21
-4147.75223526668
 31
0.0
  0
LINE
  5
B7
330
1F
100
AcDbEntity
  8
1
  6
Continuous
 62
     7
100
AcDbLine
 10
1824.341323294816
 20
-3985.226667920291
 30
0.0
 11
1842.967955737771
 21
-4147.727438326913
 31
0.0
  0
LINE
  5
B8
330
1F
100
AcDbEntity
  8
1
  6
Continuous
 62
     7
100
AcDbLine
 10
1854.954741888646
 20
-3988.864436100287
 30
0.0
 11
1871.022814097266
 21
-4129.044048322004
 31
0.0
  0
LINE
  5
B9
330
1F
100
AcDbEntity
  8
1
  6
Continuous
 62
     7
100
AcDbLine
 10
1826.14339839997
 20
-3963.166933091584
 30
0.0
 11
1842.022814097266
 21
-3963.166933091584
 31
0.0
  0
LINE
  5
BA
330
1F
100
AcDbEntity
  8
1
  6
Continuous
 62
     7
100
AcDbLine
 10
1871.022814097266
 20
-3992.166933091584
 30
0.0
 11
1871.022814097266
 21
-4129.044048322004
 31
0.0
  0
LINE
  5
BB
330
1F
100
AcDbEntity
  8
1
  6
Continuous
 62
     7
100
AcDbLine
 10
1872.656975895081
 20
-4148.198288580678
 30
0.0
 11
1900.101686174184
 21
-4189.446215331533
 31
0.0
  0
LINE
  5
BC
330
1F
100
AcDbEntity
  8
1
  6
Continuous
 62
     7
100
AcDbLine
 10
2930.656975895081
 20
-4148.198288580678
 30
0.0
 11
2958.101686174184
 21
-4189.446215331533
 31
0.0
  0
LINE
  5
BD
330
1F
100
AcDbEntity
  8
1
  6
Continuous
 62
     7
100
AcDbLine
 10
875.1158619113826
 20
-3963.166933091584
 30
0.0
 11
1190.636483853622
 21
-3963.166933091584
 31
0.0
  0
LINE
  5
BE
330
1F
100
AcDbEntity
  8
1
  6
Continuous
 62
     7
100
AcDbLine
 10
2922.642898539293
 20
-4147.75223526668
 30
0.0
 11
2929.82442375313
 21
-4147.75223526668
 31
0.0
  0
LINE
  5
BF
330
1F
100
AcDbEntity
  8
0
  6
Continuous
 62
     7
100
AcDbLine
 10
761.6618350711805
 20
-4147.727438326912
 30
0.0
 11
765.0832223183215
 21
-4147.748648717859
 31
0.0
  0
LINE
  5
C0
330
1F
100
AcDbEntity
  8
0
  6
Continuous
 62
     7
100
AcDbLine
 10
767.6543934283167
 20
-4151.268188727689
 30
0.0
 11
765.9470175036907
 21
-4148.255567935649
 31
0.0
  0
LINE
  5
C1
330
1F
100
AcDbEntity
  8
0
  6
Continuous
 62
     7
100
AcDbLine
 10
770.0646595400434
 20
-4594.39801381593
 30
0.0
 11
761.9454612969663
 21
-4147.729196626309
 31
0.0
  0
LINE
  5
C2
330
1F
100
AcDbEntity
  8
0
  6
Continuous
 62
     7
100
AcDbLine
 10
2951.045681372709
 20
-4594.39801381593
 30
0.0
 11
2958.401268942949
 21
-4189.738403178123
 31
0.0
  0
LINE
  5
C3
330
1F
100
AcDbEntity
  8
0
  6
Continuous
 62
     7
100
AcDbLine
 10
2931.040115706035
 20
-4594.39801381593
 30
0.0
 11
2922.921336241436
 21
-4147.75223526668
 31
0.0
  0
LINE
  5
C4
330
1F
100
AcDbEntity
  8
0
  6
Continuous
 62
     7
100
AcDbLine
 10
790.0702252067175
 20
-4594.39801381593
 30
0.0
 11
797.4087829024443
 21
-4190.675283111214
 31
0.0
  0
LINE
  5
C5
330
1F
100
AcDbEntity
  8
0
  6
Continuous
 62
     7
100
AcDbLine
 10
2922.642898539293
 20
-4140.709249848801
 30
0.0
 11
2922.642898539293
 21
-4147.75223526668
 31
0.0
  0
LINE
  5
C6
330
1F
100
AcDbEntity
  8
0
  6
Continuous
 62
     7
100
AcDbLine
 10
2922.642898539293
 20
-4140.709249848801
 30
0.0
 11
2922.642898539214
 21
-4132.544048322004
 31
0.0
  0
LINE
  5
C7
330
1F
100
AcDbEntity
  8
0
  6
Continuous
 62
     7
100
AcDbLine
 10
3151.040790919133
 20
-4129.044048322005
 30
0.0
 11
2926.14289853972
 21
-4129.044048322004
 31
0.0
  0
LINE
  5
C8
330
1F
100
AcDbEntity
  8
0
  6
Continuous
 62
     7
100
AcDbLine
 10
1328.569915938703
 20
-3727.246450305549
 30
0.0
 11
1257.952468941766
 21
-3720.428806284541
 31
0.0
  0
LINE
  5
C9
330
1F
100
AcDbEntity
  8
0
  6
Continuous
 62
     7
100
AcDbLine
 10
761.7054778158506
 20
-4140.687552526506
 30
0.0
 11
761.6618350711805
 21
-4147.727438326912
 31
0.0
  0
LINE
  5
CA
330
1F
100
AcDbEntity
  8
0
  6
Continuous
 62
     7
100
AcDbLine
 10
789.6047347717304
 20
-4189.999000009349
 30
0.0
 11
767.6543934283167
 21
-4151.268188727689
 31
0.0
  0
LINE
  5
CB
330
1F
100
AcDbEntity
  8
0
  6
Continuous
 62
     7
100
AcDbLine
 10
3151.040790919133
 20
-4189.892268645531
 30
0.0
 11
2958.934238316135
 21
-4189.892268645531
 31
0.0
  0
LINE
  5
CC
330
1F
100
AcDbEntity
  8
1
  6
Continuous
 62
     7
100
AcDbLine
 10
790.4503571104739
 20
-4190.505641399283
 30
0.0
 11
1262.922825353086
 21
-4202.024200445481
 31
0.0
  0
LINE
  5
CD
330
1F
100
AcDbEntity
  8
1
  6
Continuous
 62
     7
100
AcDbLine
 10
873.1158619113826
 20
-3965.166933091584
 30
0.0
 11
873.1158619113826
 21
-4192.520970465281
 31
0.0
  0
LINE
  5
CE
330
1F
100
AcDbEntity
  8
1
  6
Continuous
 62
     7
100
AcDbLine
 10
770.0646595400434
 20
-4594.39801381593
 30
0.0
 11
790.0702252067175
 21
-4594.39801381593
 31
0.0
  0
LINE
  5
CF
330
1F
100
AcDbEntity
  8
1
  6
Continuous
 62
     7
100
AcDbLine
 10
1312.208808083109
 20
-4594.39801381593
 30
0.0
 11
1332.321519870945
 21
-4594.39801381593
 31
0.0
  0
LINE
  5
D0
330
1F
100
AcDbEntity
  8
1
  6
Continuous
 62
     7
100
AcDbLine
 10
2931.040115706035
 20
-4594.39801381593
 30
0.0
 11
2951.045681372709
 21
-4594.39801381593
 31
0.0
  0
LINE
  5
D1
330
1F
100
AcDbEntity
  8
1
  6
Continuous
 62
     2
100
AcDbLine
 10
-695.16997913752
 20
-4594.39801381593
 30
0.0
 11
3840.83002086248
 21
-4594.39801381593
 31
0.0
  0
LINE
  5
D2
330
1F
100
AcDbEntity
  8
0
  6
Continuous
 62
     2
100
AcDbLine
 10
1189.218163798215
 20
-2470.120879334789
 30
0.0
 11
873.2080785646995
 21
-2470.580001894101
 31
0.0
  0
LINE
  5
D3
330
1F
100
AcDbEntity
  8
1
  6
Continuous
 62
     2
100
AcDbLine
 10
1839.258884807162
 20
-2488.356466788312
 30
0.0
 11
1857.337958881303
 21
-2646.080278340601
 31
0.0
  0
LINE
  5
D4
330
1F
100
AcDbEntity
  8
1
  6
Continuous
 62
     2
100
AcDbLine
 10
2328.743622957366
 20
-2646.080278340601
 30
0.0
 11
2346.822697031507
 21
-2488.356466788312
 31
0.0
  0
LINE
  5
D5
330
1F
100
AcDbEntity
  8
1
  6
Continuous
 62
     2
100
AcDbLine
 10
-695.16997913752
 20
-3094.39801381593
 30
0.0
 11
3840.83002086248
 21
-3094.39801381593
 31
0.0
  0
LINE
  5
D6
330
1F
100
AcDbEntity
  8
1
  6
Continuous
 62
     2
100
AcDbLine
 10
-695.16997913752
 20
-1594.398013815931
 30
0.0
 11
3840.83002086248
 21
-1594.398013815931
 31
0.0
  0
LINE
  5
D7
330
1F
100
AcDbEntity
  8
1
  6
Continuous
 62
     2
100
AcDbLine
 10
2328.743622957366
 20
-1146.080278340601
 30
0.0
 11
2346.822697031507
 21
-988.356466788312
 31
0.0
  0
LINE
  5
D8
330
1F
100
AcDbEntity
  8
1
  6
Continuous
 62
     2
100
AcDbLine
 10
1839.258884807162
 20
-988.356466788312
 30
0.0
 11
1857.337958881303
 21
-1146.080278340601
 31
0.0
  0
LINE
  5
D9
330
1F
100
AcDbEntity
  8
0
  6
Continuous
 62
     2
100
AcDbLine
 10
1189.218163798215
 20
-970.1208793347887
 30
0.0
 11
873.2080785646995
 21
-970.5800018941015
 31
0.0
  0
ARC
  5
DA
330
1F
100
AcDbEntity
  8
1
  6
Continuous
 62
     7
100
AcDbCircle
 10
-55.41571297815359
 20
-1739.463926645615
 30
0.0
 40
1395.298801870332
100
AcDbArc
 50
5.96769071136448
 51
22.68849840815228
  0
ARC
  5
DB
330
1F
100
AcDbEntity
  8
1
  6
Continuous
 62
     7
100
AcDbCircle
 10
193.5340359471649
 20
-1715.793813838572
 30
0.0
 40
1125.242278834449
100
AcDbArc
 50
6.19336005865458
 51
27.26353939944381
  0
ARC
  5
DC
330
1F
100
AcDbEntity
  8
0
  6
Continuous
 62
     7
100
AcDbCircle
 10
765.2054105618051
 20
-1140.709249848809
 30
0.0
 40
3.500000000000406
100
AcDbArc
 50
96.40948167893838
 51
179.6448077264535
  0
ARC
  5
DD
330
1F
100
AcDbEntity
  8
0
  6
Continuous
 62
     7
100
AcDbCircle
 10
911.0342412416688
 20
-2438.863206729844
 30
0.0
 40
1309.819158407832
100
AcDbArc
 50
91.65890585715154
 51
96.4094816789368
  0
ARC
  5
DE
330
1F
100
AcDbEntity
  8
0
  6
Continuous
 62
     7
100
AcDbCircle
 10
2926.142898539214
 20
-1132.544048322004
 30
0.0
 40
3.5
100
AcDbArc
 50
89.99999999171447
 51
180.0000000000149
  0
ARC
  5
DF
330
1F
100
AcDbEntity
  8
1
  6
Continuous
 62
     7
100
AcDbCircle
 10
2824.485966426665
 20
-1364.056663613358
 30
0.0
 40
1695.023205573023
100
AcDbArc
 50
157.7289290891905
 51
166.3193583990264
  0
ARC
  5
E0
330
1F
100
AcDbEntity
  8
1
  6
Continuous
 62
     7
100
AcDbCircle
 10
1294.560772130635
 20
-750.3840746360178
 30
0.0
 40
41.13358144199617
100
AcDbArc
 50
349.3229743282694
 51
34.22884066880909
  0
ARC
  5
E1
330
1F
100
AcDbEntity
  8
1
  6
Continuous
 62
     7
100
AcDbCircle
 10
1817.513604681149
 20
-968.0702799639243
 30
0.0
 40
3.404648242652227
100
AcDbArc
 50
109.7040944393179
 51
236.1343674464379
  0
ARC
  5
E2
330
1F
100
AcDbEntity
  8
1
  6
Continuous
 62
     7
100
AcDbCircle
 10
1842.022814097266
 20
-992.166933091584
 30
0.0
 40
29.0
100
AcDbArc
 50
0.0
 51
90.0
  0
ARC
  5
E3
330
1F
100
AcDbEntity
  8
1
  6
Continuous
 62
     7
100
AcDbCircle
 10
1826.14339839997
 20
-992.166933091584
 30
0.0
 40
28.99999999999988
100
AcDbArc
 50
6.53898363277387
 51
109.704094439317
  0
ARC
  5
E4
330
1F
100
AcDbEntity
  8
1
  6
Continuous
 62
     7
100
AcDbCircle
 10
1907.096690852617
 20
-1140.376689311835
 30
0.0
 40
64.54864970324904
100
AcDbArc
 50
186.5389836327739
 51
230.0946099709597
  0
ARC
  5
E5
330
1F
100
AcDbEntity
  8
1
  6
Continuous
 62
     7
100
AcDbCircle
 10
1804.47143123366
 20
-987.5042520522207
 30
0.0
 40
20.00000000000007
100
AcDbArc
 50
6.53898363277391
 51
56.13436744644126
  0
ARC
  5
E6
330
1F
100
AcDbEntity
  8
0
  6
Continuous
 62
     7
100
AcDbCircle
 10
1868.142898539214
 20
-1132.544048322004
 30
0.0
 40
3.5
100
AcDbArc
 50
89.9999999917182
 51
180.0
  0
ARC
  5
E7
330
1F
100
AcDbEntity
  8
0
  6
Continuous
 62
     7
100
AcDbCircle
 10
2317.938683299455
 20
-1132.544048322004
 30
0.0
 40
3.5
100
AcDbArc
 50
0.0
 51
90.00000000828553
  0
ARC
  5
E8
330
1F
100
AcDbEntity
  8
1
  6
Continuous
 62
     7
100
AcDbCircle
 10
2381.61015060501
 20
-987.5042520522207
 30
0.0
 40
20.00000000000447
100
AcDbArc
 50
123.8656325535615
 51
173.4610163672261
  0
ARC
  5
E9
330
1F
100
AcDbEntity
  8
1
  6
Continuous
 62
     7
100
AcDbCircle
 10
2278.984890986053
 20
-1140.376689311835
 30
0.0
 40
64.54864970324924
100
AcDbArc
 50
309.9053900290403
 51
353.461016367226
  0
ARC
  5
EA
330
1F
100
AcDbEntity
  8
1
  6
Continuous
 62
     7
100
AcDbCircle
 10
2359.938183438699
 20
-992.166933091584
 30
0.0
 40
29.00000000003487
100
AcDbArc
 50
70.29590556068345
 51
173.4610163672261
  0
ARC
  5
EB
330
1F
100
AcDbEntity
  8
1
  6
Continuous
 62
     7
100
AcDbCircle
 10
2344.058767741403
 20
-992.166933091584
 30
0.0
 40
29.0
100
AcDbArc
 50
90.0
 51
180.0
  0
ARC
  5
EC
330
1F
100
AcDbEntity
  8
1
  6
Continuous
 62
     7
100
AcDbCircle
 10
2368.56797715752
 20
-968.0702799639243
 30
0.0
 40
3.404648242665043
100
AcDbArc
 50
303.8656325535588
 51
70.29590556068574
  0
ARC
  5
ED
330
1F
100
AcDbEntity
  8
0
  6
Continuous
 62
     7
100
AcDbCircle
 10
3375.938683299051
 20
-1132.544048322004
 30
0.0
 40
3.5
100
AcDbArc
 50
0.0
 51
90.00000000826319
  0
ARC
  5
EE
330
1F
100
AcDbEntity
  8
1
  6
Continuous
 62
     7
100
AcDbCircle
 10
185.5607721306346
 20
-750.3840746360178
 30
0.0
 40
41.1335814419962
100
AcDbArc
 50
349.3229743282694
 51
34.22884066880889
  0
ARC
  5
EF
330
1F
100
AcDbEntity
  8
1
  6
Continuous
 62
     7
100
AcDbCircle
 10
-915.465964052835
 20
-1715.793813838572
 30
0.0
 40
1125.242278834449
100
AcDbArc
 50
6.19336005865458
 51
27.26353939944381
  0
ARC
  5
F0
330
1F
100
AcDbEntity
  8
1
  6
Continuous
 62
     7
100
AcDbCircle
 10
-1164.415712978154
 20
-1739.463926645615
 30
0.0
 40
1395.298801870332
100
AcDbArc
 50
5.96769071136448
 51
22.68849840815228
  0
ARC
  5
F1
330
1F
100
AcDbEntity
  8
1
  6
Continuous
 62
     7
100
AcDbCircle
 10
1094.035751512323
 20
-1154.998691499482
 30
0.0
 40
1041.611386113418
100
AcDbArc
 50
155.3328406918918
 51
173.5083820804203
  0
ARC
  5
F2
330
1F
100
AcDbEntity
  8
1
  6
Continuous
 62
     7
100
AcDbCircle
 10
439.0854792932996
 20
-1075.464636793311
 30
0.0
 40
381.900869061049
100
AcDbArc
 50
174.2550679531026
 51
191.0669149835799
  0
ARC
  5
F3
330
1F
100
AcDbEntity
  8
1
  6
Continuous
 62
     7
100
AcDbCircle
 10
295.5487017641881
 20
-1083.943246212447
 30
0.0
 40
225.7095813582732
100
AcDbArc
 50
197.1051715432896
 51
211.170867992087
  0
ARC
  5
F4
330
1F
100
AcDbEntity
  8
1
  6
Continuous
 62
     7
100
AcDbCircle
 10
-197.9652931973906
 20
-2438.863206388613
 30
0.0
 40
1309.819158407832
100
AcDbArc
 50
84.27386214058355
 51
96.40950224132504
  0
ARC
  5
F5
330
1F
100
AcDbEntity
  8
1
  6
Continuous
 62
     7
100
AcDbCircle
 10
1657.626387004969
 20
-1062.035348424888
 30
0.0
 40
477.3411078000964
100
AcDbArc
 50
168.0461828254569
 51
190.6557901014789
  0
ARC
  5
F6
330
1F
100
AcDbEntity
  8
1
  6
Continuous
 62
     7
100
AcDbCircle
 10
1404.548701764188
 20
-1083.943246212447
 30
0.0
 40
225.7095813582736
100
AcDbArc
 50
197.1051715432896
 51
211.170867992087
  0
ARC
  5
F7
330
1F
100
AcDbEntity
  8
1
  6
Continuous
 62
     7
100
AcDbCircle
 10
1404.548701764188
 20
-4083.943246212447
 30
0.0
 40
225.7095813582737
100
AcDbArc
 50
197.1051715432896
 51
211.1708679920871
  0
ARC
  5
F8
330
1F
100
AcDbEntity
  8
1
  6
Continuous
 62
     7
100
AcDbCircle
 10
1657.626387004969
 20
-4062.035348424887
 30
0.0
 40
477.3411078000963
100
AcDbArc
 50
168.0461828254569
 51
190.6557901014789
  0
ARC
  5
F9
330
1F
100
AcDbEntity
  8
1
  6
Continuous
 62
     7
100
AcDbCircle
 10
-197.9652931973906
 20
-5438.863206388613
 30
0.0
 40
1309.819158407832
100
AcDbArc
 50
84.27386214058355
 51
96.40950224132504
  0
ARC
  5
FA
330
1F
100
AcDbEntity
  8
1
  6
Continuous
 62
     7
100
AcDbCircle
 10
295.5487017641881
 20
-4083.943246212447
 30
0.0
 40
225.7095813582733
100
AcDbArc
 50
197.1051715432897
 51
211.1708679920872
  0
ARC
  5
FB
330
1F
100
AcDbEntity
  8
1
  6
Continuous
 62
     7
100
AcDbCircle
 10
439.0854792932996
 20
-4075.464636793311
 30
0.0
 40
381.900869061049
100
AcDbArc
 50
174.2550679531026
 51
191.0669149835798
  0
ARC
  5
FC
330
1F
100
AcDbEntity
  8
1
  6
Continuous
 62
     7
100
AcDbCircle
 10
1094.035751512323
 20
-4154.998691499482
 30
0.0
 40
1041.611386113418
100
AcDbArc
 50
155.3328406918917
 51
173.5083820804203
  0
ARC
  5
FD
330
1F
100
AcDbEntity
  8
1
  6
Continuous
 62
     7
100
AcDbCircle
 10
-1164.415712978154
 20
-4739.463926645615
 30
0.0
 40
1395.298801870332
100
AcDbArc
 50
5.96769071136452
 51
22.6884984081523
  0
ARC
  5
FE
330
1F
100
AcDbEntity
  8
1
  6
Continuous
 62
     7
100
AcDbCircle
 10
-915.465964052835
 20
-4715.793813838572
 30
0.0
 40
1125.242278834449
100
AcDbArc
 50
6.19336005865459
 51
27.26353939944378
  0
ARC
  5
FF
330
1F
100
AcDbEntity
  8
1
  6
Continuous
 62
     7
100
AcDbCircle
 10
185.5607721306346
 20
-3750.384074636017
 30
0.0
 40
41.13358144199631
100
AcDbArc
 50
349.3229743282686
 51
34.2288406688081
  0
ARC
  5
100
330
1F
100
AcDbEntity
  8
0
  6
Continuous
 62
     7
100
AcDbCircle
 10
3375.938683299051
 20
-4132.544048322004
 30
0.0
 40
3.5
100
AcDbArc
 50
0.0
 51
90.00000000826319
  0
ARC
  5
101
330
1F
100
AcDbEntity
  8
1
  6
Continuous
 62
     7
100
AcDbCircle
 10
2368.56797715752
 20
-3968.070279963924
 30
0.0
 40
3.404648242664383
100
AcDbArc
 50
303.8656325535663
 51
70.29590556068574
  0
ARC
  5
102
330
1F
100
AcDbEntity
  8
1
  6
Continuous
 62
     7
100
AcDbCircle
 10
2344.058767741403
 20
-3992.166933091584
 30
0.0
 40
29.0
100
AcDbArc
 50
90.0
 51
180.0
  0
ARC
  5
103
330
1F
100
AcDbEntity
  8
1
  6
Continuous
 62
     7
100
AcDbCircle
 10
2359.938183438699
 20
-3992.166933091584
 30
0.0
 40
29.00000000003508
100
AcDbArc
 50
70.29590556068361
 51
173.4610163672266
  0
ARC
  5
104
330
1F
100
AcDbEntity
  8
1
  6
Continuous
 62
     7
100
AcDbCircle
 10
2278.984890986053
 20
-4140.376689311835
 30
0.0
 40
64.548649703248
100
AcDbArc
 50
309.9053900290413
 51
353.4610163672262
  0
ARC
  5
105
330
1F
100
AcDbEntity
  8
1
  6
Continuous
 62
     7
100
AcDbCircle
 10
2381.61015060501
 20
-3987.50425205222
 30
0.0
 40
20.00000000000503
100
AcDbArc
 50
123.8656325535604
 51
173.4610163672261
  0
ARC
  5
106
330
1F
100
AcDbEntity
  8
0
  6
Continuous
 62
     7
100
AcDbCircle
 10
2317.938683299455
 20
-4132.544048322004
 30
0.0
 40
3.5
100
AcDbArc
 50
0.0
 51
90.00000000828553
  0
ARC
  5
107
330
1F
100
AcDbEntity
  8
0
  6
Continuous
 62
     7
100
AcDbCircle
 10
1868.142898539214
 20
-4132.544048322004
 30
0.0
 40
3.5
100
AcDbArc
 50
89.9999999917182
 51
180.0
  0
ARC
  5
108
330
1F
100
AcDbEntity
  8
1
  6
Continuous
 62
     7
100
AcDbCircle
 10
1804.47143123366
 20
-3987.50425205222
 30
0.0
 40
20.00000000000007
100
AcDbArc
 50
6.53898363277391
 51
56.13436744644235
  0
ARC
  5
109
330
1F
100
AcDbEntity
  8
1
  6
Continuous
 62
     7
100
AcDbCircle
 10
1907.096690852617
 20
-4140.376689311835
 30
0.0
 40
64.54864970324901
100
AcDbArc
 50
186.5389836327737
 51
230.0946099709587
  0
ARC
  5
10A
330
1F
100
AcDbEntity
  8
1
  6
Continuous
 62
     7
100
AcDbCircle
 10
1826.14339839997
 20
-3992.166933091584
 30
0.0
 40
28.99999999999985
100
AcDbArc
 50
6.53898363277342
 51
109.7040944393168
  0
ARC
  5
10B
330
1F
100
AcDbEntity
  8
1
  6
Continuous
 62
     7
100
AcDbCircle
 10
1842.022814097266
 20
-3992.166933091584
 30
0.0
 40
29.0
100
AcDbArc
 50
0.0
 51
90.0
  0
ARC
  5
10C
330
1F
100
AcDbEntity
  8
1
  6
Continuous
 62
     7
100
AcDbCircle
 10
1817.513604681149
 20
-3968.070279963924
 30
0.0
 40
3.404648242652227
100
AcDbArc
 50
109.7040944393179
 51
236.1343674464305
  0
ARC
  5
10D
330
1F
100
AcDbEntity
  8
1
  6
Continuous
 62
     7
100
AcDbCircle
 10
1294.560772130635
 20
-3750.384074636017
 30
0.0
 40
41.13358144199628
100
AcDbArc
 50
349.3229743282686
 51
34.2288406688083
  0
ARC
  5
10E
330
1F
100
AcDbEntity
  8
1
  6
Continuous
 62
     7
100
AcDbCircle
 10
2824.485966426665
 20
-4364.056663613358
 30
0.0
 40
1695.023205573023
100
AcDbArc
 50
157.7289290891904
 51
166.3193583990264
  0
ARC
  5
10F
330
1F
100
AcDbEntity
  8
0
  6
Continuous
 62
     7
100
AcDbCircle
 10
2926.142898539214
 20
-4132.544048322004
 30
0.0
 40
3.5
100
AcDbArc
 50
89.99999999171447
 51
180.0
  0
ARC
  5
110
330
1F
100
AcDbEntity
  8
0
  6
Continuous
 62
     7
100
AcDbCircle
 10
911.0342412416688
 20
-5438.863206729844
 30
0.0
 40
1309.819158407832
100
AcDbArc
 50
91.65890585715154
 51
96.4094816789368
  0
ARC
  5
111
330
1F
100
AcDbEntity
  8
0
  6
Continuous
 62
     7
100
AcDbCircle
 10
765.2054105618051
 20
-4140.709249848808
 30
0.0
 40
3.499999999999502
100
AcDbArc
 50
96.40948167894005
 51
179.6448077264646
  0
ARC
  5
112
330
1F
100
AcDbEntity
  8
1
  6
Continuous
 62
     7
100
AcDbCircle
 10
193.5340359471649
 20
-4715.793813838572
 30
0.0
 40
1125.242278834449
100
AcDbArc
 50
6.19336005865459
 51
27.26353939944378
  0
ARC
  5
113
330
1F
100
AcDbEntity
  8
1
  6
Continuous
 62
     7
100
AcDbCircle
 10
-55.41571297815359
 20
-4739.463926645615
 30
0.0
 40
1395.298801870332
100
AcDbArc
 50
5.96769071136452
 51
22.68849840815231
  0
ARC
  5
114
330
1F
100
AcDbEntity
  8
1
  6
Continuous
 62
     2
100
AcDbCircle
 10
1907.096690852617
 20
-2640.376689311835
 30
0.0
 40
50.08455186184795
100
AcDbArc
 50
186.5389836327742
 51
213.4100772663241
  0
ARC
  5
115
330
1F
100
AcDbEntity
  8
1
  6
Continuous
 62
     2
100
AcDbCircle
 10
1816.488925577399
 20
-2490.966412686553
 30
0.0
 40
22.91905017483972
100
AcDbArc
 50
6.5388393195648
 51
95.95672247293275
  0
ARC
  5
116
330
1F
100
AcDbEntity
  8
1
  6
Continuous
 62
     2
100
AcDbCircle
 10
2369.59265626127
 20
-2490.966412686553
 30
0.0
 40
22.91905017482492
100
AcDbArc
 50
84.04327752706443
 51
173.4611606804352
  0
ARC
  5
117
330
1F
100
AcDbEntity
  8
1
  6
Continuous
 62
     2
100
AcDbCircle
 10
2278.984890986053
 20
-2640.376689311835
 30
0.0
 40
50.08455186184742
100
AcDbArc
 50
326.5899227336752
 51
353.4610163672256
  0
ARC
  5
118
330
1F
100
AcDbEntity
  8
1
  6
Continuous
 62
     2
100
AcDbCircle
 10
548.6263870049686
 20
-2562.035348424887
 30
0.0
 40
477.3411078000955
100
AcDbArc
 50
170.3270694699527
 51
190.6557901014789
  0
ARC
  5
119
330
1F
100
AcDbEntity
  8
1
  6
Continuous
 62
     2
100
AcDbCircle
 10
1094.035751512323
 20
-2654.998691499482
 30
0.0
 40
1030.616408213842
100
AcDbArc
 50
155.1539729695741
 51
170.3270694699526
  0
ARC
  5
11A
330
1F
100
AcDbEntity
  8
1
  6
Continuous
 62
     2
100
AcDbCircle
 10
2203.035751512323
 20
-2654.998691499482
 30
0.0
 40
1030.616408213842
100
AcDbArc
 50
155.1539729695741
 51
169.2728021174436
  0
ARC
  5
11B
330
1F
100
AcDbEntity
  8
1
  6
Continuous
 62
     2
100
AcDbCircle
 10
2203.035751512323
 20
-1154.998691499482
 30
0.0
 40
1030.616408213841
100
AcDbArc
 50
155.1539729695742
 51
169.2728021174436
  0
ARC
  5
11C
330
1F
100
AcDbEntity
  8
1
  6
Continuous
 62
     2
100
AcDbCircle
 10
1094.035751512323
 20
-1154.998691499482
 30
0.0
 40
1030.616408213842
100
AcDbArc
 50
155.1539729695742
 51
170.3270694699527
  0
ARC
  5
11D
330
1F
100
AcDbEntity
  8
1
  6
Continuous
 62
     2
100
AcDbCircle
 10
548.6263870049686
 20
-1062.035348424888
 30
0.0
 40
477.3411078000955
100
AcDbArc
 50
170.3270694699526
 51
190.6557901014789
  0
ARC
  5
11E
330
1F
100
AcDbEntity
  8
1
  6
Continuous
 62
     2
100
AcDbCircle
 10
2278.984890986053
 20
-1140.376689311835
 30
0.0
 40
50.08455186184742
100
AcDbArc
 50
326.5899227336752
 51
353.4610163672259
  0
ARC
  5
11F
330
1F
100
AcDbEntity
  8
1
  6
Continuous
 62
     2
100
AcDbCircle
 10
2369.59265626127
 20
-990.9664126865529
 30
0.0
 40
22.91905017482424
100
AcDbArc
 50
84.04327752706425
 51
173.4611606804361
  0
ARC
  5
120
330
1F
100
AcDbEntity
  8
1
  6
Continuous
 62
     2
100
AcDbCircle
 10
1816.488925577399
 20
-990.9664126865529
 30
0.0
 40
22.91905017483969
100
AcDbArc
 50
6.53883931956396
 51
95.95672247293292
  0
ARC
  5
121
330
1F
100
AcDbEntity
  8
1
  6
Continuous
 62
     2
100
AcDbCircle
 10
1907.096690852617
 20
-1140.376689311835
 30
0.0
 40
50.08455186184792
100
AcDbArc
 50
186.5389836327739
 51
213.4100772663241
  0
SPLINE
  5
122
330
1F
100
AcDbEntity
  8
0
  6
Continuous
 62
     7
100
AcDbSpline
210
0.0
220
0.0
230
1.0
 70
     8
 71
     3
 72
    19
 73
    15
 74
    13
 42
0.0000000001
 43
0.0000000001
 44
0.00000001
 40
0.0
 40
0.0
 40
0.0
 40
0.0
 40
2.274401850954155
 40
4.561441957953958
 40
7.376596456231322
 40
10.1128649861497
 40
15.6419273296831
 40
21.21577175116393
 40
26.72186919210549
 40
32.31864205667135
 40
35.07949731064149
 40
37.87004808020431
 40
40.92806618380733
 40
43.42145321850822
 40
43.42145321850822
 40
43.42145321850822
 40
43.42145321850822
 10
1263.946603681274
 20
-1201.058952593189
 30
0.0
 10
1263.972728364421
 20
-1200.30126889425
 30
0.0
 10
1264.025122898745
 20
-1198.781691246287
 30
0.0
 10
1264.109890113757
 20
-1196.324287333332
 30
0.0
 10
1264.20002058945
 20
-1193.713021293438
 30
0.0
 10
1264.327101882107
 20
-1190.021713054632
 30
0.0
 10
1264.48432921029
 20
-1185.411334480877
 30
0.0
 10
1264.667930113801
 20
-1179.878043710309
 30
0.0
 10
1264.844679773743
 20
-1174.321947322537
 30
0.0
 10
1264.98347196323
 20
-1169.7027869098
 30
0.0
 10
1265.089264980632
 20
-1165.988232802457
 30
0.0
 10
1265.167719104875
 20
-1163.119496869984
 30
0.0
 10
1265.240561418272
 20
-1160.339797950434
 30
0.0
 10
1265.286204828891
 20
-1158.489892390616
 30
0.0
 10
1265.306705348204
 20
-1157.659016166784
 30
0.0
 11
1263.946603681274
 21
-1201.058952593189
 31
0.0
 11
1264.024983372501
 21
-1198.785901691069
 31
0.0
 11
1264.103828649812
 21
-1196.500221076182
 31
0.0
 11
1264.200885459816
 21
-1193.686740167272
 31
0.0
 11
1264.294973792872
 21
-1190.952089759376
 31
0.0
 11
1264.482975884738
 21
-1185.426224613344
 31
0.0
 11
1264.66740121708
 21
-1179.855432126483
 31
0.0
 11
1264.842114768936
 21
-1174.352107294716
 31
0.0
 11
1265.009908423128
 21
-1168.757850258509
 31
0.0
 11
1265.088465368074
 21
-1165.998112854375
 31
0.0
 11
1265.164775103643
 21
-1163.208605653853
 31
0.0
 11
1265.244632548427
 21
-1160.151630431435
 31
0.0
 11
1265.306705348204
 21
-1157.659016166784
 31
0.0
  0
SPLINE
  5
123
330
1F
100
AcDbEntity
  8
0
  6
Continuous
 62
     7
100
AcDbSpline
210
0.0
220
0.0
230
1.0
 70
     8
 71
     3
 72
    51
 73
    47
 74
    45
 42
0.0000000001
 43
0.0000000001
 44
0.00000001
 40
0.0
 40
0.0
 40
0.0
 40
0.0
 40
26.4040789641293
 40
54.66236704965289
 40
68.28024009894311
 40
81.98173957220716
 40
88.81823017417052
 40
95.63836533790594
 40
97.34662856199446
 40
99.05292008640559
 40
100.6289414310224
 40
102.4677938525182
 40
105.8873003955666
 40
109.2985033786762
 40
136.787454058361
 40
163.9878333421071
 40
177.6602302085759
 40
191.3374716127746
 40
194.7524770993822
 40
198.1696072392405
 40
201.2573818609183
 40
204.9991994347535
 40
211.8247244738633
 40
218.6579626457371
 40
245.9929525845828
 40
273.2985540997526
 40
286.984437119675
 40
300.616017651216
 40
302.1507807888592
 40
304.0307857784027
 40
305.7386463469935
 40
307.4454852435135
 40
310.8620316394308
 40
314.2747525358934
 40
321.1107947381297
 40
327.933564434746
 40
355.3150199677203
 40
382.5808570039371
 40
389.4126133540807
 40
396.2424831158989
 40
397.9499989618169
 40
399.6574764699663
 40
401.066903899943
 40
403.0722821136756
 40
405.085086341152
 40
407.0978905686286
 40
407.0978905686286
 40
407.0978905686286
 40
407.0978905686286
 10
1265.306705348204
 20
-1157.659016166784
 30
0.0
 10
1265.49458607161
 20
-1148.859722355413
 30
0.0
 10
1265.883541318955
 20
-1130.643210098032
 30
0.0
 10
1266.493484834418
 20
-1107.890207990251
 30
0.0
 10
1267.325569368383
 20
-1089.382460407196
 30
0.0
 10
1268.003698284559
 20
-1078.016797222712
 30
0.0
 10
1268.67466995147
 20
-1068.92200925987
 30
0.0
 10
1269.104489802529
 20
-1063.818326974259
 30
0.0
 10
1269.415257407438
 20
-1060.420944670559
 30
0.0
 10
1269.571691404365
 20
-1058.764788205488
 30
0.0
 10
1269.737190573192
 20
-1057.065772267249
 30
0.0
 10
1269.965002223663
 20
-1054.799061728093
 30
0.0
 10
1270.267480122328
 20
-1051.925056892052
 30
0.0
 10
1271.53362550163
 20
-1040.555455421377
 30
0.0
 10
1274.201274301469
 20
-1021.365023149224
 30
0.0
 10
1278.326960523994
 20
-998.9479573567754
 30
0.0
 10
1282.123684502323
 20
-981.164653229331
 30
0.0
 10
1284.437239266448
 20
-971.1735967699074
 30
0.0
 10
1286.04349642516
 20
-964.5285130461202
 30
0.0
 10
1286.832368738276
 20
-961.3173466897338
 30
0.0
 10
1287.658641471816
 20
-958.0032170103544
 30
0.0
 10
1288.775043710562
 20
-953.5905349545441
 30
0.0
 10
1290.225292489595
 20
-947.9745382536157
 30
0.0
 10
1293.712961346745
 20
-934.7624593575687
 30
0.0
 10
1299.160242671484
 20
-915.0080590137761
 30
0.0
 10
1305.264461931748
 20
-893.0657583117662
 30
0.0
 10
1309.972356936505
 20
-875.4770199003008
 30
0.0
 10
1312.361338329803
 20
-866.1607376492743
 30
0.0
 10
1313.728029388471
 20
-860.6454302370298
 30
0.0
 10
1314.13565766344
 20
-858.9872545972514
 30
0.0
 10
1314.553707143483
 20
-857.2725781782689
 30
0.0
 10
1315.08911305272
 20
-855.0593345822456
 30
0.0
 10
1315.750826390021
 20
-852.2919719922972
 30
0.0
 10
1316.79503897956
 20
-847.8581646243543
 30
0.0
 10
1318.072135794965
 20
-842.3127670567341
 30
0.0
 10
1321.060707944224
 20
-828.9630435116319
 30
0.0
 10
1325.25416513729
 20
-808.9052455979775
 30
0.0
 10
1329.156243292598
 20
-788.7869050511938
 30
0.0
 10
1331.702792587312
 20
-775.3842031574411
 30
0.0
 10
1332.654088221649
 20
-770.3502519260792
 30
0.0
 10
1333.287249119843
 20
-766.9945075762694
 30
0.0
 10
1333.585284266078
 20
-765.4142258964343
 30
0.0
 10
1333.901646441352
 20
-763.736362857928
 30
0.0
 10
1334.236837204308
 20
-761.9584810560303
 30
0.0
 10
1334.609297526685
 20
-759.9829569353326
 30
0.0
 10
1334.857908971276
 20
-758.664318977271
 30
0.0
 10
1334.982214693571
 20
-758.0049999982404
 30
0.0
 11
1265.306705348204
 21
-1157.659016166784
 31
0.0
 11
1265.893526367538
 21
-1131.261458949586
 31
0.0
 11
1266.739416482728
 21
-1103.015834236412
 31
0.0
 11
1267.357459464215
 21
-1089.411993261907
 31
0.0
 11
1268.182696927619
 21
-1075.735368278204
 31
0.0
 11
1268.686873562116
 21
-1068.917494000105
 31
0.0
 11
1269.260525203159
 21
-1062.121527001484
 31
0.0
 11
1269.416156291399
 21
-1060.420367923929
 31
0.0
 11
1269.576635962312
 21
-1058.72163985814
 31
0.0
 11
1269.729436088258
 21
-1057.153043224139
 31
0.0
 11
1269.913314867375
 21
-1055.32340751651
 31
0.0
 11
1270.271198753967
 21
-1051.922680517519
 31
0.0
 11
1270.648729412852
 21
-1048.532433270845
 31
0.0
 11
1274.413992410711
 21
-1021.302574585441
 31
0.0
 11
1279.31082404861
 21
-994.5466093984078
 31
0.0
 11
1282.161629789491
 21
-981.1747231177822
 31
0.0
 11
1285.243085334247
 21
-967.8491250391058
 31
0.0
 11
1286.045388556296
 21
-964.5297015931667
 31
0.0
 11
1286.860559483903
 21
-961.2112268303408
 31
0.0
 11
1287.607463496128
 21
-958.2151483082057
 31
0.0
 11
1288.525032595238
 21
-954.587578087766
 31
0.0
 11
1290.230561325753
 21
-947.9785718229103
 31
0.0
 11
1291.973540676194
 21
-941.3713661429357
 31
0.0
 11
1299.172796883847
 21
-915.0014517514675
 31
0.0
 11
1306.42393434057
 21
-888.6762379880627
 31
0.0
 11
1309.953805969156
 21
-875.4534016690006
 31
0.0
 11
1313.330792921212
 21
-862.2467386948224
 31
0.0
 11
1313.699935080979
 21
-860.7570300137204
 31
0.0
 11
1314.148747202817
 21
-858.9313831584934
 31
0.0
 11
1314.553292277711
 21
-857.2721269986055
 31
0.0
 11
1314.95462583715
 21
-855.6131422510139
 31
0.0
 11
1315.74923260901
 21
-852.2902836392807
 31
0.0
 11
1316.531627682942
 21
-848.9684585587805
 31
0.0
 11
1318.066326798143
 21
-842.3069143221521
 31
0.0
 11
1319.557352789431
 21
-835.6490597257848
 31
0.0
 11
1325.196891478517
 21
-808.8546627279319
 31
0.0
 11
1330.425963384523
 21
-782.094941573044
 31
0.0
 11
1331.701801130411
 21
-775.3833744778051
 31
0.0
 11
1332.970631871988
 21
-768.6723991751663
 31
0.0
 11
1333.287228941366
 21
-766.9944907570093
 31
0.0
 11
1333.60368323364
 21
-765.3165944188115
 31
0.0
 11
1333.86483625469
 21
-763.931572837764
 31
0.0
 11
1334.236379769911
 21
-761.9609137611071
 31
0.0
 11
1334.609297231755
 21
-759.9829568796764
 31
0.0
 11
1334.982214693571
 21
-758.0049999982404
 31
0.0
  0
SPLINE
  5
124
330
1F
100
AcDbEntity
  8
0
  6
Continuous
 62
     7
100
AcDbSpline
210
0.0
220
0.0
230
1.0
 70
     8
 71
     3
 72
   174
 73
   170
 74
   168
 42
0.0000000001
 43
0.0000000001
 44
0.00000001
 40
0.0
 40
0.0
 40
0.0
 40
0.0
 40
0.0228258304274295
 40
0.046130693005545
 40
0.1284228032137604
 40
0.2401473092098201
 40
0.3093659181923421
 40
0.3875340479455934
 40
0.4301625098896993
 40
0.4750653833518921
 40
0.5267062694786112
 40
0.5720079726826807
 40
0.8357678941376492
 40
1.120118633516991
 40
1.409246849651577
 40
1.686961096987775
 40
1.871304481489443
 40
2.053829082846703
 40
2.102374323024208
 40
2.150799513955524
 40
2.212809446840217
 40
2.249784531828353
 40
2.349815807503084
 40
2.453602143204319
 40
2.892753432897267
 40
3.343194967056188
 40
3.482124042393124
 40
3.644478723230589
 40
3.829233661627919
 40
3.966003056803979
 40
4.137402815485987
 40
4.341979042721544
 40
4.674818835344819
 40
5.043490780758199
 40
5.448437402006285
 40
6.404580653738671
 40
7.40363173069407
 40
8.438337115050079
 40
9.50142786446836
 40
10.58562601594877
 40
10.95122607353625
 40
11.35405117256374
 40
11.79157633168018
 40
12.26127925732453
 40
12.76064066883675
 40
13.28714466846639
 40
13.76454884173822
 40
14.20641343724504
 40
14.61133065918838
 40
15.00975213720885
 40
15.43721443125992
 40
15.88954529234248
 40
16.32752150532868
 40
16.7233474461422
 40
16.92256680088162
 40
17.12552320080497
 40
17.17522669745368
 40
17.22454553048996
 40
17.27342160768661
 40
17.323020736937
 40
17.4218571668797
 40
17.52073653438963
 40
18.33089174691851
 40
19.14891287148549
 40
19.35740453477942
 40
19.56665123897536
 40
19.70934040435422
 40
19.82944325821181
 40
19.92337504182088
 40
19.98755095144062
 40
20.41032839472611
 40
20.82956948734612
 40
21.67515468580928
 40
22.50382800162994
 40
22.72966643208125
 40
22.92973282104166
 40
23.10015895284371
 40
23.23707660471507
 40
23.33661754821314
 40
23.58896123332378
 40
23.81385613906088
 40
24.00813385290127
 40
24.16862596078142
 40
24.42120108673357
 40
24.63336564027478
 40
24.80255855977656
 40
24.92621878224564
 40
25.00178524349869
 40
25.42029600504561
 40
25.83569437092803
 40
27.50830809691251
 40
29.17480634129964
 40
32.5271010122329
 40
35.86949639583855
 40
42.61646241310928
 40
49.32287901949208
 40
52.68131763636673
 40
56.080508445566
 40
56.92432776740859
 40
57.77304859609401
 40
57.90913341861716
 40
58.08407402120486
 40
58.2957762476756
 40
58.54214594402097
 40
58.82108895896495
 40
59.13051114437668
 40
59.46831835569095
 40
59.67921471788167
 40
59.89293379424214
 40
60.10536047394962
 40
60.31784759406113
 40
60.7429990653445
 40
61.16822005214795
 40
61.38037291064455
 40
61.59366091753554
 40
61.80644423223456
 40
62.01927257075363
 40
62.44689980866978
 40
62.8711174835903
 40
66.28790946864196
 40
69.7161937302608
 40
71.43556427883455
 40
73.15817945987827
 40
73.48296780665004
 40
73.78859110211039
 40
74.07089350818792
 40
74.32571918558445
 40
74.54891229401075
 40
74.73631699236608
 40
74.88377743888199
 40
75.74336768883798
 40
76.61220394857615
 40
77.47781700029714
 40
78.34339970315132
 40
78.70821099565033
 40
79.12082755823063
 40
79.57823270679884
 40
80.07740976139164
 40
81.81555760992985
 40
83.55398938826647
 40
84.55966936500691
 40
85.53075357176704
 40
86.4656566544666
 40
87.36279324304336
 40
88.22057795244068
 40
89.03742538352793
 40
89.81175012396275
 40
90.54196674901499
 40
97.57700984297249
 40
104.6503604633923
 40
111.762491848971
 40
118.9097040700838
 40
126.0902591541977
 40
133.3024188132865
 40
134.9675254932867
 40
136.6755700985959
 40
138.4260038303341
 40
140.218277934221
 40
142.0518437016513
 40
143.92615247078
 40
145.8406556276333
 40
147.7948046072314
 40
155.0852074522845
 40
162.395323730458
 40
174.1294674145199
 40
185.9034453900799
 40
197.7100212611993
 40
209.5419581617147
 40
221.3920190964343
 40
221.3920190964343
 40
221.3920190964343
 40
221.3920190964343
 10
2929.902048042086
 20
-721.368551400186
 30
0.0
 10
2929.90257511888
 20
-721.3609315190292
 30
0.0
 10
2929.903640333914
 20
-721.3455318427939
 30
0.0
 10
2929.917949334179
 20
-721.3047070706461
 30
0.0
 10
2929.966199372258
 20
-721.2477566586124
 30
0.0
 10
2930.03960828903
 20
-721.1990608917799
 30
0.0
 10
2930.116127375506
 20
-721.158902032681
 30
0.0
 10
2930.174029099916
 20
-721.1331270566745
 30
0.0
 10
2930.225256259247
 20
-721.1124706425308
 30
0.0
 10
2930.268665615528
 20
-721.0960963195975
 30
0.0
 10
2930.313249081439
 20
-721.0803420102434
 30
0.0
 10
2930.427323801154
 20
-721.0423372243829
 30
0.0
 10
2930.617952440541
 20
-720.988936328028
 30
0.0
 10
2930.890004190374
 20
-720.9264868745438
 30
0.0
 10
2931.168507765873
 20
-720.8720616109918
 30
0.0
 10
2931.415308648782
 20
-720.829700850823
 30
0.0
 10
2931.627579953234
 20
-720.7964205733015
 30
0.0
 10
2931.764588967126
 20
-720.7763358634713
 30
0.0
 10
2931.856841533133
 20
-720.7633286637038
 30
0.0
 10
2931.909332453956
 20
-720.7560475468762
 30
0.0
 10
2931.958019532509
 20
-720.7494148188661
 30
0.0
 10
2932.02376830583
 20
-720.7405869058098
 30
0.0
 10
2932.103347106608
 20
-720.730117961387
 30
0.0
 10
2932.315943127311
 20
-720.7029626597708
 30
0.0
 10
2932.644794912218
 20
-720.6641132808637
 30
0.0
 10
2932.98575665217
 20
-720.6281941593579
 30
0.0
 10
2933.235130922545
 20
-720.603689841254
 30
0.0
 10
2933.396420952604
 20
-720.5883983736146
 30
0.0
 10
2933.557049589885
 20
-720.573769370422
 30
0.0
 10
2933.720729317619
 20
-720.5594116737773
 30
0.0
 10
2933.891038814157
 20
-720.5450317879049
 30
0.0
 10
2934.126544728366
 20
-720.5260148252338
 30
0.0
 10
2934.427711818099
 20
-720.503185173356
 30
0.0
 10
2934.795636708068
 20
-720.4774809949489
 30
0.0
 10
2935.37105492778
 20
-720.4407358609715
 30
0.0
 10
2936.15663856978
 20
-720.3981592243696
 30
0.0
 10
2937.152395053758
 20
-720.3558965208601
 30
0.0
 10
2938.184178605785
 20
-720.3232056637803
 30
0.0
 10
2939.244612216851
 20
-720.3002882791669
 30
0.0
 10
2940.08219608775
 20
-720.290265582934
 30
0.0
 10
2940.699727781496
 20
-720.2867475153985
 30
0.0
 10
2941.101710957317
 20
-720.285788778805
 30
0.0
 10
2941.538396027843
 20
-720.2863221587446
 30
0.0
 10
2942.007254341997
 20
-720.2887212960934
 30
0.0
 10
2942.505757091869
 20
-720.2933598528991
 30
0.0
 10
2943.0068011206
 20
-720.3002723182656
 30
0.0
 10
2943.488646358355
 20
-720.3090804003103
 30
0.0
 10
2943.929931330732
 20
-720.3190057110365
 30
0.0
 10
2944.344854607464
 20
-720.3299957569972
 30
0.0
 10
2944.754933196223
 20
-720.3424627837517
 30
0.0
 10
2945.180751621678
 20
-720.3571869872445
 30
0.0
 10
2945.619672089089
 20
-720.3744101112779
 30
0.0
 10
2946.047966043264
 20
-720.3933563537373
 30
0.0
 10
2946.391891506931
 20
-720.4102883219184
 30
0.0
 10
2946.65751879152
 20
-720.4243800229183
 30
0.0
 10
2946.807912060006
 20
-720.4327616055025
 30
0.0
 10
2946.908405677376
 20
-720.4385394754147
 30
0.0
 10
2946.957621958818
 20
-720.4414023096888
 30
0.0
 10
2947.006801247951
 20
-720.44430170499
 30
0.0
 10
2947.072456349398
 20
-720.4481968768234
 30
0.0
 10
2947.154753769474
 20
-720.4530147388793
 30
0.0
 10
2947.490150328445
 20
-720.4724120577127
 30
0.0
 10
2948.064991844508
 20
-720.5036376111586
 30
0.0
 10
2948.676484521841
 20
-720.5335773915683
 30
0.0
 10
2949.087966904688
 20
-720.5525568172941
 30
0.0
 10
2949.274587049531
 20
-720.5609596213618
 30
0.0
 10
2949.431780195242
 20
-720.5678992030702
 30
0.0
 10
2949.550575715851
 20
-720.573068612341
 30
0.0
 10
2949.643226901698
 20
-720.5770537552362
 30
0.0
 10
2949.836678657375
 20
-720.585322213243
 30
0.0
 10
2950.138462435352
 20
-720.5983497509869
 30
0.0
 10
2950.700462429879
 20
-720.6228685994474
 30
0.0
 10
2951.397608684301
 20
-720.6538276200206
 30
0.0
 10
2952.030323378272
 20
-720.6825379869833
 30
0.0
 10
2952.448075102595
 20
-720.7017380617117
 30
0.0
 10
2952.646640381707
 20
-720.7109097521749
 30
0.0
 10
2952.815595406734
 20
-720.7187475626492
 30
0.0
 10
2952.951076946568
 20
-720.7250541192899
 30
0.0
 10
2953.11383377223
 20
-720.7326524446288
 30
0.0
 10
2953.30588480656
 20
-720.7416105827754
 30
0.0
 10
2953.529481683512
 20
-720.7520139946031
 30
0.0
 10
2953.722495223746
 20
-720.7609778510999
 30
0.0
 10
2953.924726273036
 20
-720.7703545967778
 30
0.0
 10
2954.132913931458
 20
-720.7799917882294
 30
0.0
 10
2954.343999659585
 20
-720.7897435945662
 30
0.0
 10
2954.512160188057
 20
-720.797498186706
 30
0.0
 10
2954.634836769785
 20
-720.8031463025325
 30
0.0
 10
2954.840531855625
 20
-720.8126057849877
 30
0.0
 10
2955.143370505909
 20
-720.8265286446314
 30
0.0
 10
2955.977998785337
 20
-720.8648511567242
 30
0.0
 10
2957.228192320938
 20
-720.9220964489086
 30
0.0
 10
2959.456347544134
 20
-721.0236630789311
 30
0.0
 10
2962.240558111654
 20
-721.1497220804582
 30
0.0
 10
2966.716606814984
 20
-721.3505586604008
 30
0.0
 10
2972.309724646372
 20
-721.5981069151309
 30
0.0
 10
2977.908381851425
 20
-721.8414023626167
 30
0.0
 10
2982.392280303846
 20
-722.0335929851453
 30
0.0
 10
2984.923815172254
 20
-722.1410936472786
 30
0.0
 10
2986.619548154725
 20
-722.2126874680584
 30
0.0
 10
2987.228550074818
 20
-722.2383330357573
 30
0.0
 10
2987.614790391282
 20
-722.2545849910284
 30
0.0
 10
2987.788879185633
 20
-722.2619033336354
 30
0.0
 10
2987.999697943996
 20
-722.2707471561775
 30
0.0
 10
2988.2451548187
 20
-722.2810175283474
 30
0.0
 10
2988.523158005292
 20
-722.2926144925503
 30
0.0
 10
2988.831615688486
 20
-722.3054383474782
 30
0.0
 10
2989.11741255989
 20
-722.3172759511094
 30
0.0
 10
2989.371337100196
 20
-722.3277600614595
 30
0.0
 10
2989.583504576538
 20
-722.3364989900565
 30
0.0
 10
2989.796202793244
 20
-722.345236961353
 30
0.0
 10
2990.079319955225
 20
-722.3568464357619
 30
0.0
 10
2990.433310067255
 20
-722.3713358669431
 30
0.0
 10
2990.787190444378
 20
-722.3857817868457
 30
0.0
 10
2991.070509356499
 20
-722.3973246232264
 30
0.0
 10
2991.283074879383
 20
-722.4059732632762
 30
0.0
 10
2991.495865825487
 20
-722.4146200058865
 30
0.0
 10
2991.780044917327
 20
-722.42615160349
 30
0.0
 10
2992.134645620553
 20
-722.4405051301592
 30
0.0
 10
2993.556368128281
 20
-722.4978606926536
 30
0.0
 10
2995.977556165412
 20
-722.5940627917604
 30
0.0
 10
2998.830241163801
 20
-722.7043516509391
 30
0.0
 10
3001.118691341347
 20
-722.7910025209894
 30
0.0
 10
3002.373408568386
 20
-722.8378481873494
 30
0.0
 10
3003.157213924513
 20
-722.8668648617358
 30
0.0
 10
3003.461244739775
 20
-722.8780913539634
 30
0.0
 10
3003.741971406598
 20
-722.8884340100359
 30
0.0
 10
3003.995240662885
 20
-722.8977463089586
 30
0.0
 10
3004.2168992418
 20
-722.9058818508086
 30
0.0
 10
3004.402793879195
 20
-722.9126941639371
 30
0.0
 10
3004.800679281458
 20
-722.9272564834166
 30
0.0
 10
3005.425559697363
 20
-722.950040832623
 30
0.0
 10
3006.289672793601
 20
-722.981342912833
 30
0.0
 10
3007.155789473099
 20
-723.0125121203406
 30
0.0
 10
3007.85401240894
 20
-723.0374747994636
 30
0.0
 10
3008.401336217359
 20
-723.0569499672233
 30
0.0
 10
3008.812688530765
 20
-723.0715407653058
 30
0.0
 10
3009.26880329252
 20
-723.0876624862722
 30
0.0
 10
3010.166490400468
 20
-723.1192690717414
 30
0.0
 10
3011.490936827578
 20
-723.165478234705
 30
0.0
 10
3012.984140520432
 20
-723.2168347632229
 30
0.0
 10
3014.22182379898
 20
-723.2589223393911
 30
0.0
 10
3015.191827919134
 20
-723.2916409070564
 30
0.0
 10
3016.125679761336
 20
-723.32289307312
 30
0.0
 10
3017.021793787695
 20
-723.35265548749
 30
0.0
 10
3017.878584469262
 20
-723.3809045252297
 30
0.0
 10
3018.694466273324
 20
-723.4076166377087
 30
0.0
 10
3019.467853673789
 20
-723.432768211592
 30
0.0
 10
3022.312896724566
 20
-723.5247057513875
 30
0.0
 10
3027.256689872393
 20
-723.6792127386801
 30
0.0
 10
3034.32715641975
 20
-723.8867699392022
 30
0.0
 10
3041.435375456881
 20
-724.0820973783077
 30
0.0
 10
3048.579667847063
 20
-724.2651450955416
 30
0.0
 10
3055.757617878038
 20
-724.4358474781909
 30
0.0
 10
3061.108938522397
 20
-724.5533482496014
 30
0.0
 10
3064.636609148402
 20
-724.6268856716518
 30
0.0
 10
3066.34411476223
 20
-724.6617608175775
 30
0.0
 10
3068.094015901466
 20
-724.6967479446106
 30
0.0
 10
3069.885764660465
 20
-724.7317832213478
 30
0.0
 10
3071.718813117732
 20
-724.766802797294
 30
0.0
 10
3073.592613351319
 20
-724.8017428296048
 30
0.0
 10
3075.506617458434
 20
-724.8365394584347
 30
0.0
 10
3079.225719662602
 20
-724.9023859196461
 30
0.0
 10
3084.743188111339
 20
-724.9938239552844
 30
0.0
 10
3093.520451637271
 20
-725.1237391852708
 30
0.0
 10
3103.792408557946
 20
-725.2521943113095
 30
0.0
 10
3115.563434396703
 20
-725.36662986146
 30
0.0
 10
3127.367329994592
 20
-725.4479078808748
 30
0.0
 10
3139.196767565258
 20
-725.4989083429016
 30
0.0
 10
3147.090769352425
 20
-725.5052360533898
 30
0.0
 10
3151.040790919335
 20
-725.508402329959
 30
0.0
 11
2929.902048042086
 21
-721.368551400186
 31
0.0
 11
2929.904626904417
 21
-721.3458717175653
 31
0.0
 11
2929.911945765694
 21
-721.323745920644
 31
0.0
 11
2929.96164906636
 21
-721.2581595401566
 31
0.0
 11
2930.052596222621
 21
-721.1932674758649
 31
0.0
 11
2930.113790289615
 21
-721.1609177928033
 31
0.0
 11
2930.185083164186
 21
-721.128861864419
 31
0.0
 11
2930.22461028321
 21
-721.1128996393431
 31
0.0
 11
2930.266614058013
 21
-721.097026676562
 31
0.0
 11
2930.315295108998
 21
-721.07979483409
 31
0.0
 11
2930.358267942208
 21
-721.0654567756759
 31
0.0
 11
2930.611807160698
 21
-720.992743909872
 31
0.0
 11
2930.888769416892
 21
-720.9283447512619
 31
0.0
 11
2931.17244236025
 21
-720.872444960819
 31
0.0
 11
2931.446113640235
 21
-720.825230199517
 31
0.0
 11
2931.628225009295
 21
-720.7966306773384
 31
0.0
 11
2931.808813962451
 21
-720.7701191685459
 31
0.0
 11
2931.856883676326
 21
-720.7633410455121
 31
0.0
 11
2931.904849496175
 21
-720.7566867804909
 31
0.0
 11
2931.966291450765
 21
-720.7483131317925
 31
0.0
 11
2932.002937685269
 21
-720.7433927246399
 31
0.0
 11
2932.102113996806
 21
-720.7303422325765
 31
0.0
 11
2932.205063423095
 21
-720.717188559896
 31
0.0
 11
2932.641157716593
 21
-720.6654621409468
 31
0.0
 11
2933.089104031365
 21
-720.6181158129181
 31
0.0
 11
2933.227366865477
 21
-720.6045262331822
 31
0.0
 11
2933.388996192036
 21
-720.58919641956
 31
0.0
 11
2933.572989328834
 21
-720.5724359639111
 31
0.0
 11
2933.70923567949
 21
-720.5604860940446
 31
0.0
 11
2933.880027027474
 21
-720.5460572087832
 31
0.0
 11
2934.083938873292
 21
-720.529583232788
 31
0.0
 11
2934.415824464248
 21
-720.5043982755803
 31
0.0
 11
2934.78359778218
 21
-720.478672997114
 31
0.0
 11
2935.18771898301
 21
-720.452830762313
 31
0.0
 11
2936.14244326455
 21
-720.4007590418595
 31
0.0
 11
2937.140585597225
 21
-720.3581569516751
 31
0.0
 11
2938.174766525589
 21
-720.3252170089879
 31
0.0
 11
2939.237606594198
 21
-720.3021317310257
 31
0.0
 11
2940.321726347604
 21
-720.289093635016
 31
0.0
 11
2940.687320468921
 21
-720.287010232396
 31
0.0
 11
2941.090144419883
 21
-720.2860484953445
 31
0.0
 11
2941.527669252454
 21
-720.2865830452805
 31
0.0
 11
2941.997366018601
 21
-720.2889885036236
 31
0.0
 11
2942.496705770289
 21
-720.2936394917924
 31
0.0
 11
2943.023159559484
 21
-720.300910631206
 31
0.0
 11
2943.500483829889
 21
-720.3096447905637
 31
0.0
 11
2943.942236503965
 21
-720.3195894227679
 31
0.0
 11
2944.347011541474
 21
-720.330319084254
 31
0.0
 11
2944.7452487307
 21
-720.3424358191946
 31
0.0
 11
2945.172455197604
 21
-720.3572225521282
 31
0.0
 11
2945.624437385957
 21
-720.374979502844
 31
0.0
 11
2946.061984635401
 21
-720.3943590705838
 31
0.0
 11
2946.457330667252
 21
-720.4138447196821
 31
0.0
 11
2946.65627010285
 21
-720.4244018152405
 31
0.0
 11
2946.85891180882
 21
-720.435699570396
 31
0.0
 11
2946.908533365557
 21
-720.4385524086451
 31
0.0
 11
2946.957768915968
 21
-720.4414173463089
 31
0.0
 11
2947.006560470868
 21
-720.4442905139882
 31
0.0
 11
2947.056072979234
 21
-720.4472205545559
 31
0.0
 11
2947.154740153661
 21
-720.4530022994882
 31
0.0
 11
2947.253454623916
 21
-720.458710423651
 31
0.0
 11
2948.062410431591
 21
-720.5027782079839
 31
0.0
 11
2948.879447081386
 21
-720.542898939906
 31
0.0
 11
2949.087717228389
 21
-720.5525072451778
 31
0.0
 11
2949.29675205983
 21
-720.5619211955449
 31
0.0
 11
2949.439302353163
 21
-720.5682149851183
 31
0.0
 11
2949.559291645302
 21
-720.5734366014108
 31
0.0
 11
2949.653136579094
 21
-720.5774749641362
 31
0.0
 11
2949.717253797383
 21
-720.5802189930079
 31
0.0
 11
2950.139638712288
 21
-720.5984330044245
 31
0.0
 11
2950.558481202277
 21
-720.616710376246
 31
0.0
 11
2951.403234255409
 21
-720.6542151370639
 31
0.0
 11
2952.231056010992
 21
-720.6917731633349
 31
0.0
 11
2952.456656303894
 21
-720.7021416015591
 31
0.0
 11
2952.656509612098
 21
-720.7113728090272
 31
0.0
 11
2952.826752668533
 21
-720.7192701590134
 31
0.0
 11
2952.963522206129
 21
-720.725637024791
 31
0.0
 11
2953.062954957813
 21
-720.730276779634
 31
0.0
 11
2953.31502470418
 21
-720.7420317097367
 31
0.0
 11
2953.539676545447
 21
-720.7524848835128
 31
0.0
 11
2953.733745090268
 21
-720.761497652567
 31
0.0
 11
2953.894064947301
 21
-720.768931368504
 31
0.0
 11
2954.146369908389
 21
-720.7806104463906
 31
0.0
 11
2954.358308428652
 21
-720.7904013303236
 31
0.0
 11
2954.527321751756
 21
-720.79819495739
 31
0.0
 11
2954.650851121368
 21
-720.8038822646784
 31
0.0
 11
2954.726337781156
 21
-720.807354189276
 31
0.0
 11
2955.144407065132
 21
-720.8265721841263
 31
0.0
 11
2955.55936821447
 21
-720.845625974253
 31
0.0
 11
2957.230231298754
 21
-720.9221323787459
 31
0.0
 11
2958.895000860736
 21
-720.9980185042429
 31
0.0
 11
2962.243864730792
 21
-721.1496441636946
 31
0.0
 11
2965.582900595072
 21
-721.2994653818179
 31
0.0
 11
2972.323267519987
 21
-721.5978010245353
 31
0.0
 11
2979.023360315853
 21
-721.8889714645699
 31
0.0
 11
2982.3787181222
 21
-722.0327905686595
 31
0.0
 11
2985.774848088489
 21
-722.177010572197
 31
0.0
 11
2986.617916417271
 21
-722.2126032809952
 31
0.0
 11
2987.465885410762
 21
-722.248319259522
 31
0.0
 11
2987.601849947843
 21
-722.2540397120777
 31
0.0
 11
2987.77663622153
 21
-722.2613863415335
 31
0.0
 11
2987.988152422444
 21
-722.270259302919
 31
0.0
 11
2988.234306741198
 21
-722.2805587512635
 31
0.0
 11
2988.513007368412
 21
-722.2921848415967
 31
0.0
 11
2988.822162494702
 21
-722.3050377289478
 31
0.0
 11
2989.159680310686
 21
-722.3190175683459
 31
0.0
 11
2989.370397139315
 21
-722.3277177820146
 31
0.0
 11
2989.583935167708
 21
-722.33651289601
 31
0.0
 11
2989.796182773009
 21
-722.3452334634085
 31
0.0
 11
2990.008491433266
 21
-722.3539402994019
 31
0.0
 11
2990.433287233363
 21
-722.3713271264274
 31
0.0
 11
2990.85815435945
 21
-722.38867108183
 31
0.0
 11
2991.070131365487
 21
-722.3973073008985
 31
0.0
 11
2991.283243046133
 21
-722.4059782556229
 31
0.0
 11
2991.495850910769
 21
-722.4146174054182
 31
0.0
 11
2991.70850425635
 21
-722.423246211251
 31
0.0
 11
2992.135781602682
 21
-722.440541410571
 31
0.0
 11
2992.559654489084
 21
-722.45764146577
 31
0.0
 11
2995.973752248338
 21
-722.5933026590736
 31
0.0
 11
2999.399476972896
 21
-722.725752989451
 31
0.0
 11
3001.117616257089
 21
-722.7908105287293
 31
0.0
 11
3002.839032087594
 21
-722.8550802762569
 31
0.0
 11
3003.163598096907
 21
-722.8670959242904
 31
0.0
 11
3003.469013237229
 21
-722.8783738137114
 31
0.0
 11
3003.751124241041
 21
-722.8887675620985
 31
0.0
 11
3004.005777840818
 21
-722.8981307870307
 31
0.0
 11
3004.228820769039
 21
-722.9063171060861
 31
0.0
 11
3004.416099758182
 21
-722.913180136844
 31
0.0
 11
3004.563461540725
 21
-722.9185734968829
 31
0.0
 11
3005.422480967674
 21
-722.9498947666956
 31
0.0
 11
3006.290747732131
 21
-722.9813474609499
 31
0.0
 11
3007.155800799756
 21
-723.0124785627851
 31
0.0
 11
3008.020830857204
 21
-723.043404525864
 31
0.0
 11
3008.385411432697
 21
-723.0563769237998
 31
0.0
 11
3008.797768672167
 21
-723.0710034330142
 31
0.0
 11
3009.254888364631
 21
-723.0871606821108
 31
0.0
 11
3009.7537562991
 21
-723.1047252996929
 31
0.0
 11
3011.490847208105
 21
-723.1653315471575
 31
0.0
 11
3013.228251652018
 21
-723.225088104961
 31
0.0
 11
3014.233350645333
 21
-723.2592674737884
 31
0.0
 11
3015.203882901764
 21
-723.2920039342874
 31
0.0
 11
3016.138262888878
 21
-723.3232739474317
 31
0.0
 11
3017.034905074239
 21
-723.3530539741951
 31
0.0
 11
3017.892223925413
 21
-723.3813204755509
 31
0.0
 11
3018.708633909964
 21
-723.408049912473
 31
0.0
 11
3019.482549495459
 21
-723.4332187459352
 31
0.0
 11
3020.212385149462
 21
-723.456803436911
 31
0.0
 11
3027.24399389001
 21
-723.6765984634393
 31
0.0
 11
3034.314297695102
 21
-723.8841872470849
 31
0.0
 11
3041.423744489591
 21
-724.0795820322353
 31
0.0
 11
3048.56861112617
 21
-724.2626756670866
 31
0.0
 11
3055.74713587273
 21
-724.4334204445344
 31
0.0
 11
3062.957556997161
 21
-724.5917686574741
 31
0.0
 11
3064.622302002204
 21
-724.6264720285654
 31
0.0
 11
3066.329990444606
 21
-724.661351211679
 31
0.0
 11
3068.080074405314
 21
-724.6963423488432
 31
0.0
 11
3069.872005965278
 21
-724.7313815820874
 31
0.0
 11
3071.705237205451
 21
-724.7664050534396
 31
0.0
 11
3073.579220206782
 21
-724.8013489049295
 31
0.0
 11
3075.493407050221
 21
-724.8361492785851
 31
0.0
 11
3077.447249816719
 21
-724.8707423164359
 31
0.0
 11
3084.736651376823
 21
-724.9915667291378
 31
0.0
 11
3092.045966842576
 21
-725.099767572599
 31
0.0
 11
3103.779191881774
 21
-725.2465946060066
 31
0.0
 11
3115.552614336498
 21
-725.3609671183794
 31
0.0
 11
3127.358906679298
 21
-725.4427895897846
 31
0.0
 11
3139.190741382727
 21
-725.4919665002888
 31
0.0
 11
3151.040790919335
 21
-725.508402329959
 31
0.0
  0
SPLINE
  5
125
330
1F
100
AcDbEntity
  8
0
  6
Continuous
 62
     7
100
AcDbSpline
210
0.0
220
0.0
230
1.0
 70
     8
 71
     3
 72
    31
 73
    27
 74
    25
 42
0.0000000001
 43
0.0000000001
 44
0.00000001
 40
0.0
 40
0.0
 40
0.0
 40
0.0
 40
2.45604393395337
 40
4.915455185162845
 40
7.011688266427635
 40
9.110547703818847
 40
11.04450080501213
 40
13.35454332231197
 40
17.11037774587973
 40
20.90347188045695
 40
35.00360501104304
 40
48.40438016052705
 40
63.93479905619178
 40
78.91683186567944
 40
82.76888119540567
 40
86.59317429210769
 40
90.4788187967133
 40
94.33791404884914
 40
98.22154892183688
 40
102.0799233419864
 40
104.0182866903096
 40
105.9505344268795
 40
108.2250733131192
 40
109.8211959836379
 40
125.1722979501426
 40
140.7911092320296
 40
140.7911092320296
 40
140.7911092320296
 40
140.7911092320296
 10
2928.492287368221
 20
-862.150650316617
 30
0.0
 10
2928.509876032864
 20
-861.3321579484075
 30
0.0
 10
2928.545077476789
 20
-859.69405103195
 30
0.0
 10
2928.593770979783
 20
-857.35732873765
 30
0.0
 10
2928.63896439637
 20
-855.1396211953194
 30
0.0
 10
2928.679612344234
 20
-853.0970103095174
 30
0.0
 10
2928.720696243291
 20
-850.9831244216684
 30
0.0
 10
2928.771202438233
 20
-848.3169926401825
 30
0.0
 10
2928.831190860148
 20
-845.0312160566456
 30
0.0
 10
2928.956927800375
 20
-837.8159571677542
 30
0.0
 10
2929.118776659146
 20
-827.3858621882464
 30
0.0
 10
2929.303644193635
 20
-813.0432650116019
 30
0.0
 10
2929.456207987753
 20
-798.4063024966197
 30
0.0
 10
2929.55041690022
 20
-786.9518487710595
 30
0.0
 10
2929.604461497957
 20
-779.3992503614742
 30
0.0
 10
2929.630498395148
 20
-775.5453425499358
 30
0.0
 10
2929.655138186494
 20
-771.6890769111321
 30
0.0
 10
2929.678626165818
 20
-767.8130231364096
 30
0.0
 10
2929.700937851575
 20
-763.9460526084704
 30
0.0
 10
2929.718754996836
 20
-760.7193108894969
 30
0.0
 10
2929.732586451146
 20
-758.1430195133336
 30
0.0
 10
2929.743396374899
 20
-756.0946647113391
 30
0.0
 10
2929.753441218257
 20
-754.1603876906806
 30
0.0
 10
2929.786223708952
 20
-747.753217062541
 30
0.0
 10
2929.838631362798
 20
-736.8979971633736
 30
0.0
 10
2929.880787680143
 20
-726.5747785534938
 30
0.0
 10
2929.902048042086
 20
-721.368551400186
 30
0.0
 11
2928.492287368221
 21
-862.150650316617
 31
0.0
 11
2928.544787356765
 21
-859.6951675623073
 31
0.0
 11
2928.596089683064
 21
-857.2362914422289
 31
0.0
 11
2928.638779611496
 21
-855.1404930976835
 31
0.0
 11
2928.680536883563
 21
-853.04204908648
 31
0.0
 11
2928.718115898007
 21
-851.1084611222827
 31
0.0
 11
2928.761873322029
 21
-848.798833074398
 31
0.0
 11
2928.830447109898
 21
-845.0436247109548
 31
0.0
 11
2928.896553443953
 21
-841.251106673244
 31
0.0
 11
2929.116062434717
 21
-827.1526822895327
 31
0.0
 11
2929.289393299288
 21
-813.7530281515179
 31
0.0
 11
2929.452320973992
 21
-798.2234639062586
 31
0.0
 11
2929.57668337643
 21
-783.2419472574869
 31
0.0
 11
2929.604270124782
 21
-779.3899967113402
 31
0.0
 11
2929.630128555643
 21
-775.565791038127
 31
0.0
 11
2929.654980442882
 21
-771.680226008447
 31
0.0
 11
2929.678390704794
 21
-767.8212017632919
 31
0.0
 11
2929.70082533144
 21
-763.9376316899942
 31
0.0
 11
2929.722157916522
 21
-760.079316243212
 31
0.0
 11
2929.73256782959
 21
-758.1409808481287
 31
0.0
 11
2929.74276931444
 21
-756.208760041599
 31
0.0
 11
2929.7545814568
 21
-753.9342518269932
 31
0.0
 11
2929.762750290611
 21
-752.3381500603449
 31
0.0
 11
2929.836312922574
 21
-736.9872243512808
 31
0.0
 11
2929.902048042086
 21
-721.368551400186
 31
0.0
  0
SPLINE
  5
126
330
1F
100
AcDbEntity
  8
0
  6
Continuous
 62
     7
100
AcDbSpline
210
0.0
220
0.0
230
1.0
 70
     8
 71
     3
 72
    43
 73
    39
 74
    37
 42
0.0000000001
 43
0.0000000001
 44
0.00000001
 40
0.0
 40
0.0
 40
0.0
 40
0.0
 40
9.152884979237038
 40
18.1581322282747
 40
21.50882745124095
 40
24.82730666697882
 40
27.91104343779317
 40
31.55757407858346
 40
38.38835957334463
 40
45.24195996520223
 40
59.44086074755754
 40
73.78988918253374
 40
89.00990120152157
 40
104.4451816475259
 40
112.5741601128838
 40
120.7609784061889
 40
122.8572114874537
 40
124.9560709248449
 40
126.8900240260382
 40
129.200066543338
 40
132.9559009669058
 40
136.748995101483
 40
150.8491282320691
 40
164.2499033815531
 40
179.7803222772178
 40
194.7623550867055
 40
198.6144044164317
 40
202.4386975131337
 40
206.3243420177393
 40
210.1834372698752
 40
214.0670721428629
 40
217.9254465630124
 40
219.8638099113357
 40
221.7960576479055
 40
224.0705965341452
 40
225.6667192046639
 40
241.0178211711687
 40
256.6366324530556
 40
256.6366324530556
 40
256.6366324530556
 40
256.6366324530556
 10
1867.299942648605
 20
-977.9519138444114
 30
0.0
 10
1867.386663248541
 20
-974.9021848847631
 30
0.0
 10
1867.558705629071
 20
-968.8519196585194
 30
0.0
 10
1867.765311982624
 20
-961.6852878171114
 30
0.0
 10
1867.916884784977
 20
-956.4626796311115
 30
0.0
 10
1868.011582680312
 20
-953.2130887440826
 30
0.0
 10
1868.109525060234
 20
-949.8649387615153
 30
0.0
 10
1868.242217234128
 20
-945.3465357530772
 30
0.0
 10
1868.412477790656
 20
-939.5720730916871
 30
0.0
 10
1868.686567089599
 20
-930.2816865145434
 30
0.0
 10
1869.032395773968
 20
-918.4862447618622
 30
0.0
 10
1869.44812898969
 20
-903.9028527131888
 30
0.0
 10
1869.854728336413
 20
-888.9069169757968
 30
0.0
 10
1870.178959796623
 20
-875.9828796301761
 30
0.0
 10
1870.423040473216
 20
-865.4019987270901
 30
0.0
 10
1870.554899181671
 20
-859.2660686758138
 30
0.0
 10
1870.638961339526
 20
-855.1396211351318
 30
0.0
 10
1870.679613086798
 20
-853.0970103241383
 30
0.0
 10
1870.7206960124
 20
-850.9831244171221
 30
0.0
 10
1870.771202551543
 20
-848.3169926424135
 30
0.0
 10
1870.831190824948
 20
-845.0312160559524
 30
0.0
 10
1870.956927840372
 20
-837.815957168542
 30
0.0
 10
1871.118776644536
 20
-827.3858621879587
 30
0.0
 10
1871.303644198166
 20
-813.0432650116911
 30
0.0
 10
1871.456207986463
 20
-798.4063024965942
 30
0.0
 10
1871.550416900297
 20
-786.9518487710612
 30
0.0
 10
1871.604461497947
 20
-779.399250361474
 30
0.0
 10
1871.63049839515
 20
-775.5453425499356
 30
0.0
 10
1871.655138186493
 20
-771.6890769111324
 30
0.0
 10
1871.678626165819
 20
-767.8130231364097
 30
0.0
 10
1871.700937851574
 20
-763.9460526084705
 30
0.0
 10
1871.718754996837
 20
-760.7193108894967
 30
0.0
 10
1871.732586451146
 20
-758.1430195133337
 30
0.0
 10
1871.743396374899
 20
-756.0946647113392
 30
0.0
 10
1871.753441218256
 20
-754.1603876906805
 30
0.0
 10
1871.786223708951
 20
-747.7532170625414
 30
0.0
 10
1871.838631362799
 20
-736.8979971633735
 30
0.0
 10
1871.880787680145
 20
-726.5747785534941
 30
0.0
 10
1871.902048042086
 20
-721.368551400186
 30
0.0
 11
1867.299942648605
 21
-977.9519138444114
 31
0.0
 11
1867.56070874507
 21
-968.8027442380439
 31
0.0
 11
1867.82005044767
 21
-959.801232148534
 31
0.0
 11
1867.917263034985
 21
-956.4519474204053
 31
0.0
 11
1868.013925638456
 21
-953.134876325844
 31
0.0
 11
1868.104093456979
 21
-950.0524580809954
 31
0.0
 11
1868.211109812537
 21
-946.407498106748
 31
0.0
 11
1868.412273375087
 21
-939.579675342752
 31
0.0
 11
1868.614227297538
 21
-932.729051068682
 31
0.0
 11
1869.029021232063
 21
-918.5362102882374
 31
0.0
 11
1869.436625630666
 21
-904.1929723106399
 31
0.0
 11
1869.84768425795
 21
-888.978512193269
 31
0.0
 11
1870.233239669084
 21
-873.5480478622209
 31
0.0
 11
1870.420466438899
 21
-865.4212257879462
 31
0.0
 11
1870.596089683064
 21
-857.2362914422289
 31
0.0
 11
1870.638779611496
 21
-855.1404930976835
 31
0.0
 11
1870.680536883563
 21
-853.04204908648
 31
0.0
 11
1870.718115898007
 21
-851.1084611222827
 31
0.0
 11
1870.761873322029
 21
-848.798833074398
 31
0.0
 11
1870.830447109898
 21
-845.0436247109548
 31
0.0
 11
1870.896553443953
 21
-841.251106673244
 31
0.0
 11
1871.116062434717
 21
-827.1526822895327
 31
0.0
 11
1871.289393299288
 21
-813.7530281515179
 31
0.0
 11
1871.452320973992
 21
-798.2234639062586
 31
0.0
 11
1871.57668337643
 21
-783.2419472574869
 31
0.0
 11
1871.604270124782
 21
-779.3899967113402
 31
0.0
 11
1871.630128555643
 21
-775.565791038127
 31
0.0
 11
1871.654980442882
 21
-771.680226008447
 31
0.0
 11
1871.678390704794
 21
-767.8212017632919
 31
0.0
 11
1871.70082533144
 21
-763.9376316899942
 31
0.0
 11
1871.722157916522
 21
-760.079316243212
 31
0.0
 11
1871.73256782959
 21
-758.1409808481287
 31
0.0
 11
1871.74276931444
 21
-756.208760041599
 31
0.0
 11
1871.7545814568
 21
-753.9342518269932
 31
0.0
 11
1871.762750290611
 21
-752.3381500603449
 31
0.0
 11
1871.836312922575
 21
-736.9872243512808
 31
0.0
 11
1871.902048042086
 21
-721.368551400186
 31
0.0
  0
SPLINE
  5
127
330
1F
100
AcDbEntity
  8
0
  6
Continuous
 62
     7
100
AcDbSpline
210
0.0
220
0.0
230
1.0
 70
     8
 71
     3
 72
   174
 73
   170
 74
   168
 42
0.0000000001
 43
0.0000000001
 44
0.00000001
 40
0.0
 40
0.0
 40
0.0
 40
0.0
 40
0.0228258304273781
 40
0.0461306930056364
 40
0.1284228032137145
 40
0.2401473092097741
 40
0.3093659181922962
 40
0.3875340479455476
 40
0.4301625098894426
 40
0.4750653833516354
 40
0.5267062694785688
 40
0.5720079726826383
 40
0.8357678941376068
 40
1.120118633516727
 40
1.40924684965109
 40
1.686961096987512
 40
1.87130448148963
 40
2.053829082846665
 40
2.102374323024169
 40
2.150799513955711
 40
2.212809446840179
 40
2.249784531828315
 40
2.349815807503497
 40
2.453602143204281
 40
2.892753432897455
 40
3.343194967056149
 40
3.482124042393312
 40
3.644478723231003
 40
3.829233661627881
 40
3.966003056804167
 40
4.137402815485496
 40
4.341979042721506
 40
4.674818835344782
 40
5.043490780758161
 40
5.448437402006022
 40
6.404580653738861
 40
7.403631730694033
 40
8.43833711505027
 40
9.501427864468099
 40
10.58562601594874
 40
10.95122607353621
 40
11.35405117256325
 40
11.79157633167991
 40
12.26127925732495
 40
12.76064066883649
 40
13.28714466846613
 40
13.76454884173841
 40
14.20641343724478
 40
14.61133065918857
 40
15.00975213720858
 40
15.43721443125988
 40
15.88954529234222
 40
16.32752150532841
 40
16.72334744614239
 40
16.92256680088158
 40
17.12552320080516
 40
17.17522669745364
 40
17.22454553049015
 40
17.27342160768635
 40
17.32302073693674
 40
17.42185716687989
 40
17.52073653438982
 40
18.33089174691893
 40
19.14891287148545
 40
19.35740453477893
 40
19.56665123897532
 40
19.70934040435395
 40
19.82944325821222
 40
19.92337504182084
 40
19.98755095144058
 40
20.4103283947263
 40
20.82956948734608
 40
21.67515468580947
 40
22.50382800163013
 40
22.72966643208167
 40
22.92973282104139
 40
23.10015895284412
 40
23.23707660471502
 40
23.3366175482131
 40
23.58896123332396
 40
23.81385613906084
 40
24.00813385290169
 40
24.16862596078137
 40
24.42120108673376
 40
24.63336564027496
 40
24.80255855977697
 40
24.92621878224605
 40
25.00178524349865
 40
25.42029600504625
 40
25.83569437092799
 40
27.50830809691178
 40
29.17480634129937
 40
32.52710101223285
 40
35.86949639583873
 40
42.61646241310924
 40
49.32287901949204
 40
52.68131763636691
 40
56.08050844556619
 40
56.92432776740832
 40
57.77304859609397
 40
57.90913341861689
 40
58.08407402120528
 40
58.29577624767511
 40
58.54214594402116
 40
58.82108895896491
 40
59.13051114437664
 40
59.46831835569113
 40
59.6792147178814
 40
59.89293379424187
 40
60.10536047394935
 40
60.31784759406109
 40
60.74299906534491
 40
61.16822005214791
 40
61.38037291064428
 40
61.5936609175355
 40
61.80644423223475
 40
62.01927257075359
 40
62.44689980866973
 40
62.87111748359026
 40
66.28790946864169
 40
69.71619373026076
 40
71.43556427883473
 40
73.158179459878
 40
73.48296780664977
 40
73.78859110211057
 40
74.07089350818788
 40
74.32571918558486
 40
74.54891229401116
 40
74.7363169923665
 40
74.88377743888218
 40
75.74336768883816
 40
76.61220394857611
 40
77.4778170002973
 40
78.34339970315104
 40
78.70821099564982
 40
79.12082755823057
 40
79.57823270679879
 40
80.07740976139135
 40
81.81555760993025
 40
83.55398938826619
 40
84.55966936500617
 40
85.53075357176698
 40
86.46565665446609
 40
87.3627932430433
 40
88.22057795244085
 40
89.03742538352788
 40
89.8117501239627
 40
90.54196674901493
 40
97.5770098429722
 40
104.650360463392
 40
111.7624918489714
 40
118.9097040700838
 40
126.0902591541976
 40
133.3024188132862
 40
134.9675254932868
 40
136.6755700985956
 40
138.4260038303335
 40
140.218277934221
 40
142.0518437016512
 40
143.9261524707799
 40
145.8406556276333
 40
147.7948046072315
 40
155.0852074522845
 40
162.395323730458
 40
174.1294674145198
 40
185.9034453900799
 40
197.7100212611993
 40
209.5419581617146
 40
221.3920190964343
 40
221.3920190964343
 40
221.3920190964343
 40
221.3920190964343
 10
1871.902048042086
 20
-721.368551400186
 30
0.0
 10
1871.90257511888
 20
-721.3609315190294
 30
0.0
 10
1871.903640333914
 20
-721.3455318427939
 30
0.0
 10
1871.917949334179
 20
-721.3047070706463
 30
0.0
 10
1871.966199372258
 20
-721.2477566586124
 30
0.0
 10
1872.039608289031
 20
-721.1990608917802
 30
0.0
 10
1872.116127375506
 20
-721.1589020326809
 30
0.0
 10
1872.174029099916
 20
-721.1331270566747
 30
0.0
 10
1872.225256259247
 20
-721.112470642531
 30
0.0
 10
1872.268665615528
 20
-721.0960963195973
 30
0.0
 10
1872.31324908144
 20
-721.0803420102434
 30
0.0
 10
1872.427323801152
 20
-721.0423372243828
 30
0.0
 10
1872.617952440542
 20
-720.9889363280283
 30
0.0
 10
1872.890004190374
 20
-720.9264868745435
 30
0.0
 10
1873.168507765873
 20
-720.8720616109919
 30
0.0
 10
1873.415308648781
 20
-720.8297008508227
 30
0.0
 10
1873.627579953235
 20
-720.7964205733017
 30
0.0
 10
1873.764588967124
 20
-720.7763358634709
 30
0.0
 10
1873.856841533134
 20
-720.7633286637038
 30
0.0
 10
1873.909332453955
 20
-720.7560475468761
 30
0.0
 10
1873.95801953251
 20
-720.7494148188662
 30
0.0
 10
1874.023768305829
 20
-720.7405869058096
 30
0.0
 10
1874.103347106608
 20
-720.730117961387
 30
0.0
 10
1874.31594312731
 20
-720.7029626597707
 30
0.0
 10
1874.644794912218
 20
-720.6641132808636
 30
0.0
 10
1874.98575665217
 20
-720.6281941593581
 30
0.0
 10
1875.235130922545
 20
-720.603689841254
 30
0.0
 10
1875.396420952605
 20
-720.5883983736148
 30
0.0
 10
1875.557049589885
 20
-720.5737693704217
 30
0.0
 10
1875.720729317619
 20
-720.5594116737775
 30
0.0
 10
1875.891038814156
 20
-720.5450317879048
 30
0.0
 10
1876.126544728365
 20
-720.5260148252339
 30
0.0
 10
1876.427711818099
 20
-720.5031851733561
 30
0.0
 10
1876.795636708068
 20
-720.477480994949
 30
0.0
 10
1877.37105492778
 20
-720.4407358609715
 30
0.0
 10
1878.156638569779
 20
-720.3981592243694
 30
0.0
 10
1879.152395053758
 20
-720.3558965208604
 30
0.0
 10
1880.184178605785
 20
-720.3232056637801
 30
0.0
 10
1881.244612216852
 20
-720.3002882791673
 30
0.0
 10
1882.08219608775
 20
-720.2902655829339
 30
0.0
 10
1882.699727781496
 20
-720.2867475153985
 30
0.0
 10
1883.101710957317
 20
-720.285788778805
 30
0.0
 10
1883.538396027842
 20
-720.2863221587445
 30
0.0
 10
1884.007254341998
 20
-720.2887212960935
 30
0.0
 10
1884.505757091869
 20
-720.293359852899
 30
0.0
 10
1885.006801120599
 20
-720.3002723182655
 30
0.0
 10
1885.488646358356
 20
-720.3090804003104
 30
0.0
 10
1885.929931330731
 20
-720.3190057110364
 30
0.0
 10
1886.344854607465
 20
-720.3299957569972
 30
0.0
 10
1886.754933196222
 20
-720.3424627837516
 30
0.0
 10
1887.180751621678
 20
-720.3571869872446
 30
0.0
 10
1887.619672089089
 20
-720.3744101112782
 30
0.0
 10
1888.047966043264
 20
-720.3933563537371
 30
0.0
 10
1888.391891506931
 20
-720.4102883219185
 30
0.0
 10
1888.657518791518
 20
-720.4243800229181
 30
0.0
 10
1888.80791206001
 20
-720.432761605503
 30
0.0
 10
1888.908405677375
 20
-720.4385394754144
 30
0.0
 10
1888.957621958819
 20
-720.4414023096889
 30
0.0
 10
1889.006801247951
 20
-720.4443017049899
 30
0.0
 10
1889.072456349396
 20
-720.4481968768233
 30
0.0
 10
1889.154753769474
 20
-720.4530147388793
 30
0.0
 10
1889.490150328444
 20
-720.4724120577132
 30
0.0
 10
1890.06499184451
 20
-720.5036376111585
 30
0.0
 10
1890.67648452184
 20
-720.5335773915682
 30
0.0
 10
1891.087966904688
 20
-720.552556817294
 30
0.0
 10
1891.274587049531
 20
-720.5609596213621
 30
0.0
 10
1891.431780195242
 20
-720.56789920307
 30
0.0
 10
1891.550575715851
 20
-720.5730686123409
 30
0.0
 10
1891.643226901698
 20
-720.5770537552363
 30
0.0
 10
1891.836678657376
 20
-720.5853222132431
 30
0.0
 10
1892.138462435352
 20
-720.5983497509866
 30
0.0
 10
1892.700462429879
 20
-720.6228685994473
 30
0.0
 10
1893.397608684302
 20
-720.6538276200204
 30
0.0
 10
1894.030323378273
 20
-720.6825379869831
 30
0.0
 10
1894.448075102594
 20
-720.7017380617117
 30
0.0
 10
1894.646640381708
 20
-720.7109097521749
 30
0.0
 10
1894.815595406734
 20
-720.7187475626495
 30
0.0
 10
1894.951076946568
 20
-720.7250541192896
 30
0.0
 10
1895.113833772231
 20
-720.732652444629
 30
0.0
 10
1895.30588480656
 20
-720.741610582775
 30
0.0
 10
1895.529481683513
 20
-720.7520139946033
 30
0.0
 10
1895.722495223746
 20
-720.7609778510998
 30
0.0
 10
1895.924726273036
 20
-720.7703545967777
 30
0.0
 10
1896.132913931458
 20
-720.7799917882294
 30
0.0
 10
1896.343999659585
 20
-720.7897435945661
 30
0.0
 10
1896.512160188058
 20
-720.7974981867061
 30
0.0
 10
1896.634836769785
 20
-720.8031463025324
 30
0.0
 10
1896.840531855626
 20
-720.8126057849879
 30
0.0
 10
1897.143370505908
 20
-720.8265286446314
 30
0.0
 10
1897.977998785337
 20
-720.864851156724
 30
0.0
 10
1899.228192320939
 20
-720.9220964489091
 30
0.0
 10
1901.456347544132
 20
-721.0236630789307
 30
0.0
 10
1904.240558111655
 20
-721.1497220804586
 30
0.0
 10
1908.716606814983
 20
-721.3505586604003
 30
0.0
 10
1914.309724646372
 20
-721.5981069151312
 30
0.0
 10
1919.908381851425
 20
-721.8414023626167
 30
0.0
 10
1924.392280303846
 20
-722.0335929851453
 30
0.0
 10
1926.923815172255
 20
-722.1410936472788
 30
0.0
 10
1928.619548154724
 20
-722.2126874680586
 30
0.0
 10
1929.228550074821
 20
-722.2383330357573
 30
0.0
 10
1929.614790391281
 20
-722.2545849910283
 30
0.0
 10
1929.788879185633
 20
-722.2619033336354
 30
0.0
 10
1929.999697943996
 20
-722.2707471561775
 30
0.0
 10
1930.2451548187
 20
-722.2810175283475
 30
0.0
 10
1930.523158005292
 20
-722.2926144925502
 30
0.0
 10
1930.831615688487
 20
-722.3054383474785
 30
0.0
 10
1931.117412559889
 20
-722.3172759511094
 30
0.0
 10
1931.371337100196
 20
-722.3277600614593
 30
0.0
 10
1931.583504576538
 20
-722.3364989900566
 30
0.0
 10
1931.796202793243
 20
-722.3452369613526
 30
0.0
 10
1932.079319955225
 20
-722.3568464357618
 30
0.0
 10
1932.433310067254
 20
-722.3713358669429
 30
0.0
 10
1932.787190444379
 20
-722.3857817868458
 30
0.0
 10
1933.0705093565
 20
-722.3973246232266
 30
0.0
 10
1933.283074879383
 20
-722.4059732632761
 30
0.0
 10
1933.495865825488
 20
-722.4146200058865
 30
0.0
 10
1933.780044917328
 20
-722.42615160349
 30
0.0
 10
1934.134645620552
 20
-722.4405051301591
 30
0.0
 10
1935.556368128282
 20
-722.497860692654
 30
0.0
 10
1937.977556165412
 20
-722.5940627917603
 30
0.0
 10
1940.830241163801
 20
-722.7043516509391
 30
0.0
 10
1943.118691341347
 20
-722.7910025209895
 30
0.0
 10
1944.373408568385
 20
-722.8378481873494
 30
0.0
 10
1945.157213924513
 20
-722.8668648617358
 30
0.0
 10
1945.461244739775
 20
-722.8780913539633
 30
0.0
 10
1945.741971406598
 20
-722.8884340100359
 30
0.0
 10
1945.995240662886
 20
-722.8977463089585
 30
0.0
 10
1946.2168992418
 20
-722.9058818508088
 30
0.0
 10
1946.402793879196
 20
-722.9126941639374
 30
0.0
 10
1946.800679281456
 20
-722.927256483416
 30
0.0
 10
1947.425559697364
 20
-722.9500408326232
 30
0.0
 10
1948.289672793601
 20
-722.9813429128329
 30
0.0
 10
1949.155789473099
 20
-723.0125121203407
 30
0.0
 10
1949.854012408942
 20
-723.0374747994636
 30
0.0
 10
1950.401336217357
 20
-723.0569499672231
 30
0.0
 10
1950.812688530766
 20
-723.071540765306
 30
0.0
 10
1951.26880329252
 20
-723.087662486272
 30
0.0
 10
1952.166490400469
 20
-723.119269071742
 30
0.0
 10
1953.490936827579
 20
-723.165478234705
 30
0.0
 10
1954.984140520431
 20
-723.2168347632232
 30
0.0
 10
1956.22182379898
 20
-723.2589223393909
 30
0.0
 10
1957.191827919133
 20
-723.2916409070564
 30
0.0
 10
1958.125679761337
 20
-723.3228930731199
 30
0.0
 10
1959.021793787693
 20
-723.35265548749
 30
0.0
 10
1959.878584469262
 20
-723.3809045252297
 30
0.0
 10
1960.694466273324
 20
-723.4076166377089
 30
0.0
 10
1961.467853673789
 20
-723.4327682115918
 30
0.0
 10
1964.312896724566
 20
-723.524705751388
 30
0.0
 10
1969.256689872391
 20
-723.6792127386796
 30
0.0
 10
1976.327156419751
 20
-723.8867699392024
 30
0.0
 10
1983.435375456881
 20
-724.0820973783076
 30
0.0
 10
1990.579667847064
 20
-724.2651450955418
 30
0.0
 10
1997.757617878037
 20
-724.4358474781908
 30
0.0
 10
2003.108938522398
 20
-724.5533482496014
 30
0.0
 10
2006.636609148402
 20
-724.6268856716521
 30
0.0
 10
2008.34411476223
 20
-724.661760817577
 30
0.0
 10
2010.094015901467
 20
-724.6967479446108
 30
0.0
 10
2011.885764660464
 20
-724.7317832213478
 30
0.0
 10
2013.718813117733
 20
-724.766802797294
 30
0.0
 10
2015.592613351319
 20
-724.801742829605
 30
0.0
 10
2017.506617458434
 20
-724.8365394584347
 30
0.0
 10
2021.225719662603
 20
-724.9023859196461
 30
0.0
 10
2026.743188111338
 20
-724.9938239552845
 30
0.0
 10
2035.520451637271
 20
-725.1237391852706
 30
0.0
 10
2045.792408557946
 20
-725.2521943113096
 30
0.0
 10
2057.563434396704
 20
-725.36662986146
 30
0.0
 10
2069.367329994591
 20
-725.4479078808748
 30
0.0
 10
2081.196767565258
 20
-725.4989083429016
 30
0.0
 10
2089.090769352425
 20
-725.5052360533898
 30
0.0
 10
2093.040790919335
 20
-725.508402329959
 30
0.0
 11
1871.902048042086
 21
-721.368551400186
 31
0.0
 11
1871.904626904417
 21
-721.3458717175653
 31
0.0
 11
1871.911945765694
 21
-721.323745920644
 31
0.0
 11
1871.96164906636
 21
-721.2581595401566
 31
0.0
 11
1872.052596222621
 21
-721.1932674758649
 31
0.0
 11
1872.113790289615
 21
-721.1609177928033
 31
0.0
 11
1872.185083164186
 21
-721.128861864419
 31
0.0
 11
1872.22461028321
 21
-721.1128996393431
 31
0.0
 11
1872.266614058013
 21
-721.097026676562
 31
0.0
 11
1872.315295108998
 21
-721.07979483409
 31
0.0
 11
1872.358267942208
 21
-721.0654567756759
 31
0.0
 11
1872.611807160698
 21
-720.992743909872
 31
0.0
 11
1872.888769416891
 21
-720.9283447512619
 31
0.0
 11
1873.17244236025
 21
-720.872444960819
 31
0.0
 11
1873.446113640235
 21
-720.825230199517
 31
0.0
 11
1873.628225009295
 21
-720.7966306773384
 31
0.0
 11
1873.808813962451
 21
-720.7701191685459
 31
0.0
 11
1873.856883676326
 21
-720.7633410455121
 31
0.0
 11
1873.904849496175
 21
-720.7566867804909
 31
0.0
 11
1873.966291450765
 21
-720.7483131317925
 31
0.0
 11
1874.002937685269
 21
-720.7433927246399
 31
0.0
 11
1874.102113996806
 21
-720.7303422325765
 31
0.0
 11
1874.205063423095
 21
-720.717188559896
 31
0.0
 11
1874.641157716593
 21
-720.6654621409468
 31
0.0
 11
1875.089104031365
 21
-720.6181158129181
 31
0.0
 11
1875.227366865477
 21
-720.6045262331822
 31
0.0
 11
1875.388996192037
 21
-720.58919641956
 31
0.0
 11
1875.572989328834
 21
-720.5724359639111
 31
0.0
 11
1875.70923567949
 21
-720.5604860940446
 31
0.0
 11
1875.880027027474
 21
-720.5460572087832
 31
0.0
 11
1876.083938873292
 21
-720.529583232788
 31
0.0
 11
1876.415824464248
 21
-720.5043982755803
 31
0.0
 11
1876.78359778218
 21
-720.478672997114
 31
0.0
 11
1877.18771898301
 21
-720.452830762313
 31
0.0
 11
1878.142443264551
 21
-720.4007590418595
 31
0.0
 11
1879.140585597225
 21
-720.3581569516751
 31
0.0
 11
1880.174766525589
 21
-720.3252170089879
 31
0.0
 11
1881.237606594197
 21
-720.3021317310257
 31
0.0
 11
1882.321726347604
 21
-720.289093635016
 31
0.0
 11
1882.687320468921
 21
-720.287010232396
 31
0.0
 11
1883.090144419882
 21
-720.2860484953445
 31
0.0
 11
1883.527669252453
 21
-720.2865830452805
 31
0.0
 11
1883.997366018601
 21
-720.2889885036236
 31
0.0
 11
1884.496705770289
 21
-720.2936394917924
 31
0.0
 11
1885.023159559484
 21
-720.300910631206
 31
0.0
 11
1885.500483829889
 21
-720.3096447905637
 31
0.0
 11
1885.942236503964
 21
-720.3195894227679
 31
0.0
 11
1886.347011541474
 21
-720.330319084254
 31
0.0
 11
1886.745248730699
 21
-720.3424358191946
 31
0.0
 11
1887.172455197604
 21
-720.3572225521282
 31
0.0
 11
1887.624437385957
 21
-720.374979502844
 31
0.0
 11
1888.061984635401
 21
-720.3943590705838
 31
0.0
 11
1888.457330667252
 21
-720.4138447196821
 31
0.0
 11
1888.65627010285
 21
-720.4244018152405
 31
0.0
 11
1888.85891180882
 21
-720.435699570396
 31
0.0
 11
1888.908533365557
 21
-720.4385524086451
 31
0.0
 11
1888.957768915968
 21
-720.4414173463089
 31
0.0
 11
1889.006560470868
 21
-720.4442905139882
 31
0.0
 11
1889.056072979234
 21
-720.4472205545559
 31
0.0
 11
1889.154740153661
 21
-720.4530022994882
 31
0.0
 11
1889.253454623916
 21
-720.458710423651
 31
0.0
 11
1890.062410431592
 21
-720.5027782079839
 31
0.0
 11
1890.879447081386
 21
-720.542898939906
 31
0.0
 11
1891.087717228389
 21
-720.5525072451778
 31
0.0
 11
1891.29675205983
 21
-720.5619211955449
 31
0.0
 11
1891.439302353163
 21
-720.5682149851183
 31
0.0
 11
1891.559291645302
 21
-720.5734366014108
 31
0.0
 11
1891.653136579094
 21
-720.5774749641362
 31
0.0
 11
1891.717253797383
 21
-720.5802189930079
 31
0.0
 11
1892.139638712288
 21
-720.5984330044245
 31
0.0
 11
1892.558481202277
 21
-720.616710376246
 31
0.0
 11
1893.403234255409
 21
-720.6542151370639
 31
0.0
 11
1894.231056010992
 21
-720.6917731633349
 31
0.0
 11
1894.456656303894
 21
-720.7021416015591
 31
0.0
 11
1894.656509612098
 21
-720.7113728090272
 31
0.0
 11
1894.826752668534
 21
-720.7192701590134
 31
0.0
 11
1894.963522206129
 21
-720.725637024791
 31
0.0
 11
1895.062954957813
 21
-720.730276779634
 31
0.0
 11
1895.31502470418
 21
-720.7420317097367
 31
0.0
 11
1895.539676545447
 21
-720.7524848835128
 31
0.0
 11
1895.733745090268
 21
-720.761497652567
 31
0.0
 11
1895.894064947301
 21
-720.768931368504
 31
0.0
 11
1896.146369908389
 21
-720.7806104463906
 31
0.0
 11
1896.358308428652
 21
-720.7904013303236
 31
0.0
 11
1896.527321751756
 21
-720.79819495739
 31
0.0
 11
1896.650851121369
 21
-720.8038822646784
 31
0.0
 11
1896.726337781156
 21
-720.807354189276
 31
0.0
 11
1897.144407065133
 21
-720.8265721841263
 31
0.0
 11
1897.55936821447
 21
-720.845625974253
 31
0.0
 11
1899.230231298753
 21
-720.9221323787459
 31
0.0
 11
1900.895000860736
 21
-720.9980185042429
 31
0.0
 11
1904.243864730792
 21
-721.1496441636946
 31
0.0
 11
1907.582900595072
 21
-721.2994653818179
 31
0.0
 11
1914.323267519987
 21
-721.5978010245353
 31
0.0
 11
1921.023360315853
 21
-721.8889714645699
 31
0.0
 11
1924.3787181222
 21
-722.0327905686595
 31
0.0
 11
1927.774848088489
 21
-722.177010572197
 31
0.0
 11
1928.617916417271
 21
-722.2126032809952
 31
0.0
 11
1929.465885410762
 21
-722.248319259522
 31
0.0
 11
1929.601849947843
 21
-722.2540397120777
 31
0.0
 11
1929.776636221531
 21
-722.2613863415335
 31
0.0
 11
1929.988152422443
 21
-722.270259302919
 31
0.0
 11
1930.234306741198
 21
-722.2805587512635
 31
0.0
 11
1930.513007368412
 21
-722.2921848415967
 31
0.0
 11
1930.822162494702
 21
-722.3050377289478
 31
0.0
 11
1931.159680310686
 21
-722.3190175683459
 31
0.0
 11
1931.370397139314
 21
-722.3277177820146
 31
0.0
 11
1931.583935167708
 21
-722.33651289601
 31
0.0
 11
1931.796182773008
 21
-722.3452334634085
 31
0.0
 11
1932.008491433266
 21
-722.3539402994019
 31
0.0
 11
1932.433287233364
 21
-722.3713271264274
 31
0.0
 11
1932.85815435945
 21
-722.38867108183
 31
0.0
 11
1933.070131365487
 21
-722.3973073008985
 31
0.0
 11
1933.283243046133
 21
-722.4059782556229
 31
0.0
 11
1933.495850910769
 21
-722.4146174054182
 31
0.0
 11
1933.70850425635
 21
-722.423246211251
 31
0.0
 11
1934.135781602682
 21
-722.440541410571
 31
0.0
 11
1934.559654489084
 21
-722.45764146577
 31
0.0
 11
1937.973752248338
 21
-722.5933026590736
 31
0.0
 11
1941.399476972896
 21
-722.725752989451
 31
0.0
 11
1943.117616257089
 21
-722.7908105287293
 31
0.0
 11
1944.839032087594
 21
-722.8550802762569
 31
0.0
 11
1945.163598096907
 21
-722.8670959242904
 31
0.0
 11
1945.46901323723
 21
-722.8783738137114
 31
0.0
 11
1945.751124241041
 21
-722.8887675620985
 31
0.0
 11
1946.005777840819
 21
-722.8981307870307
 31
0.0
 11
1946.228820769039
 21
-722.9063171060861
 31
0.0
 11
1946.416099758183
 21
-722.913180136844
 31
0.0
 11
1946.563461540725
 21
-722.9185734968829
 31
0.0
 11
1947.422480967675
 21
-722.9498947666956
 31
0.0
 11
1948.290747732131
 21
-722.9813474609499
 31
0.0
 11
1949.155800799757
 21
-723.0124785627851
 31
0.0
 11
1950.020830857204
 21
-723.043404525864
 31
0.0
 11
1950.385411432696
 21
-723.0563769237998
 31
0.0
 11
1950.797768672167
 21
-723.0710034330142
 31
0.0
 11
1951.254888364631
 21
-723.0871606821108
 31
0.0
 11
1951.7537562991
 21
-723.1047252996929
 31
0.0
 11
1953.490847208105
 21
-723.1653315471575
 31
0.0
 11
1955.228251652018
 21
-723.225088104961
 31
0.0
 11
1956.233350645333
 21
-723.2592674737884
 31
0.0
 11
1957.203882901764
 21
-723.2920039342874
 31
0.0
 11
1958.138262888878
 21
-723.3232739474317
 31
0.0
 11
1959.034905074239
 21
-723.3530539741951
 31
0.0
 11
1959.892223925413
 21
-723.3813204755509
 31
0.0
 11
1960.708633909964
 21
-723.408049912473
 31
0.0
 11
1961.482549495459
 21
-723.4332187459352
 31
0.0
 11
1962.212385149462
 21
-723.456803436911
 31
0.0
 11
1969.24399389001
 21
-723.6765984634393
 31
0.0
 11
1976.314297695102
 21
-723.8841872470849
 31
0.0
 11
1983.423744489592
 21
-724.0795820322353
 31
0.0
 11
1990.56861112617
 21
-724.2626756670866
 31
0.0
 11
1997.74713587273
 21
-724.4334204445344
 31
0.0
 11
2004.957556997161
 21
-724.5917686574741
 31
0.0
 11
2006.622302002205
 21
-724.6264720285654
 31
0.0
 11
2008.329990444606
 21
-724.661351211679
 31
0.0
 11
2010.080074405313
 21
-724.6963423488432
 31
0.0
 11
2011.872005965278
 21
-724.7313815820874
 31
0.0
 11
2013.705237205451
 21
-724.7664050534396
 31
0.0
 11
2015.579220206782
 21
-724.8013489049295
 31
0.0
 11
2017.493407050221
 21
-724.8361492785851
 31
0.0
 11
2019.447249816719
 21
-724.8707423164359
 31
0.0
 11
2026.736651376823
 21
-724.9915667291378
 31
0.0
 11
2034.045966842576
 21
-725.099767572599
 31
0.0
 11
2045.779191881774
 21
-725.2465946060066
 31
0.0
 11
2057.552614336498
 21
-725.3609671183794
 31
0.0
 11
2069.358906679298
 21
-725.4427895897846
 31
0.0
 11
2081.190741382727
 21
-725.4919665002888
 31
0.0
 11
2093.040790919335
 21
-725.508402329959
 31
0.0
  0
SPLINE
  5
128
330
1F
100
AcDbEntity
  8
0
  6
Continuous
 62
     7
100
AcDbSpline
210
0.0
220
0.0
230
1.0
 70
     8
 71
     3
 72
   174
 73
   170
 74
   168
 42
0.0000000001
 43
0.0000000001
 44
0.00000001
 40
0.0
 40
0.0
 40
0.0
 40
0.0
 40
0.0228258304273781
 40
0.0461306930056364
 40
0.1284228032146758
 40
0.2401473092096249
 40
0.309365918192147
 40
0.3875340479453984
 40
0.4301625098890826
 40
0.4750653833517007
 40
0.5267062694784198
 40
0.5720079726824893
 40
0.835767894137895
 40
1.120118633516794
 40
1.409246849651379
 40
1.686961096987578
 40
1.871304481488797
 40
2.053829082845607
 40
2.102374323023111
 40
2.150799513955779
 40
2.212809446840021
 40
2.249784531828158
 40
2.34981580750334
 40
2.453602143203221
 40
2.892753432897073
 40
3.343194967055994
 40
3.482124042392929
 40
3.644478723230395
 40
3.829233661626819
 40
3.966003056804237
 40
4.137402815484887
 40
4.34197904272135
 40
4.674818835344173
 40
5.043490780758006
 40
5.448437402006093
 40
6.404580653738479
 40
7.403631730693423
 40
8.438337115049432
 40
9.501427864465896
 40
10.58562601594767
 40
10.95122607353515
 40
11.35405117256264
 40
11.79157633167999
 40
12.26127925732388
 40
12.7606406688361
 40
13.2871446684662
 40
13.76454884173803
 40
14.20641343724394
 40
14.61133065918818
 40
15.00975213720865
 40
15.43721443125973
 40
15.88954529234229
 40
16.32752150532758
 40
16.72334744614201
 40
16.92256680088098
 40
17.12552320080523
 40
17.17522669745258
 40
17.22454553049021
 40
17.27342160768596
 40
17.32302073693681
 40
17.42185716687996
 40
17.52073653438988
 40
18.33089174691922
 40
19.1489128714853
 40
19.35740453477923
 40
19.56665123897517
 40
19.70934040435312
 40
19.82944325821252
 40
19.9233750418216
 40
19.98755095144042
 40
20.41032839472591
 40
20.82956948734593
 40
21.67515468580954
 40
22.5038280016302
 40
22.72966643208106
 40
22.92973282104147
 40
23.10015895284396
 40
23.23707660471487
 40
23.33661754821295
 40
23.58896123332313
 40
23.81385613905978
 40
24.00813385290108
 40
24.16862596078122
 40
24.42120108673292
 40
24.63336564027458
 40
24.80255855977682
 40
24.9262187822459
 40
25.0017852434985
 40
25.42029600504632
 40
25.83569437092783
 40
27.50830809691186
 40
29.17480634129944
 40
32.5271010122327
 40
35.8694963958388
 40
42.61646241310908
 40
49.32287901949188
 40
52.68131763636698
 40
56.08050844556626
 40
56.92432776740839
 40
57.77304859609382
 40
57.90913341861651
 40
58.08407402120557
 40
58.29577624767541
 40
58.54214594402168
 40
58.8210889589643
 40
59.13051114437559
 40
59.46831835569076
 40
59.67921471788058
 40
59.89293379424195
 40
60.10536047394942
 40
60.31784759406003
 40
60.74299906534431
 40
61.16822005214776
 40
61.38037291064345
 40
61.59366091753535
 40
61.80644423223482
 40
62.01927257075344
 40
62.44689980866913
 40
62.87111748359011
 40
66.28790946864177
 40
69.71619373026061
 40
71.43556427883482
 40
73.15817945987808
 40
73.48296780665031
 40
73.78859110211111
 40
74.07089350818819
 40
74.32571918558472
 40
74.54891229401147
 40
74.73631699236681
 40
74.88377743888226
 40
75.74336768883734
 40
76.61220394857597
 40
77.4778170002983
 40
78.34339970315112
 40
78.70821099564968
 40
79.12082755823089
 40
79.57823270679773
 40
80.07740976139144
 40
81.81555760992966
 40
83.55398938826627
 40
84.55966936500626
 40
85.53075357176684
 40
86.46565665446549
 40
87.3627932430427
 40
88.22057795244093
 40
89.03742538352773
 40
89.8117501239621
 40
90.54196674901388
 40
97.57700984297183
 40
104.6503604633921
 40
111.7624918489713
 40
118.9097040700836
 40
126.090259154198
 40
133.3024188132863
 40
134.9675254932869
 40
136.6755700985952
 40
138.4260038303334
 40
140.2182779342209
 40
142.0518437016511
 40
143.9261524707802
 40
145.840655627634
 40
147.7948046072316
 40
155.0852074522848
 40
162.3953237304569
 40
174.1294674145188
 40
185.9034453900793
 40
197.7100212611982
 40
209.5419581617145
 40
221.3920190964332
 40
221.3920190964332
 40
221.3920190964332
 40
221.3920190964332
 10
2314.179533796583
 20
-721.368551400186
 30
0.0
 10
2314.17900671979
 20
-721.3609315190294
 30
0.0
 10
2314.177941504755
 20
-721.3455318427939
 30
0.0
 10
2314.163632504491
 20
-721.3047070706457
 30
0.0
 10
2314.115382466409
 20
-721.2477566586136
 30
0.0
 10
2314.041973549638
 20
-721.1990608917795
 30
0.0
 10
2313.965454463163
 20
-721.158902032681
 30
0.0
 10
2313.907552738753
 20
-721.1331270566745
 30
0.0
 10
2313.856325579423
 20
-721.1124706425308
 30
0.0
 10
2313.812916223142
 20
-721.0960963195977
 30
0.0
 10
2313.768332757229
 20
-721.0803420102435
 30
0.0
 10
2313.654258037518
 20
-721.0423372243824
 30
0.0
 10
2313.463629398127
 20
-720.9889363280282
 30
0.0
 10
2313.191577648296
 20
-720.9264868745435
 30
0.0
 10
2312.913074072796
 20
-720.8720616109918
 30
0.0
 10
2312.666273189888
 20
-720.8297008508233
 30
0.0
 10
2312.454001885434
 20
-720.7964205733012
 30
0.0
 10
2312.316992871546
 20
-720.7763358634716
 30
0.0
 10
2312.224740305536
 20
-720.7633286637035
 30
0.0
 10
2312.172249384713
 20
-720.7560475468762
 30
0.0
 10
2312.123562306159
 20
-720.749414818866
 30
0.0
 10
2312.05781353284
 20
-720.7405869058098
 30
0.0
 10
2311.978234732061
 20
-720.730117961387
 30
0.0
 10
2311.765638711358
 20
-720.7029626597707
 30
0.0
 10
2311.436786926452
 20
-720.6641132808638
 30
0.0
 10
2311.095825186499
 20
-720.6281941593581
 30
0.0
 10
2310.846450916125
 20
-720.6036898412539
 30
0.0
 10
2310.685160886065
 20
-720.5883983736146
 30
0.0
 10
2310.524532248784
 20
-720.5737693704217
 30
0.0
 10
2310.360852521051
 20
-720.5594116737778
 30
0.0
 10
2310.190543024513
 20
-720.5450317879045
 30
0.0
 10
2309.955037110304
 20
-720.5260148252341
 30
0.0
 10
2309.65387002057
 20
-720.5031851733561
 30
0.0
 10
2309.285945130602
 20
-720.4774809949489
 30
0.0
 10
2308.710526910889
 20
-720.4407358609718
 30
0.0
 10
2307.92494326889
 20
-720.3981592243695
 30
0.0
 10
2306.929186784911
 20
-720.3558965208601
 30
0.0
 10
2305.897403232886
 20
-720.3232056637802
 30
0.0
 10
2304.836969621819
 20
-720.300288279167
 30
0.0
 10
2303.99938575092
 20
-720.2902655829341
 30
0.0
 10
2303.381854057175
 20
-720.2867475153985
 30
0.0
 10
2302.979870881352
 20
-720.285788778805
 30
0.0
 10
2302.543185810827
 20
-720.2863221587446
 30
0.0
 10
2302.074327496672
 20
-720.2887212960934
 30
0.0
 10
2301.5758247468
 20
-720.293359852899
 30
0.0
 10
2301.074780718069
 20
-720.3002723182653
 30
0.0
 10
2300.592935480314
 20
-720.3090804003104
 30
0.0
 10
2300.151650507938
 20
-720.3190057110364
 30
0.0
 10
2299.736727231205
 20
-720.3299957569972
 30
0.0
 10
2299.326648642447
 20
-720.3424627837517
 30
0.0
 10
2298.90083021699
 20
-720.3571869872445
 30
0.0
 10
2298.461909749581
 20
-720.3744101112779
 30
0.0
 10
2298.033615795405
 20
-720.3933563537373
 30
0.0
 10
2297.689690331737
 20
-720.4102883219184
 30
0.0
 10
2297.424063047151
 20
-720.4243800229181
 30
0.0
 10
2297.273669778659
 20
-720.4327616055027
 30
0.0
 10
2297.173176161295
 20
-720.4385394754147
 30
0.0
 10
2297.123959879851
 20
-720.4414023096888
 30
0.0
 10
2297.074780590719
 20
-720.4443017049903
 30
0.0
 10
2297.009125489272
 20
-720.4481968768231
 30
0.0
 10
2296.926828069194
 20
-720.4530147388793
 30
0.0
 10
2296.591431510225
 20
-720.4724120577132
 30
0.0
 10
2296.016589994158
 20
-720.5036376111584
 30
0.0
 10
2295.405097316829
 20
-720.5335773915683
 30
0.0
 10
2294.99361493398
 20
-720.5525568172939
 30
0.0
 10
2294.806994789138
 20
-720.5609596213617
 30
0.0
 10
2294.649801643428
 20
-720.5678992030703
 30
0.0
 10
2294.531006122817
 20
-720.5730686123411
 30
0.0
 10
2294.438354936971
 20
-720.5770537552362
 30
0.0
 10
2294.244903181293
 20
-720.5853222132431
 30
0.0
 10
2293.943119403317
 20
-720.5983497509869
 30
0.0
 10
2293.381119408789
 20
-720.6228685994472
 30
0.0
 10
2292.683973154368
 20
-720.6538276200206
 30
0.0
 10
2292.051258460397
 20
-720.6825379869834
 30
0.0
 10
2291.633506736073
 20
-720.7017380617115
 30
0.0
 10
2291.434941456961
 20
-720.7109097521749
 30
0.0
 10
2291.265986431935
 20
-720.7187475626495
 30
0.0
 10
2291.130504892101
 20
-720.7250541192899
 30
0.0
 10
2290.967748066439
 20
-720.7326524446288
 30
0.0
 10
2290.775697032109
 20
-720.7416105827755
 30
0.0
 10
2290.552100155157
 20
-720.7520139946027
 30
0.0
 10
2290.359086614923
 20
-720.7609778511002
 30
0.0
 10
2290.156855565633
 20
-720.7703545967772
 30
0.0
 10
2289.948667907211
 20
-720.7799917882297
 30
0.0
 10
2289.737582179084
 20
-720.7897435945658
 30
0.0
 10
2289.569421650612
 20
-720.7974981867062
 30
0.0
 10
2289.446745068884
 20
-720.8031463025322
 30
0.0
 10
2289.241049983044
 20
-720.8126057849881
 30
0.0
 10
2288.93821133276
 20
-720.8265286446311
 30
0.0
 10
2288.103583053333
 20
-720.8648511567246
 30
0.0
 10
2286.853389517731
 20
-720.9220964489086
 30
0.0
 10
2284.625234294536
 20
-721.023663078931
 30
0.0
 10
2281.841023727014
 20
-721.1497220804583
 30
0.0
 10
2277.364975023686
 20
-721.3505586604007
 30
0.0
 10
2271.771857192296
 20
-721.598106915131
 30
0.0
 10
2266.173199987245
 20
-721.8414023626169
 30
0.0
 10
2261.689301534821
 20
-722.0335929851453
 30
0.0
 10
2259.157766666416
 20
-722.1410936472787
 30
0.0
 10
2257.462033683943
 20
-722.2126874680586
 30
0.0
 10
2256.85303176385
 20
-722.2383330357573
 30
0.0
 10
2256.466791447388
 20
-722.2545849910284
 30
0.0
 10
2256.292702653036
 20
-722.2619033336355
 30
0.0
 10
2256.081883894673
 20
-722.2707471561772
 30
0.0
 10
2255.83642701997
 20
-722.2810175283477
 30
0.0
 10
2255.558423833377
 20
-722.2926144925503
 30
0.0
 10
2255.249966150183
 20
-722.3054383474782
 30
0.0
 10
2254.96416927878
 20
-722.3172759511094
 30
0.0
 10
2254.710244738473
 20
-722.3277600614592
 30
0.0
 10
2254.498077262131
 20
-722.3364989900565
 30
0.0
 10
2254.285379045426
 20
-722.3452369613527
 30
0.0
 10
2254.002261883445
 20
-722.3568464357621
 30
0.0
 10
2253.648271771414
 20
-722.3713358669428
 30
0.0
 10
2253.294391394292
 20
-722.3857817868459
 30
0.0
 10
2253.011072482169
 20
-722.3973246232264
 30
0.0
 10
2252.798506959287
 20
-722.4059732632761
 30
0.0
 10
2252.585716013181
 20
-722.4146200058863
 30
0.0
 10
2252.301536921341
 20
-722.4261516034901
 30
0.0
 10
2251.946936218118
 20
-722.4405051301591
 30
0.0
 10
2250.525213710386
 20
-722.4978606926538
 30
0.0
 10
2248.104025673257
 20
-722.5940627917605
 30
0.0
 10
2245.251340674868
 20
-722.7043516509391
 30
0.0
 10
2242.962890497322
 20
-722.7910025209894
 30
0.0
 10
2241.708173270284
 20
-722.8378481873499
 30
0.0
 10
2240.924367914155
 20
-722.8668648617356
 30
0.0
 10
2240.620337098894
 20
-722.8780913539634
 30
0.0
 10
2240.33961043207
 20
-722.8884340100358
 30
0.0
 10
2240.086341175783
 20
-722.8977463089589
 30
0.0
 10
2239.864682596869
 20
-722.9058818508086
 30
0.0
 10
2239.678787959473
 20
-722.9126941639373
 30
0.0
 10
2239.280902557212
 20
-722.9272564834165
 30
0.0
 10
2238.656022141305
 20
-722.9500408326234
 30
0.0
 10
2237.791909045069
 20
-722.9813429128328
 30
0.0
 10
2236.92579236557
 20
-723.0125121203406
 30
0.0
 10
2236.227569429729
 20
-723.0374747994636
 30
0.0
 10
2235.68024562131
 20
-723.0569499672232
 30
0.0
 10
2235.268893307904
 20
-723.0715407653057
 30
0.0
 10
2234.812778546149
 20
-723.0876624862724
 30
0.0
 10
2233.915091438201
 20
-723.1192690717413
 30
0.0
 10
2232.590645011091
 20
-723.1654782347052
 30
0.0
 10
2231.097441318238
 20
-723.2168347632227
 30
0.0
 10
2229.859758039689
 20
-723.258922339391
 30
0.0
 10
2228.889753919537
 20
-723.2916409070565
 30
0.0
 10
2227.955902077333
 20
-723.32289307312
 30
0.0
 10
2227.059788050976
 20
-723.35265548749
 30
0.0
 10
2226.202997369407
 20
-723.3809045252297
 30
0.0
 10
2225.387115565345
 20
-723.4076166377088
 30
0.0
 10
2224.613728164881
 20
-723.4327682115919
 30
0.0
 10
2221.768685114102
 20
-723.5247057513877
 30
0.0
 10
2216.824891966278
 20
-723.6792127386798
 30
0.0
 10
2209.754425418918
 20
-723.8867699392024
 30
0.0
 10
2202.646206381788
 20
-724.0820973783075
 30
0.0
 10
2195.501913991605
 20
-724.2651450955418
 30
0.0
 10
2188.323963960631
 20
-724.4358474781907
 30
0.0
 10
2182.972643316269
 20
-724.5533482496012
 30
0.0
 10
2179.444972690268
 20
-724.6268856716521
 30
0.0
 10
2177.737467076439
 20
-724.661760817577
 30
0.0
 10
2175.987565937203
 20
-724.6967479446108
 30
0.0
 10
2174.195817178206
 20
-724.7317832213477
 30
0.0
 10
2172.362768720935
 20
-724.7668027972942
 30
0.0
 10
2170.48896848735
 20
-724.8017428296048
 30
0.0
 10
2168.574964380235
 20
-724.8365394584347
 30
0.0
 10
2164.855862176066
 20
-724.9023859196462
 30
0.0
 10
2159.338393727331
 20
-724.9938239552841
 30
0.0
 10
2150.561130201399
 20
-725.1237391852708
 30
0.0
 10
2140.289173280726
 20
-725.2521943113095
 30
0.0
 10
2128.518147441965
 20
-725.3666298614601
 30
0.0
 10
2116.714251844079
 20
-725.4479078808747
 30
0.0
 10
2104.884814273411
 20
-725.4989083429016
 30
0.0
 10
2096.990812486245
 20
-725.5052360533898
 30
0.0
 10
2093.040790919335
 20
-725.508402329959
 30
0.0
 11
2314.179533796583
 21
-721.368551400186
 31
0.0
 11
2314.176954934252
 21
-721.3458717175653
 31
0.0
 11
2314.169636072975
 21
-721.323745920644
 31
0.0
 11
2314.119932772308
 21
-721.2581595401566
 31
0.0
 11
2314.028985616048
 21
-721.1932674758649
 31
0.0
 11
2313.967791549054
 21
-721.1609177928033
 31
0.0
 11
2313.896498674483
 21
-721.128861864419
 31
0.0
 11
2313.856971555459
 21
-721.1128996393431
 31
0.0
 11
2313.814967780656
 21
-721.097026676562
 31
0.0
 11
2313.766286729671
 21
-721.07979483409
 31
0.0
 11
2313.723313896461
 21
-721.0654567756759
 31
0.0
 11
2313.469774677971
 21
-720.992743909872
 31
0.0
 11
2313.192812421777
 21
-720.9283447512619
 31
0.0
 11
2312.909139478419
 21
-720.872444960819
 31
0.0
 11
2312.635468198434
 21
-720.825230199517
 31
0.0
 11
2312.453356829375
 21
-720.7966306773384
 31
0.0
 11
2312.272767876219
 21
-720.7701191685459
 31
0.0
 11
2312.224698162344
 21
-720.7633410455121
 31
0.0
 11
2312.176732342494
 21
-720.7566867804909
 31
0.0
 11
2312.115290387904
 21
-720.7483131317925
 31
0.0
 11
2312.0786441534
 21
-720.7433927246399
 31
0.0
 11
2311.979467841863
 21
-720.7303422325765
 31
0.0
 11
2311.876518415575
 21
-720.717188559896
 31
0.0
 11
2311.440424122076
 21
-720.6654621409468
 31
0.0
 11
2310.992477807304
 21
-720.6181158129181
 31
0.0
 11
2310.854214973192
 21
-720.6045262331822
 31
0.0
 11
2310.692585646633
 21
-720.58919641956
 31
0.0
 11
2310.508592509836
 21
-720.5724359639111
 31
0.0
 11
2310.372346159179
 21
-720.5604860940446
 31
0.0
 11
2310.201554811196
 21
-720.5460572087832
 31
0.0
 11
2309.997642965377
 21
-720.529583232788
 31
0.0
 11
2309.665757374422
 21
-720.5043982755803
 31
0.0
 11
2309.297984056489
 21
-720.478672997114
 31
0.0
 11
2308.893862855659
 21
-720.452830762313
 31
0.0
 11
2307.939138574119
 21
-720.4007590418595
 31
0.0
 11
2306.940996241444
 21
-720.3581569516751
 31
0.0
 11
2305.906815313081
 21
-720.3252170089879
 31
0.0
 11
2304.843975244474
 21
-720.3021317310257
 31
0.0
 11
2303.759855491066
 21
-720.289093635016
 31
0.0
 11
2303.394261369749
 21
-720.287010232396
 31
0.0
 11
2302.991437418787
 21
-720.2860484953445
 31
0.0
 11
2302.553912586216
 21
-720.2865830452805
 31
0.0
 11
2302.084215820069
 21
-720.2889885036236
 31
0.0
 11
2301.58487606838
 21
-720.2936394917924
 31
0.0
 11
2301.058422279185
 21
-720.300910631206
 31
0.0
 11
2300.58109800878
 21
-720.3096447905637
 31
0.0
 11
2300.139345334705
 21
-720.3195894227679
 31
0.0
 11
2299.734570297195
 21
-720.330319084254
 31
0.0
 11
2299.336333107969
 21
-720.3424358191946
 31
0.0
 11
2298.909126641066
 21
-720.3572225521282
 31
0.0
 11
2298.457144452712
 21
-720.374979502844
 31
0.0
 11
2298.019597203269
 21
-720.3943590705838
 31
0.0
 11
2297.624251171417
 21
-720.4138447196821
 31
0.0
 11
2297.425311735819
 21
-720.4244018152405
 31
0.0
 11
2297.222670029849
 21
-720.435699570396
 31
0.0
 11
2297.173048473113
 21
-720.4385524086451
 31
0.0
 11
2297.123812922701
 21
-720.4414173463089
 31
0.0
 11
2297.075021367801
 21
-720.4442905139882
 31
0.0
 11
2297.025508859435
 21
-720.4472205545559
 31
0.0
 11
2296.926841685008
 21
-720.4530022994882
 31
0.0
 11
2296.828127214753
 21
-720.458710423651
 31
0.0
 11
2296.019171407077
 21
-720.5027782079839
 31
0.0
 11
2295.202134757283
 21
-720.542898939906
 31
0.0
 11
2294.99386461028
 21
-720.5525072451778
 31
0.0
 11
2294.784829778839
 21
-720.5619211955449
 31
0.0
 11
2294.642279485507
 21
-720.5682149851183
 31
0.0
 11
2294.522290193366
 21
-720.5734366014108
 31
0.0
 11
2294.428445259574
 21
-720.5774749641362
 31
0.0
 11
2294.364328041286
 21
-720.5802189930079
 31
0.0
 11
2293.941943126381
 21
-720.5984330044245
 31
0.0
 11
2293.523100636392
 21
-720.616710376246
 31
0.0
 11
2292.678347583259
 21
-720.6542151370639
 31
0.0
 11
2291.850525827677
 21
-720.6917731633349
 31
0.0
 11
2291.624925534775
 21
-720.7021416015591
 31
0.0
 11
2291.425072226571
 21
-720.7113728090272
 31
0.0
 11
2291.254829170136
 21
-720.7192701590134
 31
0.0
 11
2291.11805963254
 21
-720.725637024791
 31
0.0
 11
2291.018626880856
 21
-720.730276779634
 31
0.0
 11
2290.76655713449
 21
-720.7420317097367
 31
0.0
 11
2290.541905293223
 21
-720.7524848835128
 31
0.0
 11
2290.347836748401
 21
-720.761497652567
 31
0.0
 11
2290.187516891368
 21
-720.768931368504
 31
0.0
 11
2289.935211930281
 21
-720.7806104463906
 31
0.0
 11
2289.723273410018
 21
-720.7904013303236
 31
0.0
 11
2289.554260086913
 21
-720.79819495739
 31
0.0
 11
2289.4307307173
 21
-720.8038822646784
 31
0.0
 11
2289.355244057513
 21
-720.807354189276
 31
0.0
 11
2288.937174773536
 21
-720.8265721841263
 31
0.0
 11
2288.522213624199
 21
-720.845625974253
 31
0.0
 11
2286.851350539916
 21
-720.9221323787459
 31
0.0
 11
2285.186580977933
 21
-720.9980185042429
 31
0.0
 11
2281.837717107877
 21
-721.1496441636946
 31
0.0
 11
2278.498681243597
 21
-721.2994653818179
 31
0.0
 11
2271.758314318682
 21
-721.5978010245353
 31
0.0
 11
2265.058221522816
 21
-721.8889714645699
 31
0.0
 11
2261.702863716469
 21
-722.0327905686595
 31
0.0
 11
2258.30673375018
 21
-722.177010572197
 31
0.0
 11
2257.463665421398
 21
-722.2126032809952
 31
0.0
 11
2256.615696427907
 21
-722.248319259522
 31
0.0
 11
2256.479731890826
 21
-722.2540397120777
 31
0.0
 11
2256.304945617138
 21
-722.2613863415335
 31
0.0
 11
2256.093429416225
 21
-722.270259302919
 31
0.0
 11
2255.847275097471
 21
-722.2805587512635
 31
0.0
 11
2255.568574470258
 21
-722.2921848415967
 31
0.0
 11
2255.259419343968
 21
-722.3050377289478
 31
0.0
 11
2254.921901527983
 21
-722.3190175683459
 31
0.0
 11
2254.711184699355
 21
-722.3277177820146
 31
0.0
 11
2254.497646670961
 21
-722.33651289601
 31
0.0
 11
2254.28539906566
 21
-722.3452334634085
 31
0.0
 11
2254.073090405404
 21
-722.3539402994019
 31
0.0
 11
2253.648294605306
 21
-722.3713271264274
 31
0.0
 11
2253.223427479219
 21
-722.38867108183
 31
0.0
 11
2253.011450473183
 21
-722.3973073008985
 31
0.0
 11
2252.798338792536
 21
-722.4059782556229
 31
0.0
 11
2252.585730927899
 21
-722.4146174054182
 31
0.0
 11
2252.373077582319
 21
-722.423246211251
 31
0.0
 11
2251.945800235988
 21
-722.440541410571
 31
0.0
 11
2251.521927349585
 21
-722.45764146577
 31
0.0
 11
2248.107829590331
 21
-722.5933026590736
 31
0.0
 11
2244.682104865773
 21
-722.725752989451
 31
0.0
 11
2242.96396558158
 21
-722.7908105287293
 31
0.0
 11
2241.242549751075
 21
-722.8550802762569
 31
0.0
 11
2240.917983741762
 21
-722.8670959242904
 31
0.0
 11
2240.612568601439
 21
-722.8783738137114
 31
0.0
 11
2240.330457597628
 21
-722.8887675620985
 31
0.0
 11
2240.07580399785
 21
-722.8981307870307
 31
0.0
 11
2239.852761069629
 21
-722.9063171060861
 31
0.0
 11
2239.665482080486
 21
-722.913180136844
 31
0.0
 11
2239.518120297944
 21
-722.9185734968829
 31
0.0
 11
2238.659100870995
 21
-722.9498947666956
 31
0.0
 11
2237.790834106538
 21
-722.9813474609499
 31
0.0
 11
2236.925781038911
 21
-723.0124785627851
 31
0.0
 11
2236.060750981465
 21
-723.043404525864
 31
0.0
 11
2235.696170405973
 21
-723.0563769237998
 31
0.0
 11
2235.283813166501
 21
-723.0710034330142
 31
0.0
 11
2234.826693474039
 21
-723.0871606821108
 31
0.0
 11
2234.327825539569
 21
-723.1047252996929
 31
0.0
 11
2232.590734630564
 21
-723.1653315471575
 31
0.0
 11
2230.853330186651
 21
-723.225088104961
 31
0.0
 11
2229.848231193336
 21
-723.2592674737884
 31
0.0
 11
2228.877698936905
 21
-723.2920039342874
 31
0.0
 11
2227.943318949792
 21
-723.3232739474317
 31
0.0
 11
2227.04667676443
 21
-723.3530539741951
 31
0.0
 11
2226.189357913256
 21
-723.3813204755509
 31
0.0
 11
2225.372947928705
 21
-723.408049912473
 31
0.0
 11
2224.599032343211
 21
-723.4332187459352
 31
0.0
 11
2223.869196689208
 21
-723.456803436911
 31
0.0
 11
2216.837587948659
 21
-723.6765984634393
 31
0.0
 11
2209.767284143567
 21
-723.8841872470849
 31
0.0
 11
2202.657837349077
 21
-724.0795820322353
 31
0.0
 11
2195.512970712499
 21
-724.2626756670866
 31
0.0
 11
2188.334445965939
 21
-724.4334204445344
 31
0.0
 11
2181.124024841508
 21
-724.5917686574741
 31
0.0
 11
2179.459279836464
 21
-724.6264720285654
 31
0.0
 11
2177.751591394064
 21
-724.661351211679
 31
0.0
 11
2176.001507433356
 21
-724.6963423488432
 31
0.0
 11
2174.209575873391
 21
-724.7313815820874
 31
0.0
 11
2172.376344633218
 21
-724.7664050534396
 31
0.0
 11
2170.502361631887
 21
-724.8013489049295
 31
0.0
 11
2168.588174788447
 21
-724.8361492785851
 31
0.0
 11
2166.63433202195
 21
-724.8707423164359
 31
0.0
 11
2159.344930461845
 21
-724.9915667291378
 31
0.0
 11
2152.035614996094
 21
-725.099767572599
 31
0.0
 11
2140.302389956896
 21
-725.2465946060066
 31
0.0
 11
2128.528967502172
 21
-725.3609671183794
 31
0.0
 11
2116.722675159372
 21
-725.4427895897846
 31
0.0
 11
2104.890840455942
 21
-725.4919665002888
 31
0.0
 11
2093.040790919335
 21
-725.508402329959
 31
0.0
  0
SPLINE
  5
129
330
1F
100
AcDbEntity
  8
0
  6
Continuous
 62
     7
100
AcDbSpline
210
0.0
220
0.0
230
1.0
 70
     8
 71
     3
 72
    43
 73
    39
 74
    37
 42
0.0000000001
 43
0.0000000001
 44
0.00000001
 40
0.0
 40
0.0
 40
0.0
 40
0.0
 40
9.152884979237038
 40
18.1581322282747
 40
21.50882745124097
 40
24.82730666697881
 40
27.9110434377932
 40
31.55757407858347
 40
38.38835957334461
 40
45.24195996520221
 40
59.44086074755755
 40
73.78988918253376
 40
89.00990120152161
 40
104.4451816475259
 40
112.5741601128838
 40
120.7609784061889
 40
122.8572114874537
 40
124.9560709248449
 40
126.8900240260382
 40
129.200066543338
 40
132.9559009669058
 40
136.748995101483
 40
150.8491282320691
 40
164.2499033815531
 40
179.7803222772178
 40
194.7623550867055
 40
198.6144044164317
 40
202.4386975131337
 40
206.3243420177393
 40
210.1834372698752
 40
214.0670721428629
 40
217.9254465630124
 40
219.8638099113357
 40
221.7960576479055
 40
224.0705965341452
 40
225.6667192046639
 40
241.0178211711687
 40
256.6366324530556
 40
256.6366324530556
 40
256.6366324530556
 40
256.6366324530556
 10
2318.781639190064
 20
-977.9519138444114
 30
0.0
 10
2318.694918590128
 20
-974.902184884763
 30
0.0
 10
2318.522876209598
 20
-968.8519196585191
 30
0.0
 10
2318.316269856045
 20
-961.685287817112
 30
0.0
 10
2318.164697053691
 20
-956.4626796311111
 30
0.0
 10
2318.069999158359
 20
-953.2130887440828
 30
0.0
 10
2317.972056778433
 20
-949.8649387615154
 30
0.0
 10
2317.839364604542
 20
-945.3465357530771
 30
0.0
 10
2317.669104048015
 20
-939.5720730916869
 30
0.0
 10
2317.395014749071
 20
-930.2816865145433
 30
0.0
 10
2317.0491860647
 20
-918.4862447618623
 30
0.0
 10
2316.633452848979
 20
-903.9028527131888
 30
0.0
 10
2316.226853502254
 20
-888.9069169757968
 30
0.0
 10
2315.902622042048
 20
-875.9828796301761
 30
0.0
 10
2315.658541365452
 20
-865.4019987270904
 30
0.0
 10
2315.526682657
 20
-859.2660686758136
 30
0.0
 10
2315.442620499142
 20
-855.1396211351321
 30
0.0
 10
2315.401968751871
 20
-853.0970103241381
 30
0.0
 10
2315.360885826271
 20
-850.9831244171223
 30
0.0
 10
2315.310379287126
 20
-848.3169926424134
 30
0.0
 10
2315.250391013719
 20
-845.0312160559528
 30
0.0
 10
2315.124653998299
 20
-837.8159571685417
 30
0.0
 10
2314.962805194134
 20
-827.3858621879589
 30
0.0
 10
2314.777937640502
 20
-813.0432650116911
 30
0.0
 10
2314.625373852207
 20
-798.4063024965942
 30
0.0
 10
2314.531164938373
 20
-786.9518487710612
 30
0.0
 10
2314.477120340721
 20
-779.399250361474
 30
0.0
 10
2314.451083443518
 20
-775.5453425499356
 30
0.0
 10
2314.426443652177
 20
-771.6890769111324
 30
0.0
 10
2314.40295567285
 20
-767.8130231364097
 30
0.0
 10
2314.380643987096
 20
-763.9460526084705
 30
0.0
 10
2314.362826841833
 20
-760.7193108894967
 30
0.0
 10
2314.348995387525
 20
-758.1430195133337
 30
0.0
 10
2314.338185463769
 20
-756.0946647113392
 30
0.0
 10
2314.328140620413
 20
-754.1603876906805
 30
0.0
 10
2314.295358129717
 20
-747.7532170625414
 30
0.0
 10
2314.242950475871
 20
-736.8979971633735
 30
0.0
 10
2314.200794158525
 20
-726.5747785534941
 30
0.0
 10
2314.179533796583
 20
-721.368551400186
 30
0.0
 11
2318.781639190064
 21
-977.9519138444114
 31
0.0
 11
2318.520873093599
 21
-968.8027442380439
 31
0.0
 11
2318.261531390999
 21
-959.801232148534
 31
0.0
 11
2318.164318803684
 21
-956.4519474204053
 31
0.0
 11
2318.067656200214
 21
-953.134876325844
 31
0.0
 11
2317.977488381689
 21
-950.0524580809954
 31
0.0
 11
2317.870472026132
 21
-946.407498106748
 31
0.0
 11
2317.669308463583
 21
-939.579675342752
 31
0.0
 11
2317.467354541132
 21
-932.729051068682
 31
0.0
 11
2317.052560606606
 21
-918.5362102882374
 31
0.0
 11
2316.644956208003
 21
-904.1929723106399
 31
0.0
 11
2316.233897580718
 21
-888.978512193269
 31
0.0
 11
2315.848342169586
 21
-873.5480478622209
 31
0.0
 11
2315.66111539977
 21
-865.4212257879462
 31
0.0
 11
2315.485492155605
 21
-857.2362914422289
 31
0.0
 11
2315.442802227173
 21
-855.1404930976835
 31
0.0
 11
2315.401044955106
 21
-853.04204908648
 31
0.0
 11
2315.363465940663
 21
-851.1084611222827
 31
0.0
 11
2315.31970851664
 21
-848.798833074398
 31
0.0
 11
2315.25113472877
 21
-845.0436247109548
 31
0.0
 11
2315.185028394716
 21
-841.251106673244
 31
0.0
 11
2314.965519403952
 21
-827.1526822895327
 31
0.0
 11
2314.792188539381
 21
-813.7530281515179
 31
0.0
 11
2314.629260864678
 21
-798.2234639062586
 31
0.0
 11
2314.504898462239
 21
-783.2419472574869
 31
0.0
 11
2314.477311713887
 21
-779.3899967113402
 31
0.0
 11
2314.451453283026
 21
-775.565791038127
 31
0.0
 11
2314.426601395787
 21
-771.680226008447
 31
0.0
 11
2314.403191133875
 21
-767.8212017632919
 31
0.0
 11
2314.38075650723
 21
-763.9376316899942
 31
0.0
 11
2314.359423922148
 21
-760.079316243212
 31
0.0
 11
2314.34901400908
 21
-758.1409808481287
 31
0.0
 11
2314.338812524229
 21
-756.208760041599
 31
0.0
 11
2314.327000381869
 21
-753.9342518269932
 31
0.0
 11
2314.318831548058
 21
-752.3381500603449
 31
0.0
 11
2314.245268916095
 21
-736.9872243512808
 31
0.0
 11
2314.179533796583
 21
-721.368551400186
 31
0.0
  0
SPLINE
  5
12A
330
1F
100
AcDbEntity
  8
0
  6
Continuous
 62
     7
100
AcDbSpline
210
0.0
220
0.0
230
1.0
 70
     8
 71
     3
 72
    31
 73
    27
 74
    25
 42
0.0000000001
 43
0.0000000001
 44
0.00000001
 40
0.0
 40
0.0
 40
0.0
 40
0.0
 40
2.456043933953408
 40
4.915455185162864
 40
7.011688266427646
 40
9.110547703818867
 40
11.04450080501213
 40
13.35454332231198
 40
17.11037774587973
 40
20.90347188045696
 40
35.00360501104304
 40
48.40438016052706
 40
63.93479905619177
 40
78.91683186567944
 40
82.76888119540565
 40
86.59317429210768
 40
90.47881879671328
 40
94.33791404884913
 40
98.22154892183687
 40
102.0799233419864
 40
104.0182866903096
 40
105.9505344268795
 40
108.2250733131192
 40
109.8211959836379
 40
125.1722979501426
 40
140.7911092320296
 40
140.7911092320296
 40
140.7911092320296
 40
140.7911092320296
 10
3373.589294470045
 20
-862.150650316617
 30
0.0
 10
3373.571705805401
 20
-861.3321579484073
 30
0.0
 10
3373.536504361473
 20
-859.6940510319502
 30
0.0
 10
3373.487810858483
 20
-857.3573287376496
 30
0.0
 10
3373.442617441896
 20
-855.1396211953198
 30
0.0
 10
3373.401969494029
 20
-853.0970103095171
 30
0.0
 10
3373.360885594976
 20
-850.9831244216684
 30
0.0
 10
3373.310379400031
 20
-848.3169926401821
 30
0.0
 10
3373.250390978119
 20
-845.0312160566457
 30
0.0
 10
3373.124654037888
 20
-837.8159571677542
 30
0.0
 10
3372.962805179122
 20
-827.3858621882465
 30
0.0
 10
3372.777937644628
 20
-813.0432650116022
 30
0.0
 10
3372.625373850516
 20
-798.4063024966194
 30
0.0
 10
3372.531164938042
 20
-786.9518487710594
 30
0.0
 10
3372.47712034031
 20
-779.3992503614744
 30
0.0
 10
3372.451083443117
 20
-775.5453425499358
 30
0.0
 10
3372.42644365177
 20
-771.6890769111321
 30
0.0
 10
3372.402955672445
 20
-767.8130231364096
 30
0.0
 10
3372.380643986692
 20
-763.9460526084704
 30
0.0
 10
3372.36282684143
 20
-760.719310889497
 30
0.0
 10
3372.348995387121
 20
-758.1430195133336
 30
0.0
 10
3372.338185463364
 20
-756.0946647113391
 30
0.0
 10
3372.328140620008
 20
-754.1603876906806
 30
0.0
 10
3372.29535812932
 20
-747.7532170625411
 30
0.0
 10
3372.242950475465
 20
-736.8979971633737
 30
0.0
 10
3372.20079415812
 20
-726.5747785534941
 30
0.0
 10
3372.179533796179
 20
-721.368551400186
 30
0.0
 11
3373.589294470045
 21
-862.150650316617
 31
0.0
 11
3373.536794481499
 21
-859.6951675623073
 31
0.0
 11
3373.485492155201
 21
-857.2362914422289
 31
0.0
 11
3373.442802226769
 21
-855.1404930976835
 31
0.0
 11
3373.401044954702
 21
-853.04204908648
 31
0.0
 11
3373.363465940259
 21
-851.1084611222827
 31
0.0
 11
3373.319708516237
 21
-848.798833074398
 31
0.0
 11
3373.251134728368
 21
-845.0436247109548
 31
0.0
 11
3373.185028394312
 21
-841.251106673244
 31
0.0
 11
3372.965519403549
 21
-827.1526822895327
 31
0.0
 11
3372.792188538977
 21
-813.7530281515179
 31
0.0
 11
3372.629260864274
 21
-798.2234639062586
 31
0.0
 11
3372.504898461835
 21
-783.2419472574869
 31
0.0
 11
3372.477311713484
 21
-779.3899967113402
 31
0.0
 11
3372.451453282622
 21
-775.565791038127
 31
0.0
 11
3372.426601395382
 21
-771.680226008447
 31
0.0
 11
3372.403191133471
 21
-767.8212017632919
 31
0.0
 11
3372.380756506826
 21
-763.9376316899942
 31
0.0
 11
3372.359423921744
 21
-760.079316243212
 31
0.0
 11
3372.349014008676
 21
-758.1409808481287
 31
0.0
 11
3372.338812523825
 21
-756.208760041599
 31
0.0
 11
3372.327000381465
 21
-753.9342518269932
 31
0.0
 11
3372.318831547655
 21
-752.3381500603449
 31
0.0
 11
3372.245268915691
 21
-736.9872243512808
 31
0.0
 11
3372.179533796179
 21
-721.368551400186
 31
0.0
  0
SPLINE
  5
12B
330
1F
100
AcDbEntity
  8
0
  6
Continuous
 62
     7
100
AcDbSpline
210
0.0
220
0.0
230
1.0
 70
     8
 71
     3
 72
   174
 73
   170
 74
   168
 42
0.0000000001
 43
0.0000000001
 44
0.00000001
 40
0.0
 40
0.0
 40
0.0
 40
0.0
 40
0.0228258304273781
 40
0.0461306930056364
 40
0.1284228032144011
 40
0.2401473092093503
 40
0.3093659181918723
 40
0.3875340479455384
 40
0.4301625098892226
 40
0.4750653833514154
 40
0.5267062694781345
 40
0.5720079726826354
 40
0.8357678941380411
 40
1.120118633516497
 40
1.409246849651083
 40
1.686961096987281
 40
1.8713044814885
 40
2.05382908284531
 40
2.102374323022814
 40
2.150799513955482
 40
2.212809446839724
 40
2.249784531828312
 40
2.349815807503043
 40
2.453602143202924
 40
2.892753432897227
 40
3.343194967056148
 40
3.482124042393084
 40
3.644478723230097
 40
3.829233661626521
 40
3.966003056803487
 40
4.137402815484589
 40
4.341979042721506
 40
4.674818835343874
 40
5.043490780758615
 40
5.448437402005794
 40
6.40458065373818
 40
7.403631730693125
 40
8.438337115048679
 40
9.501427864465597
 40
10.58562601594737
 40
10.9512260735353
 40
11.35405117256279
 40
11.79157633168014
 40
12.26127925732359
 40
12.7606406688358
 40
13.2871446684659
 40
13.76454884173818
 40
14.20641343724364
 40
14.61133065918834
 40
15.00975213720881
 40
15.43721443125988
 40
15.88954529234199
 40
16.32752150532728
 40
16.72334744614216
 40
16.92256680088067
 40
17.12552320080493
 40
17.17522669745182
 40
17.22454553048901
 40
17.27342160768566
 40
17.32302073693651
 40
17.42185716687921
 40
17.52073653438867
 40
18.33089174691801
 40
19.14891287148545
 40
19.35740453477893
 40
19.56665123897532
 40
19.70934040435327
 40
19.82944325821313
 40
19.9233750418213
 40
19.98755095144058
 40
20.41032839472561
 40
20.82956948734563
 40
21.67515468580924
 40
22.503828001629
 40
22.72966643208076
 40
22.92973282104117
 40
23.10015895284367
 40
23.23707660471457
 40
23.3366175482131
 40
23.58896123332283
 40
23.81385613905948
 40
24.00813385290033
 40
24.16862596078001
 40
24.42120108673262
 40
24.63336564027474
 40
24.80255855977652
 40
24.9262187822456
 40
25.00178524349865
 40
25.42029600504693
 40
25.83569437092799
 40
27.5083080969111
 40
29.17480634129914
 40
32.5271010122324
 40
35.86949639583759
 40
42.61646241310878
 40
49.32287901949158
 40
52.6813176363676
 40
56.08050844556596
 40
56.92432776740764
 40
57.77304859609397
 40
57.90913341861666
 40
58.08407402120528
 40
58.29577624767556
 40
58.54214594402139
 40
58.82108895896491
 40
59.13051114437574
 40
59.46831835569091
 40
59.67921471788027
 40
59.89293379424073
 40
60.10536047394866
 40
60.31784759405973
 40
60.74299906534446
 40
61.16822005214745
 40
61.38037291064315
 40
61.59366091753505
 40
61.80644423223497
 40
62.01927257075359
 40
62.44689980866837
 40
62.87111748358981
 40
66.28790946864146
 40
69.7161937302603
 40
71.4355642788345
 40
73.15817945987777
 40
73.48296780665
 40
73.7885911021108
 40
74.07089350818788
 40
74.32571918558486
 40
74.54891229401207
 40
74.73631699236695
 40
74.88377743888195
 40
75.74336768883703
 40
76.61220394857611
 40
77.47781700029799
 40
78.3433997031499
 40
78.70821099564891
 40
79.12082755823057
 40
79.57823270679788
 40
80.07740976139112
 40
81.81555760992889
 40
83.55398938826596
 40
84.55966936500549
 40
85.53075357176607
 40
86.46565665446518
 40
87.36279324304193
 40
88.22057795244062
 40
89.03742538352742
 40
89.81175012396179
 40
90.54196674901357
 40
97.57700984297152
 40
104.6503604633918
 40
111.7624918489705
 40
118.9097040700833
 40
126.0902591541976
 40
133.302418813286
 40
134.9675254932866
 40
136.6755700985954
 40
138.4260038303335
 40
140.218277934221
 40
142.0518437016508
 40
143.9261524707799
 40
145.8406556276333
 40
147.7948046072304
 40
155.085207452284
 40
162.3953237304566
 40
174.1294674145184
 40
185.903445390079
 40
197.7100212611984
 40
209.5419581617141
 40
221.3920190964329
 40
221.3920190964329
 40
221.3920190964329
 40
221.3920190964329
 10
3372.179533796179
 20
-721.368551400186
 30
0.0
 10
3372.179006719386
 20
-721.3609315190292
 30
0.0
 10
3372.17794150435
 20
-721.3455318427938
 30
0.0
 10
3372.163632504088
 20
-721.3047070706459
 30
0.0
 10
3372.115382466005
 20
-721.2477566586134
 30
0.0
 10
3372.041973549234
 20
-721.1990608917797
 30
0.0
 10
3371.96545446276
 20
-721.158902032681
 30
0.0
 10
3371.907552738347
 20
-721.1331270566743
 30
0.0
 10
3371.856325579019
 20
-721.112470642531
 30
0.0
 10
3371.812916222737
 20
-721.0960963195973
 30
0.0
 10
3371.768332756827
 20
-721.0803420102435
 30
0.0
 10
3371.654258037111
 20
-721.0423372243825
 30
0.0
 10
3371.463629397724
 20
-720.9889363280284
 30
0.0
 10
3371.191577647891
 20
-720.9264868745433
 30
0.0
 10
3370.913074072391
 20
-720.8720616109916
 30
0.0
 10
3370.666273189485
 20
-720.8297008508234
 30
0.0
 10
3370.454001885031
 20
-720.7964205733014
 30
0.0
 10
3370.316992871141
 20
-720.7763358634716
 30
0.0
 10
3370.224740305132
 20
-720.7633286637035
 30
0.0
 10
3370.172249384309
 20
-720.7560475468763
 30
0.0
 10
3370.123562305755
 20
-720.749414818866
 30
0.0
 10
3370.057813532436
 20
-720.74058690581
 30
0.0
 10
3369.978234731656
 20
-720.7301179613868
 30
0.0
 10
3369.765638710955
 20
-720.702962659771
 30
0.0
 10
3369.436786926046
 20
-720.6641132808636
 30
0.0
 10
3369.095825186095
 20
-720.6281941593581
 30
0.0
 10
3368.84645091572
 20
-720.603689841254
 30
0.0
 10
3368.68516088566
 20
-720.5883983736144
 30
0.0
 10
3368.524532248382
 20
-720.573769370422
 30
0.0
 10
3368.360852520646
 20
-720.5594116737773
 30
0.0
 10
3368.19054302411
 20
-720.5450317879048
 30
0.0
 10
3367.955037109899
 20
-720.5260148252337
 30
0.0
 10
3367.653870020165
 20
-720.5031851733562
 30
0.0
 10
3367.285945130198
 20
-720.4774809949489
 30
0.0
 10
3366.710526910484
 20
-720.4407358609714
 30
0.0
 10
3365.924943268486
 20
-720.3981592243697
 30
0.0
 10
3364.929186784507
 20
-720.3558965208599
 30
0.0
 10
3363.897403232481
 20
-720.3232056637803
 30
0.0
 10
3362.836969621416
 20
-720.3002882791671
 30
0.0
 10
3361.999385750516
 20
-720.2902655829341
 30
0.0
 10
3361.38185405677
 20
-720.2867475153985
 30
0.0
 10
3360.979870880948
 20
-720.285788778805
 30
0.0
 10
3360.543185810423
 20
-720.2863221587445
 30
0.0
 10
3360.074327496268
 20
-720.2887212960936
 30
0.0
 10
3359.575824746397
 20
-720.2933598528989
 30
0.0
 10
3359.074780717665
 20
-720.3002723182656
 30
0.0
 10
3358.59293547991
 20
-720.3090804003104
 30
0.0
 10
3358.151650507534
 20
-720.3190057110364
 30
0.0
 10
3357.736727230802
 20
-720.3299957569972
 30
0.0
 10
3357.326648642043
 20
-720.3424627837516
 30
0.0
 10
3356.900830216587
 20
-720.3571869872446
 30
0.0
 10
3356.461909749176
 20
-720.374410111278
 30
0.0
 10
3356.033615795001
 20
-720.3933563537372
 30
0.0
 10
3355.689690331335
 20
-720.4102883219186
 30
0.0
 10
3355.424063046747
 20
-720.4243800229181
 30
0.0
 10
3355.273669778257
 20
-720.4327616055028
 30
0.0
 10
3355.17317616089
 20
-720.4385394754145
 30
0.0
 10
3355.123959879447
 20
-720.4414023096888
 30
0.0
 10
3355.074780590314
 20
-720.44430170499
 30
0.0
 10
3355.009125488869
 20
-720.4481968768234
 30
0.0
 10
3354.926828068792
 20
-720.4530147388796
 30
0.0
 10
3354.59143150982
 20
-720.472412057713
 30
0.0
 10
3354.016589993756
 20
-720.5036376111586
 30
0.0
 10
3353.405097316424
 20
-720.5335773915682
 30
0.0
 10
3352.993614933577
 20
-720.552556817294
 30
0.0
 10
3352.806994788734
 20
-720.5609596213619
 30
0.0
 10
3352.649801643023
 20
-720.5678992030704
 30
0.0
 10
3352.531006122412
 20
-720.5730686123406
 30
0.0
 10
3352.438354936567
 20
-720.5770537552364
 30
0.0
 10
3352.244903180888
 20
-720.5853222132429
 30
0.0
 10
3351.943119402914
 20
-720.598349750987
 30
0.0
 10
3351.381119408386
 20
-720.6228685994472
 30
0.0
 10
3350.683973153965
 20
-720.6538276200208
 30
0.0
 10
3350.051258459992
 20
-720.6825379869832
 30
0.0
 10
3349.633506735672
 20
-720.7017380617118
 30
0.0
 10
3349.434941456557
 20
-720.7109097521748
 30
0.0
 10
3349.265986431531
 20
-720.7187475626495
 30
0.0
 10
3349.130504891696
 20
-720.7250541192897
 30
0.0
 10
3348.967748066036
 20
-720.7326524446289
 30
0.0
 10
3348.775697031704
 20
-720.7416105827749
 30
0.0
 10
3348.552100154755
 20
-720.7520139946034
 30
0.0
 10
3348.35908661452
 20
-720.7609778511
 30
0.0
 10
3348.156855565232
 20
-720.7703545967777
 30
0.0
 10
3347.948667906806
 20
-720.7799917882294
 30
0.0
 10
3347.737582178681
 20
-720.7897435945661
 30
0.0
 10
3347.569421650208
 20
-720.7974981867063
 30
0.0
 10
3347.446745068479
 20
-720.8031463025322
 30
0.0
 10
3347.24104998264
 20
-720.812605784988
 30
0.0
 10
3346.938211332355
 20
-720.826528644631
 30
0.0
 10
3346.10358305293
 20
-720.8648511567246
 30
0.0
 10
3344.853389517326
 20
-720.9220964489087
 30
0.0
 10
3342.625234294132
 20
-721.0236630789308
 30
0.0
 10
3339.84102372661
 20
-721.1497220804586
 30
0.0
 10
3335.364975023282
 20
-721.3505586604005
 30
0.0
 10
3329.771857191893
 20
-721.598106915131
 30
0.0
 10
3324.173199986841
 20
-721.8414023626171
 30
0.0
 10
3319.689301534418
 20
-722.033592985145
 30
0.0
 10
3317.157766666012
 20
-722.1410936472787
 30
0.0
 10
3315.46203368354
 20
-722.2126874680584
 30
0.0
 10
3314.853031763448
 20
-722.2383330357573
 30
0.0
 10
3314.466791446983
 20
-722.2545849910283
 30
0.0
 10
3314.292702652632
 20
-722.2619033336355
 30
0.0
 10
3314.081883894269
 20
-722.2707471561774
 30
0.0
 10
3313.836427019565
 20
-722.2810175283475
 30
0.0
 10
3313.558423832973
 20
-722.2926144925503
 30
0.0
 10
3313.249966149778
 20
-722.3054383474782
 30
0.0
 10
3312.964169278377
 20
-722.3172759511095
 30
0.0
 10
3312.710244738069
 20
-722.3277600614592
 30
0.0
 10
3312.498077261728
 20
-722.336498990057
 30
0.0
 10
3312.285379045022
 20
-722.3452369613524
 30
0.0
 10
3312.002261883043
 20
-722.3568464357623
 30
0.0
 10
3311.64827177101
 20
-722.3713358669427
 30
0.0
 10
3311.294391393888
 20
-722.3857817868459
 30
0.0
 10
3311.011072481765
 20
-722.3973246232263
 30
0.0
 10
3310.798506958882
 20
-722.4059732632763
 30
0.0
 10
3310.585716012778
 20
-722.4146200058863
 30
0.0
 10
3310.301536920938
 20
-722.4261516034902
 30
0.0
 10
3309.946936217714
 20
-722.4405051301592
 30
0.0
 10
3308.525213709983
 20
-722.497860692654
 30
0.0
 10
3306.104025672853
 20
-722.5940627917602
 30
0.0
 10
3303.251340674464
 20
-722.7043516509392
 30
0.0
 10
3300.962890496919
 20
-722.7910025209894
 30
0.0
 10
3299.708173269878
 20
-722.8378481873499
 30
0.0
 10
3298.924367913752
 20
-722.8668648617356
 30
0.0
 10
3298.620337098489
 20
-722.8780913539634
 30
0.0
 10
3298.339610431666
 20
-722.8884340100357
 30
0.0
 10
3298.086341175379
 20
-722.8977463089589
 30
0.0
 10
3297.864682596464
 20
-722.9058818508086
 30
0.0
 10
3297.678787959068
 20
-722.9126941639372
 30
0.0
 10
3297.280902556809
 20
-722.9272564834166
 30
0.0
 10
3296.6560221409
 20
-722.950040832623
 30
0.0
 10
3295.791909044664
 20
-722.9813429128329
 30
0.0
 10
3294.925792365168
 20
-723.0125121203406
 30
0.0
 10
3294.227569429323
 20
-723.0374747994636
 30
0.0
 10
3293.680245620908
 20
-723.0569499672231
 30
0.0
 10
3293.2688933075
 20
-723.0715407653058
 30
0.0
 10
3292.812778545745
 20
-723.0876624862723
 30
0.0
 10
3291.915091437798
 20
-723.1192690717417
 30
0.0
 10
3290.590645010686
 20
-723.1654782347049
 30
0.0
 10
3289.097441317836
 20
-723.216834763223
 30
0.0
 10
3287.859758039285
 20
-723.2589223393909
 30
0.0
 10
3286.889753919133
 20
-723.2916409070564
 30
0.0
 10
3285.955902076929
 20
-723.3228930731199
 30
0.0
 10
3285.059788050572
 20
-723.3526554874899
 30
0.0
 10
3284.202997369004
 20
-723.3809045252298
 30
0.0
 10
3283.387115564941
 20
-723.4076166377089
 30
0.0
 10
3282.613728164478
 20
-723.4327682115919
 30
0.0
 10
3279.768685113696
 20
-723.5247057513876
 30
0.0
 10
3274.824891965875
 20
-723.6792127386797
 30
0.0
 10
3267.754425418515
 20
-723.8867699392025
 30
0.0
 10
3260.646206381384
 20
-724.0820973783076
 30
0.0
 10
3253.501913991202
 20
-724.2651450955418
 30
0.0
 10
3246.323963960227
 20
-724.4358474781906
 30
0.0
 10
3240.972643315869
 20
-724.5533482496018
 30
0.0
 10
3237.444972689862
 20
-724.6268856716517
 30
0.0
 10
3235.737467076036
 20
-724.6617608175774
 30
0.0
 10
3233.987565936798
 20
-724.6967479446107
 30
0.0
 10
3232.195817177802
 20
-724.7317832213477
 30
0.0
 10
3230.362768720532
 20
-724.7668027972941
 30
0.0
 10
3228.488968486946
 20
-724.8017428296048
 30
0.0
 10
3226.574964379831
 20
-724.8365394584346
 30
0.0
 10
3222.855862175663
 20
-724.9023859196465
 30
0.0
 10
3217.338393726927
 20
-724.9938239552839
 30
0.0
 10
3208.561130200995
 20
-725.123739185271
 30
0.0
 10
3198.289173280322
 20
-725.2521943113094
 30
0.0
 10
3186.518147441561
 20
-725.3666298614602
 30
0.0
 10
3174.714251843674
 20
-725.4479078808745
 30
0.0
 10
3162.884814273007
 20
-725.4989083429016
 30
0.0
 10
3154.990812485842
 20
-725.5052360533898
 30
0.0
 10
3151.040790918931
 20
-725.508402329959
 30
0.0
 11
3372.179533796179
 21
-721.368551400186
 31
0.0
 11
3372.176954933848
 21
-721.3458717175653
 31
0.0
 11
3372.169636072571
 21
-721.323745920644
 31
0.0
 11
3372.119932771904
 21
-721.2581595401566
 31
0.0
 11
3372.028985615644
 21
-721.1932674758649
 31
0.0
 11
3371.96779154865
 21
-721.1609177928033
 31
0.0
 11
3371.896498674079
 21
-721.128861864419
 31
0.0
 11
3371.856971555055
 21
-721.1128996393431
 31
0.0
 11
3371.814967780252
 21
-721.097026676562
 31
0.0
 11
3371.766286729267
 21
-721.07979483409
 31
0.0
 11
3371.723313896057
 21
-721.0654567756759
 31
0.0
 11
3371.469774677566
 21
-720.992743909872
 31
0.0
 11
3371.192812421374
 21
-720.9283447512619
 31
0.0
 11
3370.909139478015
 21
-720.872444960819
 31
0.0
 11
3370.63546819803
 21
-720.825230199517
 31
0.0
 11
3370.453356828971
 21
-720.7966306773384
 31
0.0
 11
3370.272767875815
 21
-720.7701191685459
 31
0.0
 11
3370.22469816194
 21
-720.7633410455121
 31
0.0
 11
3370.17673234209
 21
-720.7566867804909
 31
0.0
 11
3370.1152903875
 21
-720.7483131317925
 31
0.0
 11
3370.078644152996
 21
-720.7433927246399
 31
0.0
 11
3369.979467841459
 21
-720.7303422325765
 31
0.0
 11
3369.876518415171
 21
-720.717188559896
 31
0.0
 11
3369.440424121672
 21
-720.6654621409468
 31
0.0
 11
3368.9924778069
 21
-720.6181158129181
 31
0.0
 11
3368.854214972788
 21
-720.6045262331822
 31
0.0
 11
3368.692585646229
 21
-720.58919641956
 31
0.0
 11
3368.508592509432
 21
-720.5724359639111
 31
0.0
 11
3368.372346158776
 21
-720.5604860940446
 31
0.0
 11
3368.201554810792
 21
-720.5460572087832
 31
0.0
 11
3367.997642964973
 21
-720.529583232788
 31
0.0
 11
3367.665757374018
 21
-720.5043982755803
 31
0.0
 11
3367.297984056085
 21
-720.478672997114
 31
0.0
 11
3366.893862855255
 21
-720.452830762313
 31
0.0
 11
3365.939138573715
 21
-720.4007590418595
 31
0.0
 11
3364.94099624104
 21
-720.3581569516751
 31
0.0
 11
3363.906815312677
 21
-720.3252170089879
 31
0.0
 11
3362.84397524407
 21
-720.3021317310257
 31
0.0
 11
3361.759855490662
 21
-720.289093635016
 31
0.0
 11
3361.394261369345
 21
-720.287010232396
 31
0.0
 11
3360.991437418383
 21
-720.2860484953445
 31
0.0
 11
3360.553912585811
 21
-720.2865830452805
 31
0.0
 11
3360.084215819665
 21
-720.2889885036236
 31
0.0
 11
3359.584876067976
 21
-720.2936394917924
 31
0.0
 11
3359.058422278781
 21
-720.300910631206
 31
0.0
 11
3358.581098008376
 21
-720.3096447905637
 31
0.0
 11
3358.139345334302
 21
-720.3195894227679
 31
0.0
 11
3357.734570296791
 21
-720.330319084254
 31
0.0
 11
3357.336333107565
 21
-720.3424358191946
 31
0.0
 11
3356.909126640661
 21
-720.3572225521282
 31
0.0
 11
3356.457144452308
 21
-720.374979502844
 31
0.0
 11
3356.019597202865
 21
-720.3943590705838
 31
0.0
 11
3355.624251171013
 21
-720.4138447196821
 31
0.0
 11
3355.425311735416
 21
-720.4244018152405
 31
0.0
 11
3355.222670029445
 21
-720.435699570396
 31
0.0
 11
3355.17304847271
 21
-720.4385524086451
 31
0.0
 11
3355.123812922298
 21
-720.4414173463089
 31
0.0
 11
3355.075021367397
 21
-720.4442905139882
 31
0.0
 11
3355.025508859031
 21
-720.4472205545559
 31
0.0
 11
3354.926841684604
 21
-720.4530022994882
 31
0.0
 11
3354.82812721435
 21
-720.458710423651
 31
0.0
 11
3354.019171406674
 21
-720.5027782079839
 31
0.0
 11
3353.202134756879
 21
-720.542898939906
 31
0.0
 11
3352.993864609876
 21
-720.5525072451778
 31
0.0
 11
3352.784829778435
 21
-720.5619211955449
 31
0.0
 11
3352.642279485103
 21
-720.5682149851183
 31
0.0
 11
3352.522290192961
 21
-720.5734366014108
 31
0.0
 11
3352.42844525917
 21
-720.5774749641362
 31
0.0
 11
3352.364328040882
 21
-720.5802189930079
 31
0.0
 11
3351.941943125978
 21
-720.5984330044245
 31
0.0
 11
3351.523100635988
 21
-720.616710376246
 31
0.0
 11
3350.678347582856
 21
-720.6542151370639
 31
0.0
 11
3349.850525827274
 21
-720.6917731633349
 31
0.0
 11
3349.624925534371
 21
-720.7021416015591
 31
0.0
 11
3349.425072226167
 21
-720.7113728090272
 31
0.0
 11
3349.254829169732
 21
-720.7192701590134
 31
0.0
 11
3349.118059632136
 21
-720.725637024791
 31
0.0
 11
3349.018626880452
 21
-720.730276779634
 31
0.0
 11
3348.766557134086
 21
-720.7420317097367
 31
0.0
 11
3348.54190529282
 21
-720.7524848835128
 31
0.0
 11
3348.347836747998
 21
-720.761497652567
 31
0.0
 11
3348.187516890965
 21
-720.768931368504
 31
0.0
 11
3347.935211929877
 21
-720.7806104463906
 31
0.0
 11
3347.723273409613
 21
-720.7904013303236
 31
0.0
 11
3347.554260086509
 21
-720.79819495739
 31
0.0
 11
3347.430730716897
 21
-720.8038822646784
 31
0.0
 11
3347.355244057109
 21
-720.807354189276
 31
0.0
 11
3346.937174773131
 21
-720.8265721841263
 31
0.0
 11
3346.522213623795
 21
-720.845625974253
 31
0.0
 11
3344.851350539512
 21
-720.9221323787459
 31
0.0
 11
3343.186580977529
 21
-720.9980185042429
 31
0.0
 11
3339.837717107474
 21
-721.1496441636946
 31
0.0
 11
3336.498681243194
 21
-721.2994653818179
 31
0.0
 11
3329.758314318278
 21
-721.5978010245353
 31
0.0
 11
3323.058221522412
 21
-721.8889714645699
 31
0.0
 11
3319.702863716064
 21
-722.0327905686595
 31
0.0
 11
3316.306733749776
 21
-722.177010572197
 31
0.0
 11
3315.463665420995
 21
-722.2126032809952
 31
0.0
 11
3314.615696427503
 21
-722.248319259522
 31
0.0
 11
3314.479731890422
 21
-722.2540397120777
 31
0.0
 11
3314.304945616734
 21
-722.2613863415335
 31
0.0
 11
3314.093429415821
 21
-722.270259302919
 31
0.0
 11
3313.847275097067
 21
-722.2805587512635
 31
0.0
 11
3313.568574469853
 21
-722.2921848415967
 31
0.0
 11
3313.259419343563
 21
-722.3050377289478
 31
0.0
 11
3312.921901527579
 21
-722.3190175683459
 31
0.0
 11
3312.711184698951
 21
-722.3277177820146
 31
0.0
 11
3312.497646670558
 21
-722.33651289601
 31
0.0
 11
3312.285399065257
 21
-722.3452334634085
 31
0.0
 11
3312.073090405
 21
-722.3539402994019
 31
0.0
 11
3311.648294604901
 21
-722.3713271264274
 31
0.0
 11
3311.223427478815
 21
-722.38867108183
 31
0.0
 11
3311.011450472779
 21
-722.3973073008985
 31
0.0
 11
3310.798338792132
 21
-722.4059782556229
 31
0.0
 11
3310.585730927495
 21
-722.4146174054182
 31
0.0
 11
3310.373077581915
 21
-722.423246211251
 31
0.0
 11
3309.945800235585
 21
-722.440541410571
 31
0.0
 11
3309.521927349181
 21
-722.45764146577
 31
0.0
 11
3306.107829589927
 21
-722.5933026590736
 31
0.0
 11
3302.682104865369
 21
-722.725752989451
 31
0.0
 11
3300.963965581176
 21
-722.7908105287293
 31
0.0
 11
3299.242549750671
 21
-722.8550802762569
 31
0.0
 11
3298.917983741358
 21
-722.8670959242904
 31
0.0
 11
3298.612568601035
 21
-722.8783738137114
 31
0.0
 11
3298.330457597224
 21
-722.8887675620985
 31
0.0
 11
3298.075803997446
 21
-722.8981307870307
 31
0.0
 11
3297.852761069224
 21
-722.9063171060861
 31
0.0
 11
3297.665482080082
 21
-722.913180136844
 31
0.0
 11
3297.51812029754
 21
-722.9185734968829
 31
0.0
 11
3296.659100870591
 21
-722.9498947666956
 31
0.0
 11
3295.790834106134
 21
-722.9813474609499
 31
0.0
 11
3294.925781038507
 21
-723.0124785627851
 31
0.0
 11
3294.060750981062
 21
-723.043404525864
 31
0.0
 11
3293.696170405569
 21
-723.0563769237998
 31
0.0
 11
3293.283813166097
 21
-723.0710034330142
 31
0.0
 11
3292.826693473634
 21
-723.0871606821108
 31
0.0
 11
3292.327825539165
 21
-723.1047252996929
 31
0.0
 11
3290.590734630161
 21
-723.1653315471575
 31
0.0
 11
3288.853330186247
 21
-723.225088104961
 31
0.0
 11
3287.848231192933
 21
-723.2592674737884
 31
0.0
 11
3286.877698936501
 21
-723.2920039342874
 31
0.0
 11
3285.943318949388
 21
-723.3232739474317
 31
0.0
 11
3285.046676764027
 21
-723.3530539741951
 31
0.0
 11
3284.189357912852
 21
-723.3813204755509
 31
0.0
 11
3283.372947928301
 21
-723.408049912473
 31
0.0
 11
3282.599032342807
 21
-723.4332187459352
 31
0.0
 11
3281.869196688804
 21
-723.456803436911
 31
0.0
 11
3274.837587948256
 21
-723.6765984634393
 31
0.0
 11
3267.767284143163
 21
-723.8841872470849
 31
0.0
 11
3260.657837348674
 21
-724.0795820322353
 31
0.0
 11
3253.512970712095
 21
-724.2626756670866
 31
0.0
 11
3246.334445965535
 21
-724.4334204445344
 31
0.0
 11
3239.124024841104
 21
-724.5917686574741
 31
0.0
 11
3237.45927983606
 21
-724.6264720285654
 31
0.0
 11
3235.75159139366
 21
-724.661351211679
 31
0.0
 11
3234.001507432952
 21
-724.6963423488432
 31
0.0
 11
3232.209575872987
 21
-724.7313815820874
 31
0.0
 11
3230.376344632814
 21
-724.7664050534396
 31
0.0
 11
3228.502361631483
 21
-724.8013489049295
 31
0.0
 11
3226.588174788044
 21
-724.8361492785851
 31
0.0
 11
3224.634332021547
 21
-724.8707423164359
 31
0.0
 11
3217.344930461442
 21
-724.9915667291378
 31
0.0
 11
3210.03561499569
 21
-725.099767572599
 31
0.0
 11
3198.302389956492
 21
-725.2465946060066
 31
0.0
 11
3186.528967501768
 21
-725.3609671183794
 31
0.0
 11
3174.722675158967
 21
-725.4427895897846
 31
0.0
 11
3162.890840455539
 21
-725.4919665002888
 31
0.0
 11
3151.040790918931
 21
-725.508402329959
 31
0.0
  0
SPLINE
  5
12C
330
1F
100
AcDbEntity
  8
0
  6
Continuous
 62
     7
100
AcDbSpline
210
0.0
220
0.0
230
1.0
 70
     8
 71
     3
 72
    51
 73
    47
 74
    45
 42
0.0000000001
 43
0.0000000001
 44
0.00000001
 40
0.0
 40
0.0
 40
0.0
 40
0.0
 40
26.4040789641293
 40
54.6623670496529
 40
68.28024009894311
 40
81.98173957220718
 40
88.81823017417054
 40
95.63836533790595
 40
97.3466285619945
 40
99.05292008640559
 40
100.6289414310224
 40
102.4677938525182
 40
105.8873003955666
 40
109.2985033786762
 40
136.7874540583611
 40
163.9878333421071
 40
177.6602302085759
 40
191.3374716127746
 40
194.7524770993823
 40
198.1696072392406
 40
201.2573818609183
 40
204.9991994347536
 40
211.8247244738633
 40
218.6579626457371
 40
245.9929525845828
 40
273.2985540997527
 40
286.9844371196751
 40
300.6160176512161
 40
302.1507807888593
 40
304.0307857784028
 40
305.7386463469936
 40
307.4454852435135
 40
310.8620316394308
 40
314.2747525358935
 40
321.1107947381298
 40
327.9335644347461
 40
355.3150199677203
 40
382.5808570039372
 40
389.4126133540808
 40
396.2424831158989
 40
397.949998961817
 40
399.6574764699663
 40
401.066903899943
 40
403.0722821136756
 40
405.0850863411521
 40
407.0978905686287
 40
407.0978905686287
 40
407.0978905686287
 40
407.0978905686287
 10
156.3067053482041
 20
-1157.659016166784
 30
0.0
 10
156.4945860716106
 20
-1148.859722355413
 30
0.0
 10
156.8835413189552
 20
-1130.643210098032
 30
0.0
 10
157.4934848344185
 20
-1107.890207990251
 30
0.0
 10
158.3255693683824
 20
-1089.382460407196
 30
0.0
 10
159.0036982845591
 20
-1078.016797222712
 30
0.0
 10
159.6746699514697
 20
-1068.922009259869
 30
0.0
 10
160.1044898025292
 20
-1063.818326974259
 30
0.0
 10
160.4152574074384
 20
-1060.420944670559
 30
0.0
 10
160.5716914043648
 20
-1058.764788205488
 30
0.0
 10
160.7371905731917
 20
-1057.065772267249
 30
0.0
 10
160.9650022236631
 20
-1054.799061728094
 30
0.0
 10
161.2674801223272
 20
-1051.925056892052
 30
0.0
 10
162.5336255016326
 20
-1040.555455421378
 30
0.0
 10
165.2012743014685
 20
-1021.365023149224
 30
0.0
 10
169.326960523994
 20
-998.9479573567749
 30
0.0
 10
173.123684502323
 20
-981.1646532293314
 30
0.0
 10
175.437239266447
 20
-971.1735967699069
 30
0.0
 10
177.0434964251602
 20
-964.5285130461205
 30
0.0
 10
177.8323687382756
 20
-961.3173466897333
 30
0.0
 10
178.6586414718157
 20
-958.0032170103545
 30
0.0
 10
179.7750437105621
 20
-953.5905349545443
 30
0.0
 10
181.2252924895945
 20
-947.9745382536158
 30
0.0
 10
184.7129613467448
 20
-934.7624593575687
 30
0.0
 10
190.1602426714836
 20
-915.0080590137758
 30
0.0
 10
196.2644619317478
 20
-893.0657583117666
 30
0.0
 10
200.9723569365052
 20
-875.4770199003005
 30
0.0
 10
203.3613383298017
 20
-866.1607376492748
 30
0.0
 10
204.7280293884721
 20
-860.6454302370297
 30
0.0
 10
205.1356576634398
 20
-858.9872545972516
 30
0.0
 10
205.5537071434835
 20
-857.2725781782688
 30
0.0
 10
206.0891130527199
 20
-855.0593345822454
 30
0.0
 10
206.7508263900205
 20
-852.2919719922971
 30
0.0
 10
207.7950389795605
 20
-847.8581646243543
 30
0.0
 10
209.072135794965
 20
-842.3127670567342
 30
0.0
 10
212.0607079442246
 20
-828.9630435116319
 30
0.0
 10
216.2541651372894
 20
-808.9052455979765
 30
0.0
 10
220.156243292599
 20
-788.7869050511946
 30
0.0
 10
222.7027925873115
 20
-775.3842031574407
 30
0.0
 10
223.6540882216505
 20
-770.3502519260797
 30
0.0
 10
224.2872491198428
 20
-766.9945075762691
 30
0.0
 10
224.5852842660786
 20
-765.4142258964345
 30
0.0
 10
224.901646441352
 20
-763.7363628579279
 30
0.0
 10
225.2368372043082
 20
-761.9584810560302
 30
0.0
 10
225.6092975266853
 20
-759.9829569353326
 30
0.0
 10
225.8579089712758
 20
-758.6643189772713
 30
0.0
 10
225.982214693571
 20
-758.0049999982404
 30
0.0
 11
156.3067053482041
 21
-1157.659016166784
 31
0.0
 11
156.8935263675378
 21
-1131.261458949586
 31
0.0
 11
157.7394164827281
 21
-1103.015834236412
 31
0.0
 11
158.3574594642153
 21
-1089.411993261907
 31
0.0
 11
159.182696927619
 21
-1075.735368278204
 31
0.0
 11
159.6868735621158
 21
-1068.917494000105
 31
0.0
 11
160.260525203159
 21
-1062.121527001484
 31
0.0
 11
160.4161562913995
 21
-1060.420367923929
 31
0.0
 11
160.5766359623119
 21
-1058.72163985814
 31
0.0
 11
160.7294360882576
 21
-1057.153043224139
 31
0.0
 11
160.913314867375
 21
-1055.32340751651
 31
0.0
 11
161.2711987539672
 21
-1051.922680517519
 31
0.0
 11
161.6487294128519
 21
-1048.532433270845
 31
0.0
 11
165.4139924107113
 21
-1021.302574585441
 31
0.0
 11
170.3108240486099
 21
-994.5466093984078
 31
0.0
 11
173.1616297894911
 21
-981.1747231177822
 31
0.0
 11
176.2430853342471
 21
-967.8491250391058
 31
0.0
 11
177.045388556296
 21
-964.5297015931667
 31
0.0
 11
177.860559483903
 21
-961.2112268303408
 31
0.0
 11
178.607463496128
 21
-958.2151483082057
 31
0.0
 11
179.5250325952379
 21
-954.587578087766
 31
0.0
 11
181.2305613257531
 21
-947.9785718229103
 31
0.0
 11
182.973540676194
 21
-941.3713661429357
 31
0.0
 11
190.1727968838474
 21
-915.0014517514675
 31
0.0
 11
197.42393434057
 21
-888.6762379880627
 31
0.0
 11
200.9538059691558
 21
-875.4534016690006
 31
0.0
 11
204.3307929212119
 21
-862.2467386948224
 31
0.0
 11
204.6999350809796
 21
-860.7570300137204
 31
0.0
 11
205.1487472028171
 21
-858.9313831584934
 31
0.0
 11
205.5532922777112
 21
-857.2721269986055
 31
0.0
 11
205.9546258371499
 21
-855.6131422510139
 31
0.0
 11
206.74923260901
 21
-852.2902836392807
 31
0.0
 11
207.5316276829419
 21
-848.9684585587805
 31
0.0
 11
209.066326798143
 21
-842.3069143221521
 31
0.0
 11
210.557352789431
 21
-835.6490597257848
 31
0.0
 11
216.1968914785167
 21
-808.8546627279319
 31
0.0
 11
221.4259633845229
 21
-782.094941573044
 31
0.0
 11
222.7018011304112
 21
-775.3833744778051
 31
0.0
 11
223.970631871988
 21
-768.6723991751663
 31
0.0
 11
224.2872289413664
 21
-766.9944907570093
 31
0.0
 11
224.6036832336399
 21
-765.3165944188115
 31
0.0
 11
224.8648362546894
 21
-763.931572837764
 31
0.0
 11
225.2363797699111
 21
-761.9609137611071
 31
0.0
 11
225.6092972317548
 21
-759.9829568796764
 31
0.0
 11
225.982214693571
 21
-758.0049999982404
 31
0.0
  0
SPLINE
  5
12D
330
1F
100
AcDbEntity
  8
0
  6
Continuous
 62
     7
100
AcDbSpline
210
0.0
220
0.0
230
1.0
 70
     8
 71
     3
 72
    19
 73
    15
 74
    13
 42
0.0000000001
 43
0.0000000001
 44
0.00000001
 40
0.0
 40
0.0
 40
0.0
 40
0.0
 40
2.274401850954149
 40
4.561441957953958
 40
7.376596456231324
 40
10.1128649861497
 40
15.6419273296831
 40
21.21577175116393
 40
26.72186919210549
 40
32.31864205667135
 40
35.07949731064149
 40
37.87004808020431
 40
40.92806618380733
 40
43.42145321850823
 40
43.42145321850823
 40
43.42145321850823
 40
43.42145321850823
 10
154.9466036812739
 20
-1201.058952593189
 30
0.0
 10
154.9727283644212
 20
-1200.30126889425
 30
0.0
 10
155.0251228987452
 20
-1198.781691246287
 30
0.0
 10
155.1098901137572
 20
-1196.324287333332
 30
0.0
 10
155.2000205894502
 20
-1193.713021293439
 30
0.0
 10
155.3271018821069
 20
-1190.021713054631
 30
0.0
 10
155.4843292102904
 20
-1185.411334480877
 30
0.0
 10
155.667930113801
 20
-1179.878043710309
 30
0.0
 10
155.8446797737427
 20
-1174.321947322537
 30
0.0
 10
155.9834719632303
 20
-1169.7027869098
 30
0.0
 10
156.0892649806321
 20
-1165.988232802457
 30
0.0
 10
156.1677191048755
 20
-1163.119496869985
 30
0.0
 10
156.2405614182717
 20
-1160.339797950434
 30
0.0
 10
156.2862048288904
 20
-1158.489892390616
 30
0.0
 10
156.3067053482041
 20
-1157.659016166784
 30
0.0
 11
154.9466036812739
 21
-1201.058952593189
 31
0.0
 11
155.0249833725009
 21
-1198.785901691069
 31
0.0
 11
155.1038286498119
 21
-1196.500221076182
 31
0.0
 11
155.2008854598157
 21
-1193.686740167272
 31
0.0
 11
155.294973792872
 21
-1190.952089759376
 31
0.0
 11
155.4829758847378
 21
-1185.426224613344
 31
0.0
 11
155.6674012170799
 21
-1179.855432126483
 31
0.0
 11
155.8421147689357
 21
-1174.352107294716
 31
0.0
 11
156.0099084231281
 21
-1168.757850258509
 31
0.0
 11
156.0884653680739
 21
-1165.998112854375
 31
0.0
 11
156.164775103643
 21
-1163.208605653853
 31
0.0
 11
156.2446325484269
 21
-1160.151630431435
 31
0.0
 11
156.3067053482041
 21
-1157.659016166784
 31
0.0
  0
SPLINE
  5
12E
330
1F
100
AcDbEntity
  8
0
  6
Continuous
 62
     7
100
AcDbSpline
210
0.0
220
0.0
230
1.0
 70
     8
 71
     3
 72
    19
 73
    15
 74
    13
 42
0.0000000001
 43
0.0000000001
 44
0.00000001
 40
0.0
 40
0.0
 40
0.0
 40
0.0
 40
2.274401850953922
 40
4.561441957954868
 40
7.376596456231551
 40
10.11286498615015
 40
15.64192732968401
 40
21.21577175116438
 40
26.72186919210594
 40
32.31864205667226
 40
35.07949731064195
 40
37.87004808020477
 40
40.92806618380824
 40
43.42145321850891
 40
43.42145321850891
 40
43.42145321850891
 40
43.42145321850891
 10
154.9466036812739
 20
-4201.058952593189
 30
0.0
 10
154.9727283644212
 20
-4200.301268894251
 30
0.0
 10
155.0251228987452
 20
-4198.781691246287
 30
0.0
 10
155.1098901137572
 20
-4196.324287333333
 30
0.0
 10
155.2000205894502
 20
-4193.713021293439
 30
0.0
 10
155.3271018821069
 20
-4190.021713054631
 30
0.0
 10
155.4843292102904
 20
-4185.411334480877
 30
0.0
 10
155.667930113801
 20
-4179.878043710309
 30
0.0
 10
155.8446797737427
 20
-4174.321947322537
 30
0.0
 10
155.9834719632303
 20
-4169.702786909798
 30
0.0
 10
156.0892649806321
 20
-4165.988232802458
 30
0.0
 10
156.1677191048755
 20
-4163.119496869984
 30
0.0
 10
156.2405614182718
 20
-4160.339797950433
 30
0.0
 10
156.2862048288904
 20
-4158.489892390615
 30
0.0
 10
156.3067053482041
 20
-4157.659016166784
 30
0.0
 11
154.9466036812739
 21
-4201.058952593189
 31
0.0
 11
155.0249833725009
 21
-4198.78590169107
 31
0.0
 11
155.1038286498119
 21
-4196.500221076181
 31
0.0
 11
155.2008854598157
 21
-4193.686740167272
 31
0.0
 11
155.294973792872
 21
-4190.952089759376
 31
0.0
 11
155.4829758847378
 21
-4185.426224613343
 31
0.0
 11
155.6674012170799
 21
-4179.855432126483
 31
0.0
 11
155.8421147689357
 21
-4174.352107294716
 31
0.0
 11
156.0099084231281
 21
-4168.757850258508
 31
0.0
 11
156.0884653680739
 21
-4165.998112854375
 31
0.0
 11
156.164775103643
 21
-4163.208605653853
 31
0.0
 11
156.2446325484269
 21
-4160.151630431435
 31
0.0
 11
156.3067053482041
 21
-4157.659016166784
 31
0.0
  0
SPLINE
  5
12F
330
1F
100
AcDbEntity
  8
0
  6
Continuous
 62
     7
100
AcDbSpline
210
0.0
220
0.0
230
1.0
 70
     8
 71
     3
 72
    51
 73
    47
 74
    45
 42
0.0000000001
 43
0.0000000001
 44
0.00000001
 40
0.0
 40
0.0
 40
0.0
 40
0.0
 40
26.40407896412885
 40
54.66236704965335
 40
68.28024009894288
 40
81.98173957220763
 40
88.81823017417054
 40
95.6383653379055
 40
97.34662856199495
 40
99.05292008640514
 40
100.6289414310218
 40
102.4677938525177
 40
105.8873003955668
 40
109.2985033786767
 40
136.7874540583615
 40
163.9878333421067
 40
177.6602302085757
 40
191.3374716127752
 40
194.752477099383
 40
198.1696072392402
 40
201.2573818609175
 40
204.9991994347533
 40
211.8247244738637
 40
218.6579626457363
 40
245.9929525845825
 40
273.2985540997529
 40
286.9844371196745
 40
300.6160176512161
 40
302.1507807888598
 40
304.0307857784027
 40
305.7386463469932
 40
307.445485243514
 40
310.8620316394307
 40
314.2747525358934
 40
321.1107947381301
 40
327.9335644347466
 40
355.3150199677203
 40
382.5808570039371
 40
389.4126133540806
 40
396.2424831158989
 40
397.9499989618166
 40
399.6574764699666
 40
401.0669038999429
 40
403.0722821136754
 40
405.0850863411522
 40
407.0978905686288
 40
407.0978905686288
 40
407.0978905686288
 40
407.0978905686288
 10
156.3067053482041
 20
-4157.659016166784
 30
0.0
 10
156.4945860716106
 20
-4148.859722355413
 30
0.0
 10
156.8835413189553
 20
-4130.643210098033
 30
0.0
 10
157.4934848344184
 20
-4107.89020799025
 30
0.0
 10
158.3255693683826
 20
-4089.382460407196
 30
0.0
 10
159.0036982845591
 20
-4078.016797222712
 30
0.0
 10
159.6746699514696
 20
-4068.922009259868
 30
0.0
 10
160.1044898025294
 20
-4063.818326974259
 30
0.0
 10
160.4152574074383
 20
-4060.420944670559
 30
0.0
 10
160.5716914043648
 20
-4058.764788205488
 30
0.0
 10
160.7371905731917
 20
-4057.065772267249
 30
0.0
 10
160.9650022236631
 20
-4054.799061728094
 30
0.0
 10
161.2674801223271
 20
-4051.92505689205
 30
0.0
 10
162.5336255016326
 20
-4040.555455421383
 30
0.0
 10
165.2012743014683
 20
-4021.36502314922
 30
0.0
 10
169.3269605239942
 20
-3998.947957356776
 30
0.0
 10
173.123684502323
 20
-3981.164653229329
 30
0.0
 10
175.4372392664471
 20
-3971.173596769907
 30
0.0
 10
177.04349642516
 20
-3964.52851304612
 30
0.0
 10
177.8323687382757
 20
-3961.317346689732
 30
0.0
 10
178.6586414718158
 20
-3958.003217010356
 30
0.0
 10
179.775043710562
 20
-3953.590534954543
 30
0.0
 10
181.2252924895942
 20
-3947.974538253616
 30
0.0
 10
184.7129613467455
 20
-3934.762459357569
 30
0.0
 10
190.1602426714834
 20
-3915.008059013775
 30
0.0
 10
196.2644619317477
 20
-3893.065758311768
 30
0.0
 10
200.9723569365052
 20
-3875.477019900298
 30
0.0
 10
203.3613383298023
 20
-3866.160737649278
 30
0.0
 10
204.728029388472
 20
-3860.645430237029
 30
0.0
 10
205.1356576634398
 20
-3858.987254597251
 30
0.0
 10
205.5537071434837
 20
-3857.272578178269
 30
0.0
 10
206.0891130527196
 20
-3855.059334582245
 30
0.0
 10
206.7508263900207
 20
-3852.291971992297
 30
0.0
 10
207.7950389795604
 20
-3847.858164624354
 30
0.0
 10
209.072135794965
 20
-3842.312767056733
 30
0.0
 10
212.0607079442244
 20
-3828.963043511632
 30
0.0
 10
216.2541651372896
 20
-3808.905245597976
 30
0.0
 10
220.1562432925989
 20
-3788.786905051194
 30
0.0
 10
222.7027925873116
 20
-3775.384203157441
 30
0.0
 10
223.6540882216502
 20
-3770.350251926078
 30
0.0
 10
224.287249119843
 20
-3766.994507576269
 30
0.0
 10
224.5852842660784
 20
-3765.414225896433
 30
0.0
 10
224.9016464413521
 20
-3763.736362857929
 30
0.0
 10
225.2368372043083
 20
-3761.95848105603
 30
0.0
 10
225.6092975266853
 20
-3759.982956935332
 30
0.0
 10
225.8579089712758
 20
-3758.664318977271
 30
0.0
 10
225.982214693571
 20
-3758.00499999824
 30
0.0
 11
156.3067053482041
 21
-4157.659016166784
 31
0.0
 11
156.8935263675378
 21
-4131.261458949586
 31
0.0
 11
157.7394164827281
 21
-4103.015834236411
 31
0.0
 11
158.3574594642153
 21
-4089.411993261907
 31
0.0
 11
159.182696927619
 21
-4075.735368278203
 31
0.0
 11
159.6868735621158
 21
-4068.917494000105
 31
0.0
 11
160.260525203159
 21
-4062.121527001484
 31
0.0
 11
160.4161562913995
 21
-4060.420367923929
 31
0.0
 11
160.5766359623119
 21
-4058.72163985814
 31
0.0
 11
160.7294360882576
 21
-4057.153043224139
 31
0.0
 11
160.913314867375
 21
-4055.32340751651
 31
0.0
 11
161.2711987539672
 21
-4051.922680517518
 31
0.0
 11
161.6487294128519
 21
-4048.532433270844
 31
0.0
 11
165.4139924107113
 21
-4021.30257458544
 31
0.0
 11
170.3108240486099
 21
-3994.546609398408
 31
0.0
 11
173.1616297894911
 21
-3981.174723117782
 31
0.0
 11
176.2430853342471
 21
-3967.849125039105
 31
0.0
 11
177.045388556296
 21
-3964.529701593166
 31
0.0
 11
177.860559483903
 21
-3961.211226830341
 31
0.0
 11
178.607463496128
 21
-3958.215148308206
 31
0.0
 11
179.5250325952379
 21
-3954.587578087766
 31
0.0
 11
181.2305613257531
 21
-3947.97857182291
 31
0.0
 11
182.973540676194
 21
-3941.371366142936
 31
0.0
 11
190.1727968838474
 21
-3915.001451751467
 31
0.0
 11
197.42393434057
 21
-3888.676237988062
 31
0.0
 11
200.9538059691558
 21
-3875.453401669001
 31
0.0
 11
204.3307929212119
 21
-3862.246738694822
 31
0.0
 11
204.6999350809796
 21
-3860.757030013719
 31
0.0
 11
205.1487472028171
 21
-3858.931383158493
 31
0.0
 11
205.5532922777112
 21
-3857.272126998605
 31
0.0
 11
205.9546258371499
 21
-3855.613142251013
 31
0.0
 11
206.74923260901
 21
-3852.29028363928
 31
0.0
 11
207.5316276829419
 21
-3848.96845855878
 31
0.0
 11
209.066326798143
 21
-3842.306914322151
 31
0.0
 11
210.557352789431
 21
-3835.649059725784
 31
0.0
 11
216.1968914785167
 21
-3808.854662727932
 31
0.0
 11
221.4259633845229
 21
-3782.094941573044
 31
0.0
 11
222.7018011304112
 21
-3775.383374477805
 31
0.0
 11
223.970631871988
 21
-3768.672399175166
 31
0.0
 11
224.2872289413664
 21
-3766.994490757009
 31
0.0
 11
224.6036832336399
 21
-3765.316594418811
 31
0.0
 11
224.8648362546894
 21
-3763.931572837764
 31
0.0
 11
225.2363797699111
 21
-3761.960913761107
 31
0.0
 11
225.6092972317548
 21
-3759.982956879676
 31
0.0
 11
225.982214693571
 21
-3758.00499999824
 31
0.0
  0
SPLINE
  5
130
330
1F
100
AcDbEntity
  8
0
  6
Continuous
 62
     7
100
AcDbSpline
210
0.0
220
0.0
230
1.0
 70
     8
 71
     3
 72
   174
 73
   170
 74
   168
 42
0.0000000001
 43
0.0000000001
 44
0.00000001
 40
0.0
 40
0.0
 40
0.0
 40
0.0
 40
0.0228258304271522
 40
0.0461306930047629
 40
0.1284228032141618
 40
0.2401473092085167
 40
0.3093659181911981
 40
0.3875340479448176
 40
0.4301625098884592
 40
0.4750653833506118
 40
0.5267062694771792
 40
0.572007972681824
 40
0.835767894137167
 40
1.120118633515752
 40
1.409246849650315
 40
1.68696109698663
 40
1.871304481487813
 40
2.053829082844524
 40
2.102374323022076
 40
2.150799513954728
 40
2.212809446839001
 40
2.249784531827679
 40
2.349815807502366
 40
2.453602143202175
 40
2.892753432896491
 40
3.3431949670554
 40
3.482124042392369
 40
3.644478723229403
 40
3.829233661625756
 40
3.966003056802711
 40
4.137402815483832
 40
4.341979042720832
 40
4.674818835343174
 40
5.043490780757947
 40
5.448437402005132
 40
6.404580653737519
 40
7.403631730692453
 40
8.438337115048025
 40
9.501427864464906
 40
10.58562601594668
 40
10.95122607353461
 40
11.35405117256211
 40
11.79157633167945
 40
12.2612792573229
 40
12.76064066883513
 40
13.28714466846522
 40
13.76454884173749
 40
14.20641343724295
 40
14.61133065918765
 40
15.0097521372081
 40
15.43721443125918
 40
15.88954529234128
 40
16.32752150532659
 40
16.72334744614149
 40
16.92256680088003
 40
17.12552320080427
 40
17.17522669745113
 40
17.22454553048828
 40
17.27342160768494
 40
17.32302073693578
 40
17.42185716687851
 40
17.52073653438802
 40
18.33089174691732
 40
19.14891287148474
 40
19.35740453477824
 40
19.56665123897465
 40
19.7093404043526
 40
19.82944325821242
 40
19.92337504182058
 40
19.98755095143986
 40
20.41032839472492
 40
20.82956948734496
 40
21.67515468580854
 40
22.50382800162833
 40
22.72966643208007
 40
22.92973282104054
 40
23.10015895284298
 40
23.23707660471391
 40
23.33661754821244
 40
23.58896123332214
 40
23.81385613905879
 40
24.00813385289964
 40
24.16862596077931
 40
24.42120108673192
 40
24.63336564027403
 40
24.80255855977581
 40
24.92621878224488
 40
25.00178524349793
 40
25.42029600504621
 40
25.83569437092731
 40
27.5083080969104
 40
29.17480634129842
 40
32.52710101223175
 40
35.86949639583695
 40
42.6164624131081
 40
49.32287901949087
 40
52.68131763636687
 40
56.08050844556526
 40
56.92432776740695
 40
57.7730485960933
 40
57.90913341861601
 40
58.0840740212046
 40
58.29577624767489
 40
58.5421459440207
 40
58.82108895896425
 40
59.13051114437511
 40
59.46831835569026
 40
59.67921471787958
 40
59.89293379424006
 40
60.10536047394798
 40
60.31784759405902
 40
60.74299906534376
 40
61.16822005214679
 40
61.38037291064244
 40
61.59366091753433
 40
61.80644423223427
 40
62.01927257075286
 40
62.4468998086677
 40
62.87111748358912
 40
66.28790946864078
 40
69.71619373025963
 40
71.43556427883384
 40
73.1581794598771
 40
73.48296780664933
 40
73.78859110211009
 40
74.07089350818718
 40
74.32571918558418
 40
74.54891229401134
 40
74.73631699236624
 40
74.88377743888124
 40
75.74336768883634
 40
76.61220394857541
 40
77.47781700029729
 40
78.34339970314923
 40
78.70821099564824
 40
79.1208275582299
 40
79.57823270679722
 40
80.07740976139043
 40
81.81555760992822
 40
83.55398938826526
 40
84.5596693650048
 40
85.53075357176539
 40
86.4656566544645
 40
87.36279324304122
 40
88.22057795243991
 40
89.03742538352671
 40
89.81175012396108
 40
90.54196674901286
 40
97.57700984297082
 40
104.6503604633911
 40
111.7624918489699
 40
118.9097040700826
 40
126.090259154197
 40
133.3024188132853
 40
134.967525493286
 40
136.6755700985947
 40
138.4260038303329
 40
140.2182779342203
 40
142.0518437016501
 40
143.9261524707793
 40
145.8406556276326
 40
147.7948046072297
 40
155.0852074522834
 40
162.395323730456
 40
174.1294674145178
 40
185.9034453900783
 40
197.7100212611977
 40
209.5419581617135
 40
221.3920190964323
 40
221.3920190964323
 40
221.3920190964323
 40
221.3920190964323
 10
3372.179533796179
 20
-3721.368551400185
 30
0.0
 10
3372.179006719385
 20
-3721.360931519028
 30
0.0
 10
3372.177941504351
 20
-3721.345531842794
 30
0.0
 10
3372.163632504086
 20
-3721.304707070645
 30
0.0
 10
3372.115382466007
 20
-3721.247756658613
 30
0.0
 10
3372.041973549234
 20
-3721.199060891779
 30
0.0
 10
3371.965454462759
 20
-3721.158902032682
 30
0.0
 10
3371.907552738348
 20
-3721.133127056674
 30
0.0
 10
3371.856325579019
 20
-3721.112470642531
 30
0.0
 10
3371.812916222736
 20
-3721.096096319597
 30
0.0
 10
3371.768332756825
 20
-3721.080342010245
 30
0.0
 10
3371.654258037114
 20
-3721.042337224381
 30
0.0
 10
3371.463629397723
 20
-3720.98893632803
 30
0.0
 10
3371.191577647892
 20
-3720.926486874543
 30
0.0
 10
3370.913074072391
 20
-3720.872061610992
 30
0.0
 10
3370.666273189484
 20
-3720.829700850823
 30
0.0
 10
3370.45400188503
 20
-3720.7964205733
 30
0.0
 10
3370.316992871142
 20
-3720.776335863472
 30
0.0
 10
3370.224740305132
 20
-3720.763328663703
 30
0.0
 10
3370.172249384311
 20
-3720.756047546877
 30
0.0
 10
3370.123562305756
 20
-3720.749414818866
 30
0.0
 10
3370.057813532436
 20
-3720.740586905809
 30
0.0
 10
3369.978234731658
 20
-3720.730117961387
 30
0.0
 10
3369.765638710955
 20
-3720.702962659771
 30
0.0
 10
3369.436786926047
 20
-3720.664113280862
 30
0.0
 10
3369.095825186095
 20
-3720.62819415936
 30
0.0
 10
3368.84645091572
 20
-3720.603689841252
 30
0.0
 10
3368.685160885661
 20
-3720.588398373614
 30
0.0
 10
3368.524532248381
 20
-3720.573769370422
 30
0.0
 10
3368.360852520646
 20
-3720.559411673777
 30
0.0
 10
3368.19054302411
 20
-3720.545031787905
 30
0.0
 10
3367.955037109899
 20
-3720.526014825232
 30
0.0
 10
3367.653870020166
 20
-3720.503185173356
 30
0.0
 10
3367.285945130198
 20
-3720.477480994949
 30
0.0
 10
3366.710526910485
 20
-3720.44073586097
 30
0.0
 10
3365.924943268486
 20
-3720.398159224368
 30
0.0
 10
3364.929186784507
 20
-3720.35589652086
 30
0.0
 10
3363.897403232482
 20
-3720.323205663778
 30
0.0
 10
3362.836969621415
 20
-3720.300288279168
 30
0.0
 10
3361.999385750517
 20
-3720.290265582934
 30
0.0
 10
3361.381854056769
 20
-3720.286747515398
 30
0.0
 10
3360.979870880949
 20
-3720.285788778805
 30
0.0
 10
3360.543185810423
 20
-3720.286322158744
 30
0.0
 10
3360.074327496267
 20
-3720.288721296093
 30
0.0
 10
3359.575824746396
 20
-3720.2933598529
 30
0.0
 10
3359.074780717667
 20
-3720.300272318265
 30
0.0
 10
3358.592935479908
 20
-3720.309080400309
 30
0.0
 10
3358.151650507535
 20
-3720.319005711036
 30
0.0
 10
3357.736727230801
 20
-3720.329995756997
 30
0.0
 10
3357.326648642043
 20
-3720.34246278375
 30
0.0
 10
3356.900830216586
 20
-3720.357186987243
 30
0.0
 10
3356.461909749177
 20
-3720.374410111276
 30
0.0
 10
3356.033615795001
 20
-3720.393356353738
 30
0.0
 10
3355.689690331335
 20
-3720.410288321918
 30
0.0
 10
3355.424063046747
 20
-3720.424380022918
 30
0.0
 10
3355.273669778256
 20
-3720.432761605504
 30
0.0
 10
3355.173176160892
 20
-3720.438539475414
 30
0.0
 10
3355.123959879448
 20
-3720.441402309687
 30
0.0
 10
3355.074780590314
 20
-3720.44430170499
 30
0.0
 10
3355.009125488869
 20
-3720.448196876821
 30
0.0
 10
3354.926828068791
 20
-3720.45301473888
 30
0.0
 10
3354.591431509821
 20
-3720.472412057712
 30
0.0
 10
3354.016589993756
 20
-3720.503637611159
 30
0.0
 10
3353.405097316424
 20
-3720.533577391567
 30
0.0
 10
3352.993614933577
 20
-3720.552556817294
 30
0.0
 10
3352.806994788733
 20
-3720.560959621362
 30
0.0
 10
3352.649801643023
 20
-3720.56789920307
 30
0.0
 10
3352.531006122413
 20
-3720.57306861234
 30
0.0
 10
3352.438354936566
 20
-3720.577053755236
 30
0.0
 10
3352.244903180891
 20
-3720.585322213241
 30
0.0
 10
3351.943119402912
 20
-3720.598349750986
 30
0.0
 10
3351.381119408387
 20
-3720.622868599448
 30
0.0
 10
3350.683973153964
 20
-3720.653827620018
 30
0.0
 10
3350.051258459992
 20
-3720.682537986985
 30
0.0
 10
3349.63350673567
 20
-3720.70173806171
 30
0.0
 10
3349.434941456559
 20
-3720.710909752177
 30
0.0
 10
3349.265986431531
 20
-3720.718747562648
 30
0.0
 10
3349.130504891697
 20
-3720.725054119291
 30
0.0
 10
3348.967748066034
 20
-3720.732652444627
 30
0.0
 10
3348.775697031704
 20
-3720.741610582775
 30
0.0
 10
3348.552100154754
 20
-3720.752013994603
 30
0.0
 10
3348.35908661452
 20
-3720.7609778511
 30
0.0
 10
3348.156855565231
 20
-3720.770354596777
 30
0.0
 10
3347.948667906807
 20
-3720.779991788228
 30
0.0
 10
3347.73758217868
 20
-3720.789743594566
 30
0.0
 10
3347.569421650208
 20
-3720.797498186706
 30
0.0
 10
3347.446745068479
 20
-3720.803146302531
 30
0.0
 10
3347.241049982641
 20
-3720.812605784988
 30
0.0
 10
3346.938211332356
 20
-3720.826528644629
 30
0.0
 10
3346.103583052928
 20
-3720.864851156726
 30
0.0
 10
3344.853389517327
 20
-3720.922096448908
 30
0.0
 10
3342.625234294132
 20
-3721.023663078928
 30
0.0
 10
3339.841023726611
 20
-3721.149722080459
 30
0.0
 10
3335.364975023282
 20
-3721.350558660401
 30
0.0
 10
3329.771857191894
 20
-3721.59810691513
 30
0.0
 10
3324.17319998684
 20
-3721.841402362616
 30
0.0
 10
3319.689301534419
 20
-3722.033592985144
 30
0.0
 10
3317.157766666011
 20
-3722.141093647278
 30
0.0
 10
3315.462033683541
 20
-3722.212687468059
 30
0.0
 10
3314.853031763443
 20
-3722.238333035752
 30
0.0
 10
3314.466791446985
 20
-3722.25458499103
 30
0.0
 10
3314.292702652631
 20
-3722.261903333634
 30
0.0
 10
3314.081883894269
 20
-3722.270747156178
 30
0.0
 10
3313.836427019566
 20
-3722.281017528348
 30
0.0
 10
3313.558423832972
 20
-3722.292614492549
 30
0.0
 10
3313.249966149779
 20
-3722.305438347479
 30
0.0
 10
3312.964169278376
 20
-3722.31727595111
 30
0.0
 10
3312.71024473807
 20
-3722.327760061458
 30
0.0
 10
3312.498077261727
 20
-3722.336498990057
 30
0.0
 10
3312.285379045023
 20
-3722.345236961351
 30
0.0
 10
3312.002261883039
 20
-3722.356846435761
 30
0.0
 10
3311.648271771012
 20
-3722.371335866943
 30
0.0
 10
3311.294391393887
 20
-3722.385781786846
 30
0.0
 10
3311.011072481766
 20
-3722.397324623227
 30
0.0
 10
3310.798506958882
 20
-3722.405973263275
 30
0.0
 10
3310.585716012778
 20
-3722.414620005885
 30
0.0
 10
3310.301536920938
 20
-3722.426151603489
 30
0.0
 10
3309.946936217714
 20
-3722.440505130161
 30
0.0
 10
3308.52521370998
 20
-3722.497860692649
 30
0.0
 10
3306.104025672856
 20
-3722.594062791763
 30
0.0
 10
3303.251340674463
 20
-3722.704351650939
 30
0.0
 10
3300.96289049692
 20
-3722.79100252099
 30
0.0
 10
3299.708173269876
 20
-3722.837848187348
 30
0.0
 10
3298.924367913753
 20
-3722.866864861736
 30
0.0
 10
3298.620337098489
 20
-3722.878091353963
 30
0.0
 10
3298.339610431665
 20
-3722.888434010034
 30
0.0
 10
3298.086341175379
 20
-3722.897746308959
 30
0.0
 10
3297.864682596465
 20
-3722.905881850807
 30
0.0
 10
3297.678787959068
 20
-3722.912694163935
 30
0.0
 10
3297.280902556809
 20
-3722.927256483417
 30
0.0
 10
3296.656022140901
 20
-3722.950040832622
 30
0.0
 10
3295.791909044663
 20
-3722.981342912832
 30
0.0
 10
3294.925792365168
 20
-3723.012512120339
 30
0.0
 10
3294.227569429323
 20
-3723.037474799463
 30
0.0
 10
3293.680245620908
 20
-3723.056949967224
 30
0.0
 10
3293.2688933075
 20
-3723.071540765305
 30
0.0
 10
3292.812778545745
 20
-3723.087662486274
 30
0.0
 10
3291.915091437796
 20
-3723.119269071737
 30
0.0
 10
3290.590645010687
 20
-3723.165478234706
 30
0.0
 10
3289.097441317836
 20
-3723.216834763222
 30
0.0
 10
3287.859758039285
 20
-3723.25892233939
 30
0.0
 10
3286.889753919133
 20
-3723.291640907056
 30
0.0
 10
3285.955902076929
 20
-3723.32289307312
 30
0.0
 10
3285.059788050571
 20
-3723.352655487489
 30
0.0
 10
3284.202997369005
 20
-3723.38090452523
 30
0.0
 10
3283.38711556494
 20
-3723.407616637707
 30
0.0
 10
3282.613728164478
 20
-3723.432768211592
 30
0.0
 10
3279.768685113698
 20
-3723.524705751384
 30
0.0
 10
3274.824891965875
 20
-3723.67921273868
 30
0.0
 10
3267.754425418514
 20
-3723.886769939202
 30
0.0
 10
3260.646206381384
 20
-3724.082097378307
 30
0.0
 10
3253.501913991201
 20
-3724.265145095541
 30
0.0
 10
3246.323963960229
 20
-3724.435847478191
 30
0.0
 10
3240.972643315866
 20
-3724.553348249603
 30
0.0
 10
3237.444972689863
 20
-3724.62688567165
 30
0.0
 10
3235.737467076036
 20
-3724.661760817578
 30
0.0
 10
3233.987565936798
 20
-3724.69674794461
 30
0.0
 10
3232.195817177802
 20
-3724.731783221347
 30
0.0
 10
3230.362768720532
 20
-3724.766802797293
 30
0.0
 10
3228.488968486946
 20
-3724.801742829603
 30
0.0
 10
3226.574964379831
 20
-3724.836539458433
 30
0.0
 10
3222.855862175663
 20
-3724.902385919646
 30
0.0
 10
3217.338393726927
 20
-3724.993823955284
 30
0.0
 10
3208.561130200996
 20
-3725.123739185271
 30
0.0
 10
3198.289173280321
 20
-3725.25219431131
 30
0.0
 10
3186.518147441561
 20
-3725.36662986146
 30
0.0
 10
3174.714251843674
 20
-3725.447907880874
 30
0.0
 10
3162.884814273007
 20
-3725.498908342902
 30
0.0
 10
3154.990812485842
 20
-3725.505236053391
 30
0.0
 10
3151.040790918931
 20
-3725.508402329959
 30
0.0
 11
3372.179533796179
 21
-3721.368551400185
 31
0.0
 11
3372.176954933848
 21
-3721.345871717564
 31
0.0
 11
3372.169636072571
 21
-3721.323745920644
 31
0.0
 11
3372.119932771904
 21
-3721.258159540156
 31
0.0
 11
3372.028985615644
 21
-3721.193267475865
 31
0.0
 11
3371.96779154865
 21
-3721.160917792803
 31
0.0
 11
3371.896498674079
 21
-3721.128861864419
 31
0.0
 11
3371.856971555055
 21
-3721.112899639343
 31
0.0
 11
3371.814967780252
 21
-3721.097026676562
 31
0.0
 11
3371.766286729267
 21
-3721.079794834091
 31
0.0
 11
3371.723313896057
 21
-3721.065456775676
 31
0.0
 11
3371.469774677566
 21
-3720.992743909872
 31
0.0
 11
3371.192812421374
 21
-3720.928344751262
 31
0.0
 11
3370.909139478015
 21
-3720.872444960819
 31
0.0
 11
3370.63546819803
 21
-3720.825230199516
 31
0.0
 11
3370.453356828971
 21
-3720.796630677338
 31
0.0
 11
3370.272767875815
 21
-3720.770119168546
 31
0.0
 11
3370.22469816194
 21
-3720.763341045512
 31
0.0
 11
3370.17673234209
 21
-3720.756686780491
 31
0.0
 11
3370.1152903875
 21
-3720.748313131792
 31
0.0
 11
3370.078644152996
 21
-3720.743392724639
 31
0.0
 11
3369.979467841459
 21
-3720.730342232576
 31
0.0
 11
3369.876518415171
 21
-3720.717188559896
 31
0.0
 11
3369.440424121672
 21
-3720.665462140947
 31
0.0
 11
3368.9924778069
 21
-3720.618115812918
 31
0.0
 11
3368.854214972788
 21
-3720.604526233182
 31
0.0
 11
3368.692585646229
 21
-3720.589196419559
 31
0.0
 11
3368.508592509432
 21
-3720.572435963911
 31
0.0
 11
3368.372346158776
 21
-3720.560486094045
 31
0.0
 11
3368.201554810792
 21
-3720.546057208783
 31
0.0
 11
3367.997642964973
 21
-3720.529583232787
 31
0.0
 11
3367.665757374018
 21
-3720.50439827558
 31
0.0
 11
3367.297984056085
 21
-3720.478672997113
 31
0.0
 11
3366.893862855255
 21
-3720.452830762312
 31
0.0
 11
3365.939138573715
 21
-3720.400759041858
 31
0.0
 11
3364.94099624104
 21
-3720.358156951674
 31
0.0
 11
3363.906815312677
 21
-3720.325217008986
 31
0.0
 11
3362.84397524407
 21
-3720.302131731026
 31
0.0
 11
3361.759855490662
 21
-3720.289093635016
 31
0.0
 11
3361.394261369345
 21
-3720.287010232396
 31
0.0
 11
3360.991437418383
 21
-3720.286048495343
 31
0.0
 11
3360.553912585811
 21
-3720.28658304528
 31
0.0
 11
3360.084215819665
 21
-3720.288988503623
 31
0.0
 11
3359.584876067976
 21
-3720.293639491793
 31
0.0
 11
3359.058422278781
 21
-3720.300910631206
 31
0.0
 11
3358.581098008376
 21
-3720.309644790563
 31
0.0
 11
3358.139345334302
 21
-3720.319589422767
 31
0.0
 11
3357.734570296791
 21
-3720.330319084254
 31
0.0
 11
3357.336333107565
 21
-3720.342435819194
 31
0.0
 11
3356.909126640661
 21
-3720.357222552127
 31
0.0
 11
3356.457144452308
 21
-3720.374979502843
 31
0.0
 11
3356.019597202865
 21
-3720.394359070584
 31
0.0
 11
3355.624251171013
 21
-3720.413844719682
 31
0.0
 11
3355.425311735416
 21
-3720.424401815241
 31
0.0
 11
3355.222670029445
 21
-3720.435699570396
 31
0.0
 11
3355.17304847271
 21
-3720.438552408645
 31
0.0
 11
3355.123812922298
 21
-3720.441417346308
 31
0.0
 11
3355.075021367397
 21
-3720.444290513987
 31
0.0
 11
3355.025508859031
 21
-3720.447220554555
 31
0.0
 11
3354.926841684604
 21
-3720.453002299488
 31
0.0
 11
3354.82812721435
 21
-3720.458710423651
 31
0.0
 11
3354.019171406674
 21
-3720.502778207983
 31
0.0
 11
3353.202134756879
 21
-3720.542898939905
 31
0.0
 11
3352.993864609876
 21
-3720.552507245177
 31
0.0
 11
3352.784829778435
 21
-3720.561921195545
 31
0.0
 11
3352.642279485103
 21
-3720.568214985118
 31
0.0
 11
3352.522290192961
 21
-3720.57343660141
 31
0.0
 11
3352.42844525917
 21
-3720.577474964135
 31
0.0
 11
3352.364328040882
 21
-3720.580218993007
 31
0.0
 11
3351.941943125978
 21
-3720.598433004424
 31
0.0
 11
3351.523100635988
 21
-3720.616710376246
 31
0.0
 11
3350.678347582856
 21
-3720.654215137063
 31
0.0
 11
3349.850525827274
 21
-3720.691773163335
 31
0.0
 11
3349.624925534371
 21
-3720.702141601559
 31
0.0
 11
3349.425072226167
 21
-3720.711372809028
 31
0.0
 11
3349.254829169732
 21
-3720.719270159013
 31
0.0
 11
3349.118059632136
 21
-3720.725637024791
 31
0.0
 11
3349.018626880452
 21
-3720.730276779634
 31
0.0
 11
3348.766557134086
 21
-3720.742031709736
 31
0.0
 11
3348.54190529282
 21
-3720.752484883512
 31
0.0
 11
3348.347836747998
 21
-3720.761497652567
 31
0.0
 11
3348.187516890965
 21
-3720.768931368503
 31
0.0
 11
3347.935211929877
 21
-3720.78061044639
 31
0.0
 11
3347.723273409613
 21
-3720.790401330323
 31
0.0
 11
3347.554260086509
 21
-3720.798194957389
 31
0.0
 11
3347.430730716897
 21
-3720.803882264677
 31
0.0
 11
3347.355244057109
 21
-3720.807354189275
 31
0.0
 11
3346.937174773131
 21
-3720.826572184125
 31
0.0
 11
3346.522213623795
 21
-3720.845625974253
 31
0.0
 11
3344.851350539512
 21
-3720.922132378745
 31
0.0
 11
3343.186580977529
 21
-3720.998018504242
 31
0.0
 11
3339.837717107474
 21
-3721.149644163695
 31
0.0
 11
3336.498681243194
 21
-3721.299465381818
 31
0.0
 11
3329.758314318278
 21
-3721.597801024535
 31
0.0
 11
3323.058221522412
 21
-3721.888971464569
 31
0.0
 11
3319.702863716064
 21
-3722.032790568658
 31
0.0
 11
3316.306733749776
 21
-3722.177010572196
 31
0.0
 11
3315.463665420995
 21
-3722.212603280995
 31
0.0
 11
3314.615696427503
 21
-3722.248319259522
 31
0.0
 11
3314.479731890422
 21
-3722.254039712078
 31
0.0
 11
3314.304945616734
 21
-3722.261386341533
 31
0.0
 11
3314.093429415821
 21
-3722.270259302919
 31
0.0
 11
3313.847275097067
 21
-3722.280558751263
 31
0.0
 11
3313.568574469853
 21
-3722.292184841597
 31
0.0
 11
3313.259419343563
 21
-3722.305037728949
 31
0.0
 11
3312.921901527579
 21
-3722.319017568346
 31
0.0
 11
3312.711184698951
 21
-3722.327717782014
 31
0.0
 11
3312.497646670558
 21
-3722.33651289601
 31
0.0
 11
3312.285399065257
 21
-3722.345233463408
 31
0.0
 11
3312.073090405
 21
-3722.353940299401
 31
0.0
 11
3311.648294604901
 21
-3722.371327126427
 31
0.0
 11
3311.223427478815
 21
-3722.38867108183
 31
0.0
 11
3311.011450472779
 21
-3722.397307300898
 31
0.0
 11
3310.798338792132
 21
-3722.405978255622
 31
0.0
 11
3310.585730927495
 21
-3722.414617405418
 31
0.0
 11
3310.373077581915
 21
-3722.42324621125
 31
0.0
 11
3309.945800235585
 21
-3722.440541410571
 31
0.0
 11
3309.521927349181
 21
-3722.45764146577
 31
0.0
 11
3306.107829589927
 21
-3722.593302659073
 31
0.0
 11
3302.682104865369
 21
-3722.725752989451
 31
0.0
 11
3300.963965581176
 21
-3722.790810528729
 31
0.0
 11
3299.242549750671
 21
-3722.855080276257
 31
0.0
 11
3298.917983741358
 21
-3722.86709592429
 31
0.0
 11
3298.612568601035
 21
-3722.87837381371
 31
0.0
 11
3298.330457597224
 21
-3722.888767562098
 31
0.0
 11
3298.075803997446
 21
-3722.89813078703
 31
0.0
 11
3297.852761069224
 21
-3722.906317106085
 31
0.0
 11
3297.665482080082
 21
-3722.913180136843
 31
0.0
 11
3297.51812029754
 21
-3722.918573496882
 31
0.0
 11
3296.659100870591
 21
-3722.949894766695
 31
0.0
 11
3295.790834106134
 21
-3722.981347460949
 31
0.0
 11
3294.925781038507
 21
-3723.012478562784
 31
0.0
 11
3294.060750981062
 21
-3723.043404525864
 31
0.0
 11
3293.696170405569
 21
-3723.0563769238
 31
0.0
 11
3293.283813166097
 21
-3723.071003433014
 31
0.0
 11
3292.826693473634
 21
-3723.087160682111
 31
0.0
 11
3292.327825539165
 21
-3723.104725299692
 31
0.0
 11
3290.590734630161
 21
-3723.165331547157
 31
0.0
 11
3288.853330186247
 21
-3723.22508810496
 31
0.0
 11
3287.848231192933
 21
-3723.259267473788
 31
0.0
 11
3286.877698936501
 21
-3723.292003934287
 31
0.0
 11
3285.943318949388
 21
-3723.323273947432
 31
0.0
 11
3285.046676764027
 21
-3723.353053974194
 31
0.0
 11
3284.189357912852
 21
-3723.38132047555
 31
0.0
 11
3283.372947928301
 21
-3723.408049912472
 31
0.0
 11
3282.599032342807
 21
-3723.433218745934
 31
0.0
 11
3281.869196688804
 21
-3723.45680343691
 31
0.0
 11
3274.837587948256
 21
-3723.676598463438
 31
0.0
 11
3267.767284143163
 21
-3723.884187247085
 31
0.0
 11
3260.657837348674
 21
-3724.079582032235
 31
0.0
 11
3253.512970712095
 21
-3724.262675667086
 31
0.0
 11
3246.334445965535
 21
-3724.433420444534
 31
0.0
 11
3239.124024841104
 21
-3724.591768657474
 31
0.0
 11
3237.45927983606
 21
-3724.626472028565
 31
0.0
 11
3235.75159139366
 21
-3724.661351211679
 31
0.0
 11
3234.001507432952
 21
-3724.696342348843
 31
0.0
 11
3232.209575872987
 21
-3724.731381582087
 31
0.0
 11
3230.376344632814
 21
-3724.766405053439
 31
0.0
 11
3228.502361631483
 21
-3724.801348904929
 31
0.0
 11
3226.588174788044
 21
-3724.836149278584
 31
0.0
 11
3224.634332021547
 21
-3724.870742316435
 31
0.0
 11
3217.344930461442
 21
-3724.991566729138
 31
0.0
 11
3210.03561499569
 21
-3725.099767572599
 31
0.0
 11
3198.302389956492
 21
-3725.246594606007
 31
0.0
 11
3186.528967501768
 21
-3725.360967118379
 31
0.0
 11
3174.722675158967
 21
-3725.442789589785
 31
0.0
 11
3162.890840455539
 21
-3725.491966500289
 31
0.0
 11
3151.040790918931
 21
-3725.508402329959
 31
0.0
  0
SPLINE
  5
131
330
1F
100
AcDbEntity
  8
0
  6
Continuous
 62
     7
100
AcDbSpline
210
0.0
220
0.0
230
1.0
 70
     8
 71
     3
 72
    31
 73
    27
 74
    25
 42
0.0000000001
 43
0.0000000001
 44
0.00000001
 40
0.0
 40
0.0
 40
0.0
 40
0.0
 40
2.456043933954431
 40
4.915455185163887
 40
7.011688266427873
 40
9.11054770381898
 40
11.04450080501258
 40
13.354543322313
 40
17.1103777458803
 40
20.90347188045775
 40
35.0036050110436
 40
48.40438016052808
 40
63.93479905619188
 40
78.91683186567933
 40
82.76888119540611
 40
86.59317429210779
 40
90.4788187967134
 40
94.33791404885015
 40
98.22154892183721
 40
102.0799233419865
 40
104.0182866903098
 40
105.9505344268796
 40
108.2250733131192
 40
109.8211959836378
 40
125.172297950143
 40
140.7911092320306
 40
140.7911092320306
 40
140.7911092320306
 40
140.7911092320306
 10
3373.589294470045
 20
-3862.150650316617
 30
0.0
 10
3373.571705805401
 20
-3861.332157948407
 30
0.0
 10
3373.536504361473
 20
-3859.694051031949
 30
0.0
 10
3373.487810858483
 20
-3857.357328737649
 30
0.0
 10
3373.442617441894
 20
-3855.139621195319
 30
0.0
 10
3373.40196949403
 20
-3853.097010309516
 30
0.0
 10
3373.360885594976
 20
-3850.983124421668
 30
0.0
 10
3373.310379400033
 20
-3848.316992640181
 30
0.0
 10
3373.250390978118
 20
-3845.031216056645
 30
0.0
 10
3373.124654037889
 20
-3837.815957167754
 30
0.0
 10
3372.96280517912
 20
-3827.385862188244
 30
0.0
 10
3372.777937644629
 20
-3813.043265011603
 30
0.0
 10
3372.625373850514
 20
-3798.406302496617
 30
0.0
 10
3372.531164938044
 20
-3786.951848771059
 30
0.0
 10
3372.47712034031
 20
-3779.399250361474
 30
0.0
 10
3372.451083443118
 20
-3775.545342549936
 30
0.0
 10
3372.426443651771
 20
-3771.689076911131
 30
0.0
 10
3372.402955672446
 20
-3767.81302313641
 30
0.0
 10
3372.380643986692
 20
-3763.94605260847
 30
0.0
 10
3372.362826841428
 20
-3760.719310889494
 30
0.0
 10
3372.348995387121
 20
-3758.143019513335
 30
0.0
 10
3372.338185463365
 20
-3756.094664711339
 30
0.0
 10
3372.328140620008
 20
-3754.16038769068
 30
0.0
 10
3372.295358129321
 20
-3747.753217062542
 30
0.0
 10
3372.242950475464
 20
-3736.897997163372
 30
0.0
 10
3372.20079415812
 20
-3726.574778553493
 30
0.0
 10
3372.179533796179
 20
-3721.368551400185
 30
0.0
 11
3373.589294470045
 21
-3862.150650316617
 31
0.0
 11
3373.536794481499
 21
-3859.695167562306
 31
0.0
 11
3373.485492155201
 21
-3857.236291442228
 31
0.0
 11
3373.442802226769
 21
-3855.140493097683
 31
0.0
 11
3373.401044954702
 21
-3853.04204908648
 31
0.0
 11
3373.363465940259
 21
-3851.108461122282
 31
0.0
 11
3373.319708516237
 21
-3848.798833074397
 31
0.0
 11
3373.251134728368
 21
-3845.043624710954
 31
0.0
 11
3373.185028394312
 21
-3841.251106673243
 31
0.0
 11
3372.965519403549
 21
-3827.152682289532
 31
0.0
 11
3372.792188538977
 21
-3813.753028151517
 31
0.0
 11
3372.629260864274
 21
-3798.223463906259
 31
0.0
 11
3372.504898461835
 21
-3783.241947257487
 31
0.0
 11
3372.477311713484
 21
-3779.38999671134
 31
0.0
 11
3372.451453282622
 21
-3775.565791038127
 31
0.0
 11
3372.426601395382
 21
-3771.680226008447
 31
0.0
 11
3372.403191133471
 21
-3767.821201763291
 31
0.0
 11
3372.380756506826
 21
-3763.937631689994
 31
0.0
 11
3372.359423921744
 21
-3760.079316243212
 31
0.0
 11
3372.349014008676
 21
-3758.140980848128
 31
0.0
 11
3372.338812523825
 21
-3756.208760041599
 31
0.0
 11
3372.327000381465
 21
-3753.934251826993
 31
0.0
 11
3372.318831547655
 21
-3752.338150060345
 31
0.0
 11
3372.245268915691
 21
-3736.98722435128
 31
0.0
 11
3372.179533796179
 21
-3721.368551400185
 31
0.0
  0
SPLINE
  5
132
330
1F
100
AcDbEntity
  8
0
  6
Continuous
 62
     7
100
AcDbSpline
210
0.0
220
0.0
230
1.0
 70
     8
 71
     3
 72
    43
 73
    39
 74
    37
 42
0.0000000001
 43
0.0000000001
 44
0.00000001
 40
0.0
 40
0.0
 40
0.0
 40
0.0
 40
9.152884979236811
 40
18.15813222827459
 40
21.5088274512412
 40
24.82730666697869
 40
27.91104343779411
 40
31.55757407858336
 40
38.38835957334427
 40
45.24195996520187
 40
59.44086074755744
 40
73.78988918253341
 40
89.00990120152218
 40
104.4451816475267
 40
112.5741601128841
 40
120.7609784061897
 40
122.8572114874537
 40
124.9560709248448
 40
126.8900240260384
 40
129.2000665433388
 40
132.9559009669061
 40
136.7489951014836
 40
150.8491282320694
 40
164.2499033815539
 40
179.7803222772177
 40
194.7623550867051
 40
198.6144044164319
 40
202.4386975131336
 40
206.3243420177392
 40
210.183437269876
 40
214.067072142863
 40
217.9254465630123
 40
219.8638099113357
 40
221.7960576479054
 40
224.070596534145
 40
225.6667192046636
 40
241.0178211711688
 40
256.6366324530564
 40
256.6366324530564
 40
256.6366324530564
 40
256.6366324530564
 10
2318.781639190064
 20
-3977.951913844411
 30
0.0
 10
2318.694918590129
 20
-3974.902184884764
 30
0.0
 10
2318.522876209598
 20
-3968.851919658519
 30
0.0
 10
2318.316269856045
 20
-3961.685287817111
 30
0.0
 10
2318.164697053692
 20
-3956.462679631111
 30
0.0
 10
2318.069999158359
 20
-3953.213088744082
 30
0.0
 10
2317.972056778433
 20
-3949.864938761516
 30
0.0
 10
2317.839364604542
 20
-3945.346535753076
 30
0.0
 10
2317.669104048015
 20
-3939.572073091687
 30
0.0
 10
2317.395014749071
 20
-3930.281686514542
 30
0.0
 10
2317.049186064701
 20
-3918.486244761863
 30
0.0
 10
2316.63345284898
 20
-3903.90285271319
 30
0.0
 10
2316.226853502253
 20
-3888.906916975795
 30
0.0
 10
2315.902622042048
 20
-3875.982879630175
 30
0.0
 10
2315.658541365452
 20
-3865.40199872709
 30
0.0
 10
2315.526682657
 20
-3859.266068675813
 30
0.0
 10
2315.442620499142
 20
-3855.139621135131
 30
0.0
 10
2315.40196875187
 20
-3853.097010324138
 30
0.0
 10
2315.360885826271
 20
-3850.983124417123
 30
0.0
 10
2315.310379287125
 20
-3848.316992642412
 30
0.0
 10
2315.25039101372
 20
-3845.031216055952
 30
0.0
 10
2315.124653998298
 20
-3837.81595716854
 30
0.0
 10
2314.962805194134
 20
-3827.385862187959
 30
0.0
 10
2314.777937640502
 20
-3813.043265011691
 30
0.0
 10
2314.625373852206
 20
-3798.406302496593
 30
0.0
 10
2314.531164938373
 20
-3786.951848771061
 30
0.0
 10
2314.477120340722
 20
-3779.399250361474
 30
0.0
 10
2314.451083443518
 20
-3775.545342549935
 30
0.0
 10
2314.426443652177
 20
-3771.689076911132
 30
0.0
 10
2314.402955672849
 20
-3767.813023136408
 30
0.0
 10
2314.380643987097
 20
-3763.94605260847
 30
0.0
 10
2314.362826841833
 20
-3760.719310889498
 30
0.0
 10
2314.348995387524
 20
-3758.143019513333
 30
0.0
 10
2314.33818546377
 20
-3756.09466471134
 30
0.0
 10
2314.328140620413
 20
-3754.160387690681
 30
0.0
 10
2314.295358129718
 20
-3747.75321706254
 30
0.0
 10
2314.24295047587
 20
-3736.897997163373
 30
0.0
 10
2314.200794158525
 20
-3726.574778553494
 30
0.0
 10
2314.179533796583
 20
-3721.368551400185
 30
0.0
 11
2318.781639190064
 21
-3977.951913844411
 31
0.0
 11
2318.520873093599
 21
-3968.802744238044
 31
0.0
 11
2318.261531390999
 21
-3959.801232148534
 31
0.0
 11
2318.164318803684
 21
-3956.451947420405
 31
0.0
 11
2318.067656200214
 21
-3953.134876325844
 31
0.0
 11
2317.977488381689
 21
-3950.052458080994
 31
0.0
 11
2317.870472026132
 21
-3946.407498106748
 31
0.0
 11
2317.669308463583
 21
-3939.579675342752
 31
0.0
 11
2317.467354541132
 21
-3932.729051068682
 31
0.0
 11
2317.052560606606
 21
-3918.536210288237
 31
0.0
 11
2316.644956208003
 21
-3904.19297231064
 31
0.0
 11
2316.233897580718
 21
-3888.978512193268
 31
0.0
 11
2315.848342169586
 21
-3873.54804786222
 31
0.0
 11
2315.66111539977
 21
-3865.421225787946
 31
0.0
 11
2315.485492155605
 21
-3857.236291442228
 31
0.0
 11
2315.442802227173
 21
-3855.140493097683
 31
0.0
 11
2315.401044955106
 21
-3853.04204908648
 31
0.0
 11
2315.363465940663
 21
-3851.108461122282
 31
0.0
 11
2315.31970851664
 21
-3848.798833074397
 31
0.0
 11
2315.25113472877
 21
-3845.043624710954
 31
0.0
 11
2315.185028394716
 21
-3841.251106673243
 31
0.0
 11
2314.965519403952
 21
-3827.152682289532
 31
0.0
 11
2314.792188539381
 21
-3813.753028151517
 31
0.0
 11
2314.629260864678
 21
-3798.223463906259
 31
0.0
 11
2314.504898462239
 21
-3783.241947257487
 31
0.0
 11
2314.477311713887
 21
-3779.38999671134
 31
0.0
 11
2314.451453283026
 21
-3775.565791038127
 31
0.0
 11
2314.426601395787
 21
-3771.680226008447
 31
0.0
 11
2314.403191133875
 21
-3767.821201763291
 31
0.0
 11
2314.38075650723
 21
-3763.937631689994
 31
0.0
 11
2314.359423922148
 21
-3760.079316243212
 31
0.0
 11
2314.34901400908
 21
-3758.140980848128
 31
0.0
 11
2314.338812524229
 21
-3756.208760041599
 31
0.0
 11
2314.327000381869
 21
-3753.934251826993
 31
0.0
 11
2314.318831548058
 21
-3752.338150060345
 31
0.0
 11
2314.245268916095
 21
-3736.98722435128
 31
0.0
 11
2314.179533796583
 21
-3721.368551400185
 31
0.0
  0
SPLINE
  5
133
330
1F
100
AcDbEntity
  8
0
  6
Continuous
 62
     7
100
AcDbSpline
210
0.0
220
0.0
230
1.0
 70
     8
 71
     3
 72
   174
 73
   170
 74
   168
 42
0.0000000001
 43
0.0000000001
 44
0.00000001
 40
0.0
 40
0.0
 40
0.0
 40
0.0
 40
0.0228258304271522
 40
0.0461306930047629
 40
0.1284228032144365
 40
0.2401473092087913
 40
0.3093659181914728
 40
0.3875340479446776
 40
0.4301625098883192
 40
0.4750653833508972
 40
0.5267062694774646
 40
0.572007972681678
 40
0.835767894137021
 40
1.120118633516048
 40
1.409246849650612
 40
1.686961096986926
 40
1.87130448148811
 40
2.053829082844821
 40
2.102374323022373
 40
2.150799513955024
 40
2.212809446839298
 40
2.249784531827525
 40
2.349815807502663
 40
2.453602143202472
 40
2.892753432896336
 40
3.343194967055245
 40
3.482124042392214
 40
3.644478723229701
 40
3.829233661626054
 40
3.966003056803462
 40
4.13740281548413
 40
4.341979042720675
 40
4.674818835343472
 40
5.043490780757337
 40
5.448437402005431
 40
6.404580653737817
 40
7.403631730692751
 40
8.438337115048778
 40
9.501427864465205
 40
10.58562601594698
 40
10.95122607353446
 40
11.35405117256195
 40
11.7915763316793
 40
12.2612792573232
 40
12.76064066883542
 40
13.28714466846552
 40
13.76454884173734
 40
14.20641343724325
 40
14.6113306591875
 40
15.00975213720795
 40
15.43721443125903
 40
15.88954529234158
 40
16.32752150532689
 40
16.72334744614134
 40
16.92256680088033
 40
17.12552320080457
 40
17.17522669745188
 40
17.22454553048949
 40
17.27342160768524
 40
17.32302073693608
 40
17.42185716687927
 40
17.52073653438923
 40
18.33089174691852
 40
19.14891287148459
 40
19.35740453477854
 40
19.5666512389745
 40
19.70934040435244
 40
19.82944325821181
 40
19.92337504182088
 40
19.98755095143971
 40
20.41032839472522
 40
20.82956948734526
 40
21.67515468580884
 40
22.50382800162954
 40
22.72966643208037
 40
22.92973282104084
 40
23.10015895284328
 40
23.2370766047142
 40
23.33661754821228
 40
23.58896123332244
 40
23.81385613905909
 40
24.00813385290039
 40
24.16862596078051
 40
24.42120108673222
 40
24.63336564027388
 40
24.80255855977611
 40
24.92621878224518
 40
25.00178524349779
 40
25.42029600504561
 40
25.83569437092716
 40
27.50830809691116
 40
29.17480634129873
 40
32.52710101223206
 40
35.86949639583815
 40
42.6164624131084
 40
49.32287901949117
 40
52.68131763636626
 40
56.08050844556556
 40
56.9243277674077
 40
57.77304859609314
 40
57.90913341861585
 40
58.0840740212049
 40
58.29577624767474
 40
58.54214594402101
 40
58.82108895896364
 40
59.13051114437496
 40
59.46831835569011
 40
59.67921471787989
 40
59.89293379424127
 40
60.10536047394874
 40
60.31784759405933
 40
60.74299906534361
 40
61.16822005214709
 40
61.38037291064275
 40
61.59366091753463
 40
61.80644423223412
 40
62.01927257075271
 40
62.44689980866846
 40
62.87111748358943
 40
66.28790946864108
 40
69.71619373025993
 40
71.43556427883414
 40
73.1581794598774
 40
73.48296780664963
 40
73.78859110211039
 40
74.07089350818748
 40
74.32571918558402
 40
74.54891229401073
 40
74.73631699236608
 40
74.88377743888154
 40
75.74336768883664
 40
76.61220394857526
 40
77.47781700029759
 40
78.34339970315044
 40
78.708210995649
 40
79.1208275582302
 40
79.57823270679707
 40
80.07740976139073
 40
81.81555760992897
 40
83.55398938826556
 40
84.55966936500555
 40
85.53075357176614
 40
86.4656566544648
 40
87.36279324304198
 40
88.22057795244021
 40
89.03742538352701
 40
89.81175012396137
 40
90.54196674901316
 40
97.57700984297112
 40
104.6503604633914
 40
111.7624918489706
 40
118.9097040700829
 40
126.0902591541973
 40
133.3024188132856
 40
134.9675254932862
 40
136.6755700985946
 40
138.4260038303327
 40
140.2182779342202
 40
142.0518437016504
 40
143.9261524707796
 40
145.8406556276334
 40
147.7948046072309
 40
155.0852074522842
 40
162.3953237304563
 40
174.1294674145181
 40
185.9034453900786
 40
197.7100212611976
 40
209.5419581617138
 40
221.3920190964326
 40
221.3920190964326
 40
221.3920190964326
 40
221.3920190964326
 10
2314.179533796583
 20
-3721.368551400185
 30
0.0
 10
2314.17900671979
 20
-3721.360931519028
 30
0.0
 10
2314.177941504756
 20
-3721.345531842794
 30
0.0
 10
2314.16363250449
 20
-3721.304707070644
 30
0.0
 10
2314.115382466411
 20
-3721.247756658614
 30
0.0
 10
2314.041973549637
 20
-3721.199060891779
 30
0.0
 10
2313.965454463163
 20
-3721.158902032681
 30
0.0
 10
2313.907552738753
 20
-3721.133127056675
 30
0.0
 10
2313.856325579423
 20
-3721.11247064253
 30
0.0
 10
2313.812916223142
 20
-3721.096096319598
 30
0.0
 10
2313.768332757229
 20
-3721.080342010244
 30
0.0
 10
2313.654258037518
 20
-3721.042337224382
 30
0.0
 10
2313.463629398128
 20
-3720.988936328029
 30
0.0
 10
2313.191577648295
 20
-3720.926486874542
 30
0.0
 10
2312.913074072796
 20
-3720.872061610992
 30
0.0
 10
2312.666273189888
 20
-3720.829700850823
 30
0.0
 10
2312.454001885435
 20
-3720.7964205733
 30
0.0
 10
2312.316992871546
 20
-3720.776335863472
 30
0.0
 10
2312.224740305536
 20
-3720.763328663703
 30
0.0
 10
2312.172249384714
 20
-3720.756047546876
 30
0.0
 10
2312.123562306159
 20
-3720.749414818866
 30
0.0
 10
2312.05781353284
 20
-3720.740586905808
 30
0.0
 10
2311.978234732062
 20
-3720.730117961387
 30
0.0
 10
2311.765638711358
 20
-3720.70296265977
 30
0.0
 10
2311.436786926452
 20
-3720.664113280862
 30
0.0
 10
2311.095825186499
 20
-3720.62819415936
 30
0.0
 10
2310.846450916125
 20
-3720.603689841254
 30
0.0
 10
2310.685160886064
 20
-3720.588398373613
 30
0.0
 10
2310.524532248785
 20
-3720.573769370423
 30
0.0
 10
2310.360852521051
 20
-3720.559411673777
 30
0.0
 10
2310.190543024513
 20
-3720.545031787905
 30
0.0
 10
2309.955037110303
 20
-3720.526014825231
 30
0.0
 10
2309.653870020569
 20
-3720.503185173356
 30
0.0
 10
2309.285945130601
 20
-3720.477480994948
 30
0.0
 10
2308.710526910889
 20
-3720.440735860971
 30
0.0
 10
2307.924943268889
 20
-3720.398159224368
 30
0.0
 10
2306.929186784912
 20
-3720.35589652086
 30
0.0
 10
2305.897403232886
 20
-3720.323205663778
 30
0.0
 10
2304.836969621818
 20
-3720.300288279167
 30
0.0
 10
2303.999385750921
 20
-3720.290265582935
 30
0.0
 10
2303.381854057174
 20
-3720.286747515399
 30
0.0
 10
2302.979870881352
 20
-3720.285788778804
 30
0.0
 10
2302.543185810828
 20
-3720.286322158744
 30
0.0
 10
2302.074327496671
 20
-3720.288721296092
 30
0.0
 10
2301.5758247468
 20
-3720.293359852901
 30
0.0
 10
2301.074780718071
 20
-3720.300272318265
 30
0.0
 10
2300.592935480313
 20
-3720.30908040031
 30
0.0
 10
2300.151650507938
 20
-3720.319005711036
 30
0.0
 10
2299.736727231205
 20
-3720.329995756997
 30
0.0
 10
2299.326648642447
 20
-3720.34246278375
 30
0.0
 10
2298.90083021699
 20
-3720.357186987243
 30
0.0
 10
2298.461909749581
 20
-3720.374410111277
 30
0.0
 10
2298.033615795404
 20
-3720.393356353736
 30
0.0
 10
2297.689690331738
 20
-3720.410288321918
 30
0.0
 10
2297.424063047151
 20
-3720.424380022919
 30
0.0
 10
2297.273669778662
 20
-3720.432761605503
 30
0.0
 10
2297.173176161294
 20
-3720.438539475414
 30
0.0
 10
2297.123959879851
 20
-3720.441402309687
 30
0.0
 10
2297.074780590718
 20
-3720.44430170499
 30
0.0
 10
2297.009125489273
 20
-3720.448196876821
 30
0.0
 10
2296.926828069194
 20
-3720.453014738879
 30
0.0
 10
2296.591431510225
 20
-3720.472412057716
 30
0.0
 10
2296.016589994159
 20
-3720.503637611157
 30
0.0
 10
2295.405097316829
 20
-3720.533577391567
 30
0.0
 10
2294.993614933981
 20
-3720.552556817293
 30
0.0
 10
2294.806994789139
 20
-3720.560959621362
 30
0.0
 10
2294.649801643427
 20
-3720.567899203071
 30
0.0
 10
2294.531006122817
 20
-3720.573068612339
 30
0.0
 10
2294.438354936971
 20
-3720.577053755235
 30
0.0
 10
2294.244903181293
 20
-3720.585322213241
 30
0.0
 10
2293.943119403317
 20
-3720.598349750987
 30
0.0
 10
2293.38111940879
 20
-3720.622868599448
 30
0.0
 10
2292.683973154367
 20
-3720.653827620017
 30
0.0
 10
2292.051258460396
 20
-3720.682537986985
 30
0.0
 10
2291.633506736074
 20
-3720.70173806171
 30
0.0
 10
2291.434941456961
 20
-3720.710909752177
 30
0.0
 10
2291.265986431935
 20
-3720.718747562647
 30
0.0
 10
2291.130504892101
 20
-3720.72505411929
 30
0.0
 10
2290.96774806644
 20
-3720.732652444629
 30
0.0
 10
2290.775697032109
 20
-3720.741610582775
 30
0.0
 10
2290.552100155157
 20
-3720.752013994602
 30
0.0
 10
2290.359086614923
 20
-3720.7609778511
 30
0.0
 10
2290.156855565634
 20
-3720.770354596776
 30
0.0
 10
2289.948667907212
 20
-3720.779991788229
 30
0.0
 10
2289.737582179084
 20
-3720.789743594565
 30
0.0
 10
2289.569421650611
 20
-3720.797498186705
 30
0.0
 10
2289.446745068884
 20
-3720.803146302532
 30
0.0
 10
2289.241049983043
 20
-3720.812605784986
 30
0.0
 10
2288.938211332761
 20
-3720.82652864463
 30
0.0
 10
2288.103583053332
 20
-3720.864851156724
 30
0.0
 10
2286.85338951773
 20
-3720.922096448908
 30
0.0
 10
2284.625234294536
 20
-3721.02366307893
 30
0.0
 10
2281.841023727014
 20
-3721.14972208046
 30
0.0
 10
2277.364975023685
 20
-3721.3505586604
 30
0.0
 10
2271.771857192296
 20
-3721.598106915131
 30
0.0
 10
2266.173199987245
 20
-3721.841402362617
 30
0.0
 10
2261.689301534822
 20
-3722.033592985143
 30
0.0
 10
2259.157766666415
 20
-3722.141093647278
 30
0.0
 10
2257.462033683943
 20
-3722.212687468059
 30
0.0
 10
2256.853031763851
 20
-3722.238333035754
 30
0.0
 10
2256.466791447387
 20
-3722.254584991029
 30
0.0
 10
2256.292702653036
 20
-3722.261903333634
 30
0.0
 10
2256.081883894673
 20
-3722.270747156178
 30
0.0
 10
2255.83642701997
 20
-3722.281017528348
 30
0.0
 10
2255.558423833377
 20
-3722.29261449255
 30
0.0
 10
2255.249966150183
 20
-3722.305438347479
 30
0.0
 10
2254.96416927878
 20
-3722.31727595111
 30
0.0
 10
2254.710244738473
 20
-3722.327760061458
 30
0.0
 10
2254.498077262131
 20
-3722.336498990056
 30
0.0
 10
2254.285379045426
 20
-3722.345236961353
 30
0.0
 10
2254.002261883444
 20
-3722.35684643576
 30
0.0
 10
2253.648271771415
 20
-3722.371335866942
 30
0.0
 10
2253.294391394291
 20
-3722.385781786847
 30
0.0
 10
2253.011072482169
 20
-3722.397324623224
 30
0.0
 10
2252.798506959286
 20
-3722.405973263276
 30
0.0
 10
2252.585716013182
 20
-3722.414620005886
 30
0.0
 10
2252.301536921342
 20
-3722.426151603489
 30
0.0
 10
2251.946936218118
 20
-3722.440505130161
 30
0.0
 10
2250.525213710386
 20
-3722.497860692651
 30
0.0
 10
2248.104025673257
 20
-3722.594062791763
 30
0.0
 10
2245.251340674868
 20
-3722.704351650938
 30
0.0
 10
2242.962890497322
 20
-3722.79100252099
 30
0.0
 10
2241.708173270282
 20
-3722.837848187348
 30
0.0
 10
2240.924367914156
 20
-3722.866864861736
 30
0.0
 10
2240.620337098893
 20
-3722.878091353962
 30
0.0
 10
2240.339610432071
 20
-3722.888434010035
 30
0.0
 10
2240.086341175782
 20
-3722.897746308958
 30
0.0
 10
2239.864682596869
 20
-3722.905881850805
 30
0.0
 10
2239.678787959472
 20
-3722.912694163937
 30
0.0
 10
2239.280902557214
 20
-3722.927256483414
 30
0.0
 10
2238.656022141305
 20
-3722.950040832624
 30
0.0
 10
2237.791909045068
 20
-3722.981342912832
 30
0.0
 10
2236.92579236557
 20
-3723.01251212034
 30
0.0
 10
2236.227569429728
 20
-3723.037474799463
 30
0.0
 10
2235.680245621311
 20
-3723.056949967224
 30
0.0
 10
2235.268893307904
 20
-3723.071540765306
 30
0.0
 10
2234.812778546149
 20
-3723.087662486273
 30
0.0
 10
2233.9150914382
 20
-3723.119269071738
 30
0.0
 10
2232.59064501109
 20
-3723.165478234707
 30
0.0
 10
2231.097441318239
 20
-3723.216834763222
 30
0.0
 10
2229.859758039689
 20
-3723.25892233939
 30
0.0
 10
2228.889753919537
 20
-3723.291640907057
 30
0.0
 10
2227.955902077333
 20
-3723.32289307312
 30
0.0
 10
2227.059788050975
 20
-3723.352655487489
 30
0.0
 10
2226.202997369408
 20
-3723.38090452523
 30
0.0
 10
2225.387115565345
 20
-3723.407616637707
 30
0.0
 10
2224.613728164881
 20
-3723.432768211591
 30
0.0
 10
2221.768685114102
 20
-3723.524705751387
 30
0.0
 10
2216.824891966278
 20
-3723.679212738678
 30
0.0
 10
2209.754425418919
 20
-3723.886769939204
 30
0.0
 10
2202.646206381788
 20
-3724.082097378307
 30
0.0
 10
2195.501913991605
 20
-3724.265145095541
 30
0.0
 10
2188.323963960632
 20
-3724.43584747819
 30
0.0
 10
2182.972643316271
 20
-3724.553348249604
 30
0.0
 10
2179.444972690267
 20
-3724.626885671651
 30
0.0
 10
2177.737467076439
 20
-3724.661760817578
 30
0.0
 10
2175.987565937203
 20
-3724.696747944611
 30
0.0
 10
2174.195817178206
 20
-3724.731783221347
 30
0.0
 10
2172.362768720935
 20
-3724.766802797294
 30
0.0
 10
2170.48896848735
 20
-3724.801742829604
 30
0.0
 10
2168.574964380235
 20
-3724.836539458433
 30
0.0
 10
2164.855862176065
 20
-3724.902385919646
 30
0.0
 10
2159.338393727332
 20
-3724.993823955284
 30
0.0
 10
2150.561130201398
 20
-3725.12373918527
 30
0.0
 10
2140.289173280726
 20
-3725.252194311311
 30
0.0
 10
2128.518147441965
 20
-3725.366629861459
 30
0.0
 10
2116.714251844079
 20
-3725.447907880876
 30
0.0
 10
2104.884814273411
 20
-3725.4989083429
 30
0.0
 10
2096.990812486245
 20
-3725.50523605339
 30
0.0
 10
2093.040790919335
 20
-3725.508402329959
 30
0.0
 11
2314.179533796583
 21
-3721.368551400185
 31
0.0
 11
2314.176954934252
 21
-3721.345871717564
 31
0.0
 11
2314.169636072975
 21
-3721.323745920644
 31
0.0
 11
2314.119932772308
 21
-3721.258159540156
 31
0.0
 11
2314.028985616048
 21
-3721.193267475865
 31
0.0
 11
2313.967791549054
 21
-3721.160917792803
 31
0.0
 11
2313.896498674483
 21
-3721.128861864419
 31
0.0
 11
2313.856971555459
 21
-3721.112899639343
 31
0.0
 11
2313.814967780656
 21
-3721.097026676562
 31
0.0
 11
2313.766286729671
 21
-3721.079794834091
 31
0.0
 11
2313.723313896461
 21
-3721.065456775676
 31
0.0
 11
2313.469774677971
 21
-3720.992743909872
 31
0.0
 11
2313.192812421777
 21
-3720.928344751262
 31
0.0
 11
2312.909139478419
 21
-3720.872444960819
 31
0.0
 11
2312.635468198434
 21
-3720.825230199516
 31
0.0
 11
2312.453356829375
 21
-3720.796630677338
 31
0.0
 11
2312.272767876219
 21
-3720.770119168546
 31
0.0
 11
2312.224698162344
 21
-3720.763341045512
 31
0.0
 11
2312.176732342494
 21
-3720.756686780491
 31
0.0
 11
2312.115290387904
 21
-3720.748313131792
 31
0.0
 11
2312.0786441534
 21
-3720.743392724639
 31
0.0
 11
2311.979467841863
 21
-3720.730342232576
 31
0.0
 11
2311.876518415575
 21
-3720.717188559896
 31
0.0
 11
2311.440424122076
 21
-3720.665462140947
 31
0.0
 11
2310.992477807304
 21
-3720.618115812918
 31
0.0
 11
2310.854214973192
 21
-3720.604526233182
 31
0.0
 11
2310.692585646633
 21
-3720.589196419559
 31
0.0
 11
2310.508592509836
 21
-3720.572435963911
 31
0.0
 11
2310.372346159179
 21
-3720.560486094045
 31
0.0
 11
2310.201554811196
 21
-3720.546057208783
 31
0.0
 11
2309.997642965377
 21
-3720.529583232787
 31
0.0
 11
2309.665757374422
 21
-3720.50439827558
 31
0.0
 11
2309.297984056489
 21
-3720.478672997113
 31
0.0
 11
2308.893862855659
 21
-3720.452830762312
 31
0.0
 11
2307.939138574119
 21
-3720.400759041858
 31
0.0
 11
2306.940996241444
 21
-3720.358156951674
 31
0.0
 11
2305.906815313081
 21
-3720.325217008986
 31
0.0
 11
2304.843975244474
 21
-3720.302131731026
 31
0.0
 11
2303.759855491066
 21
-3720.289093635016
 31
0.0
 11
2303.394261369749
 21
-3720.287010232396
 31
0.0
 11
2302.991437418787
 21
-3720.286048495343
 31
0.0
 11
2302.553912586216
 21
-3720.28658304528
 31
0.0
 11
2302.084215820069
 21
-3720.288988503623
 31
0.0
 11
2301.58487606838
 21
-3720.293639491793
 31
0.0
 11
2301.058422279185
 21
-3720.300910631206
 31
0.0
 11
2300.58109800878
 21
-3720.309644790563
 31
0.0
 11
2300.139345334705
 21
-3720.319589422767
 31
0.0
 11
2299.734570297195
 21
-3720.330319084254
 31
0.0
 11
2299.336333107969
 21
-3720.342435819194
 31
0.0
 11
2298.909126641066
 21
-3720.357222552127
 31
0.0
 11
2298.457144452712
 21
-3720.374979502843
 31
0.0
 11
2298.019597203269
 21
-3720.394359070584
 31
0.0
 11
2297.624251171417
 21
-3720.413844719682
 31
0.0
 11
2297.425311735819
 21
-3720.424401815241
 31
0.0
 11
2297.222670029849
 21
-3720.435699570396
 31
0.0
 11
2297.173048473113
 21
-3720.438552408645
 31
0.0
 11
2297.123812922701
 21
-3720.441417346308
 31
0.0
 11
2297.075021367801
 21
-3720.444290513987
 31
0.0
 11
2297.025508859435
 21
-3720.447220554555
 31
0.0
 11
2296.926841685008
 21
-3720.453002299488
 31
0.0
 11
2296.828127214753
 21
-3720.458710423651
 31
0.0
 11
2296.019171407077
 21
-3720.502778207983
 31
0.0
 11
2295.202134757283
 21
-3720.542898939905
 31
0.0
 11
2294.99386461028
 21
-3720.552507245177
 31
0.0
 11
2294.784829778839
 21
-3720.561921195545
 31
0.0
 11
2294.642279485507
 21
-3720.568214985118
 31
0.0
 11
2294.522290193366
 21
-3720.57343660141
 31
0.0
 11
2294.428445259574
 21
-3720.577474964135
 31
0.0
 11
2294.364328041286
 21
-3720.580218993007
 31
0.0
 11
2293.941943126381
 21
-3720.598433004424
 31
0.0
 11
2293.523100636392
 21
-3720.616710376246
 31
0.0
 11
2292.678347583259
 21
-3720.654215137063
 31
0.0
 11
2291.850525827677
 21
-3720.691773163335
 31
0.0
 11
2291.624925534775
 21
-3720.702141601559
 31
0.0
 11
2291.425072226571
 21
-3720.711372809028
 31
0.0
 11
2291.254829170136
 21
-3720.719270159013
 31
0.0
 11
2291.11805963254
 21
-3720.725637024791
 31
0.0
 11
2291.018626880856
 21
-3720.730276779634
 31
0.0
 11
2290.76655713449
 21
-3720.742031709736
 31
0.0
 11
2290.541905293223
 21
-3720.752484883512
 31
0.0
 11
2290.347836748401
 21
-3720.761497652567
 31
0.0
 11
2290.187516891368
 21
-3720.768931368503
 31
0.0
 11
2289.935211930281
 21
-3720.78061044639
 31
0.0
 11
2289.723273410018
 21
-3720.790401330323
 31
0.0
 11
2289.554260086913
 21
-3720.798194957389
 31
0.0
 11
2289.4307307173
 21
-3720.803882264677
 31
0.0
 11
2289.355244057513
 21
-3720.807354189275
 31
0.0
 11
2288.937174773536
 21
-3720.826572184125
 31
0.0
 11
2288.522213624199
 21
-3720.845625974253
 31
0.0
 11
2286.851350539916
 21
-3720.922132378745
 31
0.0
 11
2285.186580977933
 21
-3720.998018504242
 31
0.0
 11
2281.837717107877
 21
-3721.149644163695
 31
0.0
 11
2278.498681243597
 21
-3721.299465381818
 31
0.0
 11
2271.758314318682
 21
-3721.597801024535
 31
0.0
 11
2265.058221522816
 21
-3721.888971464569
 31
0.0
 11
2261.702863716469
 21
-3722.032790568658
 31
0.0
 11
2258.30673375018
 21
-3722.177010572196
 31
0.0
 11
2257.463665421398
 21
-3722.212603280995
 31
0.0
 11
2256.615696427907
 21
-3722.248319259522
 31
0.0
 11
2256.479731890826
 21
-3722.254039712078
 31
0.0
 11
2256.304945617138
 21
-3722.261386341533
 31
0.0
 11
2256.093429416225
 21
-3722.270259302919
 31
0.0
 11
2255.847275097471
 21
-3722.280558751263
 31
0.0
 11
2255.568574470258
 21
-3722.292184841597
 31
0.0
 11
2255.259419343968
 21
-3722.305037728949
 31
0.0
 11
2254.921901527983
 21
-3722.319017568346
 31
0.0
 11
2254.711184699355
 21
-3722.327717782014
 31
0.0
 11
2254.497646670961
 21
-3722.33651289601
 31
0.0
 11
2254.28539906566
 21
-3722.345233463408
 31
0.0
 11
2254.073090405404
 21
-3722.353940299401
 31
0.0
 11
2253.648294605306
 21
-3722.371327126427
 31
0.0
 11
2253.223427479219
 21
-3722.38867108183
 31
0.0
 11
2253.011450473183
 21
-3722.397307300898
 31
0.0
 11
2252.798338792536
 21
-3722.405978255622
 31
0.0
 11
2252.585730927899
 21
-3722.414617405418
 31
0.0
 11
2252.373077582319
 21
-3722.42324621125
 31
0.0
 11
2251.945800235988
 21
-3722.440541410571
 31
0.0
 11
2251.521927349585
 21
-3722.45764146577
 31
0.0
 11
2248.107829590331
 21
-3722.593302659073
 31
0.0
 11
2244.682104865773
 21
-3722.725752989451
 31
0.0
 11
2242.96396558158
 21
-3722.790810528729
 31
0.0
 11
2241.242549751075
 21
-3722.855080276257
 31
0.0
 11
2240.917983741762
 21
-3722.86709592429
 31
0.0
 11
2240.612568601439
 21
-3722.87837381371
 31
0.0
 11
2240.330457597628
 21
-3722.888767562098
 31
0.0
 11
2240.07580399785
 21
-3722.89813078703
 31
0.0
 11
2239.852761069629
 21
-3722.906317106085
 31
0.0
 11
2239.665482080486
 21
-3722.913180136843
 31
0.0
 11
2239.518120297944
 21
-3722.918573496882
 31
0.0
 11
2238.659100870995
 21
-3722.949894766695
 31
0.0
 11
2237.790834106538
 21
-3722.981347460949
 31
0.0
 11
2236.925781038911
 21
-3723.012478562784
 31
0.0
 11
2236.060750981465
 21
-3723.043404525864
 31
0.0
 11
2235.696170405973
 21
-3723.0563769238
 31
0.0
 11
2235.283813166501
 21
-3723.071003433014
 31
0.0
 11
2234.826693474039
 21
-3723.087160682111
 31
0.0
 11
2234.327825539569
 21
-3723.104725299692
 31
0.0
 11
2232.590734630564
 21
-3723.165331547157
 31
0.0
 11
2230.853330186651
 21
-3723.22508810496
 31
0.0
 11
2229.848231193336
 21
-3723.259267473788
 31
0.0
 11
2228.877698936905
 21
-3723.292003934287
 31
0.0
 11
2227.943318949792
 21
-3723.323273947432
 31
0.0
 11
2227.04667676443
 21
-3723.353053974194
 31
0.0
 11
2226.189357913256
 21
-3723.38132047555
 31
0.0
 11
2225.372947928705
 21
-3723.408049912472
 31
0.0
 11
2224.599032343211
 21
-3723.433218745934
 31
0.0
 11
2223.869196689208
 21
-3723.45680343691
 31
0.0
 11
2216.837587948659
 21
-3723.676598463438
 31
0.0
 11
2209.767284143567
 21
-3723.884187247085
 31
0.0
 11
2202.657837349077
 21
-3724.079582032235
 31
0.0
 11
2195.512970712499
 21
-3724.262675667086
 31
0.0
 11
2188.334445965939
 21
-3724.433420444534
 31
0.0
 11
2181.124024841508
 21
-3724.591768657474
 31
0.0
 11
2179.459279836464
 21
-3724.626472028565
 31
0.0
 11
2177.751591394064
 21
-3724.661351211679
 31
0.0
 11
2176.001507433356
 21
-3724.696342348843
 31
0.0
 11
2174.209575873391
 21
-3724.731381582087
 31
0.0
 11
2172.376344633218
 21
-3724.766405053439
 31
0.0
 11
2170.502361631887
 21
-3724.801348904929
 31
0.0
 11
2168.588174788447
 21
-3724.836149278584
 31
0.0
 11
2166.63433202195
 21
-3724.870742316435
 31
0.0
 11
2159.344930461845
 21
-3724.991566729138
 31
0.0
 11
2152.035614996094
 21
-3725.099767572599
 31
0.0
 11
2140.302389956896
 21
-3725.246594606007
 31
0.0
 11
2128.528967502172
 21
-3725.360967118379
 31
0.0
 11
2116.722675159372
 21
-3725.442789589785
 31
0.0
 11
2104.890840455942
 21
-3725.491966500289
 31
0.0
 11
2093.040790919335
 21
-3725.508402329959
 31
0.0
  0
SPLINE
  5
134
330
1F
100
AcDbEntity
  8
0
  6
Continuous
 62
     7
100
AcDbSpline
210
0.0
220
0.0
230
1.0
 70
     8
 71
     3
 72
   174
 73
   170
 74
   168
 42
0.0000000001
 43
0.0000000001
 44
0.00000001
 40
0.0
 40
0.0
 40
0.0
 40
0.0
 40
0.0228258304271522
 40
0.0461306930047629
 40
0.1284228032134752
 40
0.2401473092089406
 40
0.309365918191622
 40
0.3875340479448268
 40
0.4301625098886792
 40
0.4750653833508318
 40
0.5267062694776136
 40
0.572007972681827
 40
0.8357678941367329
 40
1.120118633515982
 40
1.409246849650323
 40
1.686961096986861
 40
1.871304481488943
 40
2.053829082845879
 40
2.102374323023431
 40
2.150799513954956
 40
2.212809446839455
 40
2.249784531827682
 40
2.34981580750282
 40
2.453602143203531
 40
2.892753432896719
 40
3.343194967055402
 40
3.482124042392597
 40
3.64447872323031
 40
3.829233661627115
 40
3.966003056803391
 40
4.137402815484739
 40
4.341979042720832
 40
4.674818835344081
 40
5.043490780757493
 40
5.44843740200536
 40
6.4045806537382
 40
7.403631730693362
 40
8.438337115049617
 40
9.501427864467408
 40
10.58562601594805
 40
10.95122607353552
 40
11.35405117256256
 40
11.79157633167923
 40
12.26127925732427
 40
12.76064066883581
 40
13.28714466846545
 40
13.76454884173772
 40
14.20641343724409
 40
14.61133065918788
 40
15.00975213720787
 40
15.43721443125918
 40
15.88954529234151
 40
16.32752150532773
 40
16.72334744614172
 40
16.92256680088094
 40
17.1255232008045
 40
17.17522669745295
 40
17.22454553048942
 40
17.27342160768563
 40
17.32302073693602
 40
17.4218571668792
 40
17.52073653438916
 40
18.33089174691823
 40
19.14891287148475
 40
19.35740453477824
 40
19.56665123897466
 40
19.70934040435328
 40
19.82944325821152
 40
19.92337504182013
 40
19.98755095143987
 40
20.41032839472561
 40
20.82956948734542
 40
21.67515468580878
 40
22.50382800162947
 40
22.72966643208099
 40
22.92973282104078
 40
23.10015895284344
 40
23.23707660471437
 40
23.33661754821245
 40
23.58896123332329
 40
23.81385613906016
 40
24.00813385290101
 40
24.16862596078068
 40
24.42120108673306
 40
24.63336564027427
 40
24.80255855977627
 40
24.92621878224534
 40
25.00178524349795
 40
25.42029600504555
 40
25.83569437092733
 40
27.50830809691109
 40
29.17480634129867
 40
32.52710101223222
 40
35.8694963958381
 40
42.61646241310857
 40
49.32287901949134
 40
52.6813176363662
 40
56.0805084455655
 40
56.92432776740765
 40
57.77304859609331
 40
57.90913341861624
 40
58.08407402120461
 40
58.29577624767445
 40
58.54214594402049
 40
58.82108895896426
 40
59.13051114437604
 40
59.4683183556905
 40
59.67921471788073
 40
59.89293379424121
 40
60.10536047394867
 40
60.3178475940604
 40
60.74299906534423
 40
61.16822005214726
 40
61.38037291064359
 40
61.5936609175348
 40
61.80644423223406
 40
62.01927257075288
 40
62.44689980866908
 40
62.87111748358959
 40
66.287909468641
 40
69.71619373026009
 40
71.43556427883406
 40
73.15817945987733
 40
73.4829678066491
 40
73.78859110210986
 40
74.07089350818718
 40
74.32571918558418
 40
74.54891229401044
 40
74.73631699236579
 40
74.88377743888147
 40
75.74336768883748
 40
76.61220394857541
 40
77.47781700029661
 40
78.34339970315037
 40
78.70821099564915
 40
79.1208275582299
 40
79.57823270679813
 40
80.07740976139065
 40
81.81555760992958
 40
83.55398938826549
 40
84.55966936500548
 40
85.5307535717663
 40
86.4656566544654
 40
87.36279324304259
 40
88.22057795244014
 40
89.03742538352716
 40
89.81175012396199
 40
90.54196674901422
 40
97.5770098429715
 40
104.6503604633913
 40
111.7624918489708
 40
118.9097040700831
 40
126.090259154197
 40
133.3024188132855
 40
134.9675254932862
 40
136.675570098595
 40
138.4260038303329
 40
140.2182779342203
 40
142.0518437016506
 40
143.9261524707793
 40
145.8406556276326
 40
147.7948046072309
 40
155.0852074522839
 40
162.3953237304573
 40
174.1294674145192
 40
185.9034453900792
 40
197.7100212611986
 40
209.541958161714
 40
221.3920190964336
 40
221.3920190964336
 40
221.3920190964336
 40
221.3920190964336
 10
1871.902048042086
 20
-3721.368551400185
 30
0.0
 10
1871.902575118879
 20
-3721.360931519028
 30
0.0
 10
1871.903640333914
 20
-3721.345531842794
 30
0.0
 10
1871.917949334179
 20
-3721.304707070645
 30
0.0
 10
1871.966199372257
 20
-3721.247756658611
 30
0.0
 10
1872.039608289032
 20
-3721.199060891782
 30
0.0
 10
1872.116127375506
 20
-3721.158902032681
 30
0.0
 10
1872.174029099916
 20
-3721.133127056674
 30
0.0
 10
1872.225256259246
 20
-3721.112470642532
 30
0.0
 10
1872.268665615528
 20
-3721.096096319598
 30
0.0
 10
1872.31324908144
 20
-3721.080342010244
 30
0.0
 10
1872.427323801151
 20
-3721.042337224381
 30
0.0
 10
1872.617952440541
 20
-3720.988936328029
 30
0.0
 10
1872.890004190374
 20
-3720.926486874542
 30
0.0
 10
1873.168507765873
 20
-3720.872061610992
 30
0.0
 10
1873.415308648782
 20
-3720.829700850823
 30
0.0
 10
1873.627579953235
 20
-3720.7964205733
 30
0.0
 10
1873.764588967124
 20
-3720.776335863472
 30
0.0
 10
1873.856841533134
 20
-3720.763328663704
 30
0.0
 10
1873.909332453956
 20
-3720.756047546876
 30
0.0
 10
1873.95801953251
 20
-3720.749414818865
 30
0.0
 10
1874.023768305829
 20
-3720.740586905808
 30
0.0
 10
1874.103347106608
 20
-3720.730117961386
 30
0.0
 10
1874.315943127311
 20
-3720.702962659771
 30
0.0
 10
1874.644794912218
 20
-3720.664113280863
 30
0.0
 10
1874.985756652171
 20
-3720.628194159358
 30
0.0
 10
1875.235130922545
 20
-3720.603689841254
 30
0.0
 10
1875.396420952605
 20
-3720.588398373613
 30
0.0
 10
1875.557049589885
 20
-3720.573769370422
 30
0.0
 10
1875.720729317619
 20
-3720.559411673777
 30
0.0
 10
1875.891038814156
 20
-3720.545031787905
 30
0.0
 10
1876.126544728365
 20
-3720.526014825232
 30
0.0
 10
1876.427711818099
 20
-3720.503185173356
 30
0.0
 10
1876.795636708068
 20
-3720.477480994948
 30
0.0
 10
1877.371054927781
 20
-3720.440735860971
 30
0.0
 10
1878.156638569779
 20
-3720.398159224368
 30
0.0
 10
1879.152395053758
 20
-3720.355896520859
 30
0.0
 10
1880.184178605785
 20
-3720.323205663778
 30
0.0
 10
1881.244612216851
 20
-3720.300288279167
 30
0.0
 10
1882.08219608775
 20
-3720.290265582934
 30
0.0
 10
1882.699727781496
 20
-3720.286747515398
 30
0.0
 10
1883.101710957317
 20
-3720.285788778803
 30
0.0
 10
1883.538396027842
 20
-3720.286322158744
 30
0.0
 10
1884.007254341998
 20
-3720.288721296092
 30
0.0
 10
1884.505757091869
 20
-3720.2933598529
 30
0.0
 10
1885.006801120599
 20
-3720.300272318265
 30
0.0
 10
1885.488646358356
 20
-3720.30908040031
 30
0.0
 10
1885.929931330731
 20
-3720.319005711036
 30
0.0
 10
1886.344854607464
 20
-3720.329995756997
 30
0.0
 10
1886.754933196223
 20
-3720.34246278375
 30
0.0
 10
1887.180751621677
 20
-3720.357186987244
 30
0.0
 10
1887.619672089089
 20
-3720.374410111277
 30
0.0
 10
1888.047966043264
 20
-3720.393356353737
 30
0.0
 10
1888.391891506931
 20
-3720.410288321919
 30
0.0
 10
1888.657518791519
 20
-3720.424380022918
 30
0.0
 10
1888.807912060009
 20
-3720.432761605503
 30
0.0
 10
1888.908405677376
 20
-3720.438539475414
 30
0.0
 10
1888.957621958818
 20
-3720.441402309687
 30
0.0
 10
1889.006801247951
 20
-3720.44430170499
 30
0.0
 10
1889.072456349397
 20
-3720.448196876822
 30
0.0
 10
1889.154753769473
 20
-3720.453014738878
 30
0.0
 10
1889.490150328447
 20
-3720.472412057718
 30
0.0
 10
1890.064991844508
 20
-3720.503637611156
 30
0.0
 10
1890.676484521842
 20
-3720.533577391569
 30
0.0
 10
1891.087966904688
 20
-3720.552556817292
 30
0.0
 10
1891.274587049531
 20
-3720.560959621362
 30
0.0
 10
1891.431780195242
 20
-3720.56789920307
 30
0.0
 10
1891.550575715851
 20
-3720.57306861234
 30
0.0
 10
1891.643226901698
 20
-3720.577053755235
 30
0.0
 10
1891.836678657374
 20
-3720.585322213242
 30
0.0
 10
1892.138462435353
 20
-3720.598349750985
 30
0.0
 10
1892.700462429879
 20
-3720.622868599449
 30
0.0
 10
1893.397608684302
 20
-3720.653827620019
 30
0.0
 10
1894.030323378272
 20
-3720.682537986984
 30
0.0
 10
1894.448075102595
 20
-3720.701738061711
 30
0.0
 10
1894.646640381708
 20
-3720.710909752177
 30
0.0
 10
1894.815595406734
 20
-3720.718747562647
 30
0.0
 10
1894.951076946568
 20
-3720.72505411929
 30
0.0
 10
1895.11383377223
 20
-3720.732652444629
 30
0.0
 10
1895.305884806561
 20
-3720.741610582774
 30
0.0
 10
1895.529481683512
 20
-3720.752013994602
 30
0.0
 10
1895.722495223747
 20
-3720.760977851101
 30
0.0
 10
1895.924726273035
 20
-3720.770354596776
 30
0.0
 10
1896.132913931458
 20
-3720.779991788229
 30
0.0
 10
1896.343999659585
 20
-3720.789743594565
 30
0.0
 10
1896.512160188058
 20
-3720.797498186705
 30
0.0
 10
1896.634836769785
 20
-3720.803146302531
 30
0.0
 10
1896.840531855626
 20
-3720.812605784986
 30
0.0
 10
1897.143370505908
 20
-3720.82652864463
 30
0.0
 10
1897.977998785337
 20
-3720.864851156726
 30
0.0
 10
1899.228192320938
 20
-3720.922096448906
 30
0.0
 10
1901.456347544133
 20
-3721.023663078931
 30
0.0
 10
1904.240558111655
 20
-3721.149722080459
 30
0.0
 10
1908.716606814983
 20
-3721.3505586604
 30
0.0
 10
1914.309724646372
 20
-3721.59810691513
 30
0.0
 10
1919.908381851426
 20
-3721.841402362617
 30
0.0
 10
1924.392280303846
 20
-3722.033592985144
 30
0.0
 10
1926.923815172255
 20
-3722.141093647278
 30
0.0
 10
1928.619548154725
 20
-3722.212687468059
 30
0.0
 10
1929.228550074819
 20
-3722.238333035755
 30
0.0
 10
1929.614790391282
 20
-3722.254584991029
 30
0.0
 10
1929.788879185633
 20
-3722.261903333635
 30
0.0
 10
1929.999697943996
 20
-3722.270747156177
 30
0.0
 10
1930.2451548187
 20
-3722.281017528347
 30
0.0
 10
1930.523158005292
 20
-3722.29261449255
 30
0.0
 10
1930.831615688486
 20
-3722.305438347478
 30
0.0
 10
1931.11741255989
 20
-3722.317275951112
 30
0.0
 10
1931.371337100195
 20
-3722.327760061458
 30
0.0
 10
1931.583504576538
 20
-3722.336498990057
 30
0.0
 10
1931.796202793243
 20
-3722.345236961352
 30
0.0
 10
1932.079319955225
 20
-3722.35684643576
 30
0.0
 10
1932.433310067255
 20
-3722.371335866944
 30
0.0
 10
1932.787190444378
 20
-3722.385781786846
 30
0.0
 10
1933.0705093565
 20
-3722.397324623226
 30
0.0
 10
1933.283074879383
 20
-3722.405973263274
 30
0.0
 10
1933.495865825487
 20
-3722.414620005886
 30
0.0
 10
1933.780044917327
 20
-3722.426151603488
 30
0.0
 10
1934.134645620552
 20
-3722.44050513016
 30
0.0
 10
1935.556368128284
 20
-3722.497860692653
 30
0.0
 10
1937.977556165411
 20
-3722.59406279176
 30
0.0
 10
1940.830241163801
 20
-3722.704351650938
 30
0.0
 10
1943.118691341347
 20
-3722.791002520989
 30
0.0
 10
1944.373408568386
 20
-3722.837848187351
 30
0.0
 10
1945.157213924512
 20
-3722.866864861735
 30
0.0
 10
1945.461244739776
 20
-3722.878091353963
 30
0.0
 10
1945.741971406597
 20
-3722.888434010034
 30
0.0
 10
1945.995240662886
 20
-3722.89774630896
 30
0.0
 10
1946.216899241799
 20
-3722.905881850807
 30
0.0
 10
1946.402793879196
 20
-3722.912694163936
 30
0.0
 10
1946.800679281456
 20
-3722.927256483416
 30
0.0
 10
1947.425559697365
 20
-3722.950040832623
 30
0.0
 10
1948.2896727936
 20
-3722.981342912832
 30
0.0
 10
1949.155789473098
 20
-3723.012512120339
 30
0.0
 10
1949.854012408941
 20
-3723.037474799462
 30
0.0
 10
1950.401336217358
 20
-3723.056949967224
 30
0.0
 10
1950.812688530766
 20
-3723.071540765305
 30
0.0
 10
1951.26880329252
 20
-3723.087662486273
 30
0.0
 10
1952.166490400469
 20
-3723.119269071738
 30
0.0
 10
1953.490936827578
 20
-3723.165478234707
 30
0.0
 10
1954.98414052043
 20
-3723.216834763221
 30
0.0
 10
1956.22182379898
 20
-3723.258922339391
 30
0.0
 10
1957.191827919133
 20
-3723.291640907056
 30
0.0
 10
1958.125679761336
 20
-3723.322893073119
 30
0.0
 10
1959.021793787694
 20
-3723.352655487489
 30
0.0
 10
1959.878584469262
 20
-3723.380904525229
 30
0.0
 10
1960.694466273324
 20
-3723.407616637709
 30
0.0
 10
1961.467853673788
 20
-3723.43276821159
 30
0.0
 10
1964.312896724569
 20
-3723.52470575139
 30
0.0
 10
1969.256689872391
 20
-3723.679212738678
 30
0.0
 10
1976.327156419751
 20
-3723.886769939203
 30
0.0
 10
1983.435375456881
 20
-3724.082097378307
 30
0.0
 10
1990.579667847064
 20
-3724.265145095541
 30
0.0
 10
1997.757617878038
 20
-3724.435847478191
 30
0.0
 10
2003.108938522398
 20
-3724.553348249602
 30
0.0
 10
2006.636609148402
 20
-3724.626885671652
 30
0.0
 10
2008.34411476223
 20
-3724.661760817576
 30
0.0
 10
2010.094015901467
 20
-3724.696747944611
 30
0.0
 10
2011.885764660464
 20
-3724.731783221348
 30
0.0
 10
2013.718813117733
 20
-3724.766802797293
 30
0.0
 10
2015.592613351319
 20
-3724.801742829606
 30
0.0
 10
2017.506617458434
 20
-3724.836539458433
 30
0.0
 10
2021.225719662603
 20
-3724.902385919645
 30
0.0
 10
2026.743188111338
 20
-3724.993823955284
 30
0.0
 10
2035.520451637271
 20
-3725.123739185271
 30
0.0
 10
2045.792408557946
 20
-3725.25219431131
 30
0.0
 10
2057.563434396704
 20
-3725.36662986146
 30
0.0
 10
2069.367329994591
 20
-3725.447907880874
 30
0.0
 10
2081.196767565258
 20
-3725.498908342902
 30
0.0
 10
2089.090769352425
 20
-3725.50523605339
 30
0.0
 10
2093.040790919335
 20
-3725.508402329959
 30
0.0
 11
1871.902048042086
 21
-3721.368551400185
 31
0.0
 11
1871.904626904417
 21
-3721.345871717564
 31
0.0
 11
1871.911945765694
 21
-3721.323745920644
 31
0.0
 11
1871.96164906636
 21
-3721.258159540156
 31
0.0
 11
1872.052596222621
 21
-3721.193267475865
 31
0.0
 11
1872.113790289615
 21
-3721.160917792803
 31
0.0
 11
1872.185083164186
 21
-3721.128861864419
 31
0.0
 11
1872.22461028321
 21
-3721.112899639343
 31
0.0
 11
1872.266614058013
 21
-3721.097026676562
 31
0.0
 11
1872.315295108998
 21
-3721.079794834091
 31
0.0
 11
1872.358267942208
 21
-3721.065456775676
 31
0.0
 11
1872.611807160698
 21
-3720.992743909872
 31
0.0
 11
1872.888769416891
 21
-3720.928344751262
 31
0.0
 11
1873.17244236025
 21
-3720.872444960819
 31
0.0
 11
1873.446113640235
 21
-3720.825230199516
 31
0.0
 11
1873.628225009295
 21
-3720.796630677338
 31
0.0
 11
1873.808813962451
 21
-3720.770119168546
 31
0.0
 11
1873.856883676326
 21
-3720.763341045512
 31
0.0
 11
1873.904849496175
 21
-3720.756686780491
 31
0.0
 11
1873.966291450765
 21
-3720.748313131792
 31
0.0
 11
1874.002937685269
 21
-3720.743392724639
 31
0.0
 11
1874.102113996806
 21
-3720.730342232576
 31
0.0
 11
1874.205063423095
 21
-3720.717188559896
 31
0.0
 11
1874.641157716593
 21
-3720.665462140947
 31
0.0
 11
1875.089104031365
 21
-3720.618115812918
 31
0.0
 11
1875.227366865477
 21
-3720.604526233182
 31
0.0
 11
1875.388996192037
 21
-3720.589196419559
 31
0.0
 11
1875.572989328834
 21
-3720.572435963911
 31
0.0
 11
1875.70923567949
 21
-3720.560486094045
 31
0.0
 11
1875.880027027474
 21
-3720.546057208783
 31
0.0
 11
1876.083938873292
 21
-3720.529583232787
 31
0.0
 11
1876.415824464248
 21
-3720.50439827558
 31
0.0
 11
1876.78359778218
 21
-3720.478672997113
 31
0.0
 11
1877.18771898301
 21
-3720.452830762312
 31
0.0
 11
1878.142443264551
 21
-3720.400759041858
 31
0.0
 11
1879.140585597225
 21
-3720.358156951674
 31
0.0
 11
1880.174766525589
 21
-3720.325217008986
 31
0.0
 11
1881.237606594197
 21
-3720.302131731026
 31
0.0
 11
1882.321726347604
 21
-3720.289093635016
 31
0.0
 11
1882.687320468921
 21
-3720.287010232396
 31
0.0
 11
1883.090144419882
 21
-3720.286048495343
 31
0.0
 11
1883.527669252453
 21
-3720.28658304528
 31
0.0
 11
1883.997366018601
 21
-3720.288988503623
 31
0.0
 11
1884.496705770289
 21
-3720.293639491793
 31
0.0
 11
1885.023159559484
 21
-3720.300910631206
 31
0.0
 11
1885.500483829889
 21
-3720.309644790563
 31
0.0
 11
1885.942236503964
 21
-3720.319589422767
 31
0.0
 11
1886.347011541474
 21
-3720.330319084254
 31
0.0
 11
1886.745248730699
 21
-3720.342435819194
 31
0.0
 11
1887.172455197604
 21
-3720.357222552127
 31
0.0
 11
1887.624437385957
 21
-3720.374979502843
 31
0.0
 11
1888.061984635401
 21
-3720.394359070584
 31
0.0
 11
1888.457330667252
 21
-3720.413844719682
 31
0.0
 11
1888.65627010285
 21
-3720.424401815241
 31
0.0
 11
1888.85891180882
 21
-3720.435699570396
 31
0.0
 11
1888.908533365557
 21
-3720.438552408645
 31
0.0
 11
1888.957768915968
 21
-3720.441417346308
 31
0.0
 11
1889.006560470868
 21
-3720.444290513987
 31
0.0
 11
1889.056072979234
 21
-3720.447220554555
 31
0.0
 11
1889.154740153661
 21
-3720.453002299488
 31
0.0
 11
1889.253454623916
 21
-3720.458710423651
 31
0.0
 11
1890.062410431592
 21
-3720.502778207983
 31
0.0
 11
1890.879447081386
 21
-3720.542898939905
 31
0.0
 11
1891.087717228389
 21
-3720.552507245177
 31
0.0
 11
1891.29675205983
 21
-3720.561921195545
 31
0.0
 11
1891.439302353163
 21
-3720.568214985118
 31
0.0
 11
1891.559291645302
 21
-3720.57343660141
 31
0.0
 11
1891.653136579094
 21
-3720.577474964135
 31
0.0
 11
1891.717253797383
 21
-3720.580218993007
 31
0.0
 11
1892.139638712288
 21
-3720.598433004424
 31
0.0
 11
1892.558481202277
 21
-3720.616710376246
 31
0.0
 11
1893.403234255409
 21
-3720.654215137063
 31
0.0
 11
1894.231056010992
 21
-3720.691773163335
 31
0.0
 11
1894.456656303894
 21
-3720.702141601559
 31
0.0
 11
1894.656509612098
 21
-3720.711372809028
 31
0.0
 11
1894.826752668534
 21
-3720.719270159013
 31
0.0
 11
1894.963522206129
 21
-3720.725637024791
 31
0.0
 11
1895.062954957813
 21
-3720.730276779634
 31
0.0
 11
1895.31502470418
 21
-3720.742031709736
 31
0.0
 11
1895.539676545447
 21
-3720.752484883512
 31
0.0
 11
1895.733745090268
 21
-3720.761497652567
 31
0.0
 11
1895.894064947301
 21
-3720.768931368503
 31
0.0
 11
1896.146369908389
 21
-3720.78061044639
 31
0.0
 11
1896.358308428652
 21
-3720.790401330323
 31
0.0
 11
1896.527321751756
 21
-3720.798194957389
 31
0.0
 11
1896.650851121369
 21
-3720.803882264677
 31
0.0
 11
1896.726337781156
 21
-3720.807354189275
 31
0.0
 11
1897.144407065133
 21
-3720.826572184125
 31
0.0
 11
1897.55936821447
 21
-3720.845625974253
 31
0.0
 11
1899.230231298753
 21
-3720.922132378745
 31
0.0
 11
1900.895000860736
 21
-3720.998018504242
 31
0.0
 11
1904.243864730792
 21
-3721.149644163695
 31
0.0
 11
1907.582900595072
 21
-3721.299465381818
 31
0.0
 11
1914.323267519987
 21
-3721.597801024535
 31
0.0
 11
1921.023360315853
 21
-3721.888971464569
 31
0.0
 11
1924.3787181222
 21
-3722.032790568658
 31
0.0
 11
1927.774848088489
 21
-3722.177010572196
 31
0.0
 11
1928.617916417271
 21
-3722.212603280995
 31
0.0
 11
1929.465885410762
 21
-3722.248319259522
 31
0.0
 11
1929.601849947843
 21
-3722.254039712078
 31
0.0
 11
1929.776636221531
 21
-3722.261386341533
 31
0.0
 11
1929.988152422443
 21
-3722.270259302919
 31
0.0
 11
1930.234306741198
 21
-3722.280558751263
 31
0.0
 11
1930.513007368412
 21
-3722.292184841597
 31
0.0
 11
1930.822162494702
 21
-3722.305037728949
 31
0.0
 11
1931.159680310686
 21
-3722.319017568346
 31
0.0
 11
1931.370397139314
 21
-3722.327717782014
 31
0.0
 11
1931.583935167708
 21
-3722.33651289601
 31
0.0
 11
1931.796182773008
 21
-3722.345233463408
 31
0.0
 11
1932.008491433266
 21
-3722.353940299401
 31
0.0
 11
1932.433287233364
 21
-3722.371327126427
 31
0.0
 11
1932.85815435945
 21
-3722.38867108183
 31
0.0
 11
1933.070131365487
 21
-3722.397307300898
 31
0.0
 11
1933.283243046133
 21
-3722.405978255622
 31
0.0
 11
1933.495850910769
 21
-3722.414617405418
 31
0.0
 11
1933.70850425635
 21
-3722.42324621125
 31
0.0
 11
1934.135781602682
 21
-3722.440541410571
 31
0.0
 11
1934.559654489084
 21
-3722.45764146577
 31
0.0
 11
1937.973752248338
 21
-3722.593302659073
 31
0.0
 11
1941.399476972896
 21
-3722.725752989451
 31
0.0
 11
1943.117616257089
 21
-3722.790810528729
 31
0.0
 11
1944.839032087594
 21
-3722.855080276257
 31
0.0
 11
1945.163598096907
 21
-3722.86709592429
 31
0.0
 11
1945.46901323723
 21
-3722.87837381371
 31
0.0
 11
1945.751124241041
 21
-3722.888767562098
 31
0.0
 11
1946.005777840819
 21
-3722.89813078703
 31
0.0
 11
1946.228820769039
 21
-3722.906317106085
 31
0.0
 11
1946.416099758183
 21
-3722.913180136843
 31
0.0
 11
1946.563461540725
 21
-3722.918573496882
 31
0.0
 11
1947.422480967675
 21
-3722.949894766695
 31
0.0
 11
1948.290747732131
 21
-3722.981347460949
 31
0.0
 11
1949.155800799757
 21
-3723.012478562784
 31
0.0
 11
1950.020830857204
 21
-3723.043404525864
 31
0.0
 11
1950.385411432696
 21
-3723.0563769238
 31
0.0
 11
1950.797768672167
 21
-3723.071003433014
 31
0.0
 11
1951.254888364631
 21
-3723.087160682111
 31
0.0
 11
1951.7537562991
 21
-3723.104725299692
 31
0.0
 11
1953.490847208105
 21
-3723.165331547157
 31
0.0
 11
1955.228251652018
 21
-3723.22508810496
 31
0.0
 11
1956.233350645333
 21
-3723.259267473788
 31
0.0
 11
1957.203882901764
 21
-3723.292003934287
 31
0.0
 11
1958.138262888878
 21
-3723.323273947432
 31
0.0
 11
1959.034905074239
 21
-3723.353053974194
 31
0.0
 11
1959.892223925413
 21
-3723.38132047555
 31
0.0
 11
1960.708633909964
 21
-3723.408049912472
 31
0.0
 11
1961.482549495459
 21
-3723.433218745934
 31
0.0
 11
1962.212385149462
 21
-3723.45680343691
 31
0.0
 11
1969.24399389001
 21
-3723.676598463438
 31
0.0
 11
1976.314297695102
 21
-3723.884187247085
 31
0.0
 11
1983.423744489592
 21
-3724.079582032235
 31
0.0
 11
1990.56861112617
 21
-3724.262675667086
 31
0.0
 11
1997.74713587273
 21
-3724.433420444534
 31
0.0
 11
2004.957556997161
 21
-3724.591768657474
 31
0.0
 11
2006.622302002205
 21
-3724.626472028565
 31
0.0
 11
2008.329990444606
 21
-3724.661351211679
 31
0.0
 11
2010.080074405313
 21
-3724.696342348843
 31
0.0
 11
2011.872005965278
 21
-3724.731381582087
 31
0.0
 11
2013.705237205451
 21
-3724.766405053439
 31
0.0
 11
2015.579220206782
 21
-3724.801348904929
 31
0.0
 11
2017.493407050221
 21
-3724.836149278584
 31
0.0
 11
2019.447249816719
 21
-3724.870742316435
 31
0.0
 11
2026.736651376823
 21
-3724.991566729138
 31
0.0
 11
2034.045966842576
 21
-3725.099767572599
 31
0.0
 11
2045.779191881774
 21
-3725.246594606007
 31
0.0
 11
2057.552614336498
 21
-3725.360967118379
 31
0.0
 11
2069.358906679298
 21
-3725.442789589785
 31
0.0
 11
2081.190741382727
 21
-3725.491966500289
 31
0.0
 11
2093.040790919335
 21
-3725.508402329959
 31
0.0
  0
SPLINE
  5
135
330
1F
100
AcDbEntity
  8
0
  6
Continuous
 62
     7
100
AcDbSpline
210
0.0
220
0.0
230
1.0
 70
     8
 71
     3
 72
    43
 73
    39
 74
    37
 42
0.0000000001
 43
0.0000000001
 44
0.00000001
 40
0.0
 40
0.0
 40
0.0
 40
0.0
 40
9.152884979236811
 40
18.15813222827458
 40
21.50882745124118
 40
24.82730666697871
 40
27.91104343779408
 40
31.55757407858335
 40
38.38835957334429
 40
45.24195996520189
 40
59.44086074755742
 40
73.7898891825334
 40
89.00990120152214
 40
104.4451816475267
 40
112.5741601128841
 40
120.7609784061897
 40
122.8572114874537
 40
124.9560709248448
 40
126.8900240260384
 40
129.2000665433388
 40
132.9559009669061
 40
136.7489951014836
 40
150.8491282320694
 40
164.2499033815539
 40
179.7803222772177
 40
194.7623550867051
 40
198.6144044164319
 40
202.4386975131336
 40
206.3243420177392
 40
210.183437269876
 40
214.067072142863
 40
217.9254465630123
 40
219.8638099113357
 40
221.7960576479054
 40
224.070596534145
 40
225.6667192046636
 40
241.0178211711688
 40
256.6366324530564
 40
256.6366324530564
 40
256.6366324530564
 40
256.6366324530564
 10
1867.299942648605
 20
-3977.951913844411
 30
0.0
 10
1867.386663248541
 20
-3974.902184884763
 30
0.0
 10
1867.558705629071
 20
-3968.851919658518
 30
0.0
 10
1867.765311982625
 20
-3961.685287817114
 30
0.0
 10
1867.916884784976
 20
-3956.462679631109
 30
0.0
 10
1868.011582680313
 20
-3953.213088744083
 30
0.0
 10
1868.109525060234
 20
-3949.864938761516
 30
0.0
 10
1868.242217234128
 20
-3945.346535753075
 30
0.0
 10
1868.412477790656
 20
-3939.572073091689
 30
0.0
 10
1868.686567089598
 20
-3930.281686514542
 30
0.0
 10
1869.032395773969
 20
-3918.486244761863
 30
0.0
 10
1869.448128989691
 20
-3903.902852713189
 30
0.0
 10
1869.854728336412
 20
-3888.906916975795
 30
0.0
 10
1870.178959796623
 20
-3875.982879630175
 30
0.0
 10
1870.423040473217
 20
-3865.401998727089
 30
0.0
 10
1870.554899181669
 20
-3859.266068675812
 30
0.0
 10
1870.638961339526
 20
-3855.139621135132
 30
0.0
 10
1870.679613086798
 20
-3853.097010324138
 30
0.0
 10
1870.720696012401
 20
-3850.983124417123
 30
0.0
 10
1870.771202551543
 20
-3848.316992642413
 30
0.0
 10
1870.831190824949
 20
-3845.031216055952
 30
0.0
 10
1870.956927840372
 20
-3837.815957168541
 30
0.0
 10
1871.118776644536
 20
-3827.385862187958
 30
0.0
 10
1871.303644198167
 20
-3813.043265011692
 30
0.0
 10
1871.456207986462
 20
-3798.406302496593
 30
0.0
 10
1871.550416900297
 20
-3786.951848771061
 30
0.0
 10
1871.604461497948
 20
-3779.399250361474
 30
0.0
 10
1871.63049839515
 20
-3775.545342549935
 30
0.0
 10
1871.655138186493
 20
-3771.689076911132
 30
0.0
 10
1871.678626165819
 20
-3767.813023136408
 30
0.0
 10
1871.700937851574
 20
-3763.94605260847
 30
0.0
 10
1871.718754996837
 20
-3760.719310889498
 30
0.0
 10
1871.732586451145
 20
-3758.143019513333
 30
0.0
 10
1871.7433963749
 20
-3756.09466471134
 30
0.0
 10
1871.753441218256
 20
-3754.160387690681
 30
0.0
 10
1871.786223708952
 20
-3747.75321706254
 30
0.0
 10
1871.838631362798
 20
-3736.897997163373
 30
0.0
 10
1871.880787680144
 20
-3726.574778553494
 30
0.0
 10
1871.902048042086
 20
-3721.368551400185
 30
0.0
 11
1867.299942648605
 21
-3977.951913844411
 31
0.0
 11
1867.56070874507
 21
-3968.802744238044
 31
0.0
 11
1867.82005044767
 21
-3959.801232148534
 31
0.0
 11
1867.917263034985
 21
-3956.451947420405
 31
0.0
 11
1868.013925638456
 21
-3953.134876325844
 31
0.0
 11
1868.104093456979
 21
-3950.052458080994
 31
0.0
 11
1868.211109812537
 21
-3946.407498106748
 31
0.0
 11
1868.412273375087
 21
-3939.579675342752
 31
0.0
 11
1868.614227297538
 21
-3932.729051068682
 31
0.0
 11
1869.029021232063
 21
-3918.536210288237
 31
0.0
 11
1869.436625630666
 21
-3904.19297231064
 31
0.0
 11
1869.84768425795
 21
-3888.978512193268
 31
0.0
 11
1870.233239669084
 21
-3873.54804786222
 31
0.0
 11
1870.420466438899
 21
-3865.421225787946
 31
0.0
 11
1870.596089683064
 21
-3857.236291442228
 31
0.0
 11
1870.638779611496
 21
-3855.140493097683
 31
0.0
 11
1870.680536883563
 21
-3853.04204908648
 31
0.0
 11
1870.718115898007
 21
-3851.108461122282
 31
0.0
 11
1870.761873322029
 21
-3848.798833074397
 31
0.0
 11
1870.830447109898
 21
-3845.043624710954
 31
0.0
 11
1870.896553443953
 21
-3841.251106673243
 31
0.0
 11
1871.116062434717
 21
-3827.152682289532
 31
0.0
 11
1871.289393299288
 21
-3813.753028151517
 31
0.0
 11
1871.452320973992
 21
-3798.223463906259
 31
0.0
 11
1871.57668337643
 21
-3783.241947257487
 31
0.0
 11
1871.604270124782
 21
-3779.38999671134
 31
0.0
 11
1871.630128555643
 21
-3775.565791038127
 31
0.0
 11
1871.654980442882
 21
-3771.680226008447
 31
0.0
 11
1871.678390704794
 21
-3767.821201763291
 31
0.0
 11
1871.70082533144
 21
-3763.937631689994
 31
0.0
 11
1871.722157916522
 21
-3760.079316243212
 31
0.0
 11
1871.73256782959
 21
-3758.140980848128
 31
0.0
 11
1871.74276931444
 21
-3756.208760041599
 31
0.0
 11
1871.7545814568
 21
-3753.934251826993
 31
0.0
 11
1871.762750290611
 21
-3752.338150060345
 31
0.0
 11
1871.836312922575
 21
-3736.98722435128
 31
0.0
 11
1871.902048042086
 21
-3721.368551400185
 31
0.0
  0
SPLINE
  5
136
330
1F
100
AcDbEntity
  8
0
  6
Continuous
 62
     7
100
AcDbSpline
210
0.0
220
0.0
230
1.0
 70
     8
 71
     3
 72
    31
 73
    27
 74
    25
 42
0.0000000001
 43
0.0000000001
 44
0.00000001
 40
0.0
 40
0.0
 40
0.0
 40
0.0
 40
2.456043933954392
 40
4.915455185163868
 40
7.011688266427862
 40
9.11054770381896
 40
11.04450080501259
 40
13.354543322313
 40
17.1103777458803
 40
20.90347188045774
 40
35.0036050110436
 40
48.40438016052808
 40
63.93479905619189
 40
78.91683186567933
 40
82.76888119540612
 40
86.5931742921078
 40
90.47881879671341
 40
94.33791404885017
 40
98.22154892183723
 40
102.0799233419865
 40
104.0182866903099
 40
105.9505344268796
 40
108.2250733131192
 40
109.8211959836378
 40
125.172297950143
 40
140.7911092320306
 40
140.7911092320306
 40
140.7911092320306
 40
140.7911092320306
 10
2928.492287368221
 20
-3862.150650316617
 30
0.0
 10
2928.509876032864
 20
-3861.332157948407
 30
0.0
 10
2928.54507747679
 20
-3859.69405103195
 30
0.0
 10
2928.593770979781
 20
-3857.357328737649
 30
0.0
 10
2928.638964396371
 20
-3855.139621195319
 30
0.0
 10
2928.679612344233
 20
-3853.097010309516
 30
0.0
 10
2928.720696243292
 20
-3850.983124421668
 30
0.0
 10
2928.771202438232
 20
-3848.316992640182
 30
0.0
 10
2928.831190860148
 20
-3845.031216056643
 30
0.0
 10
2928.956927800374
 20
-3837.815957167755
 30
0.0
 10
2929.118776659146
 20
-3827.385862188244
 30
0.0
 10
2929.303644193636
 20
-3813.043265011603
 30
0.0
 10
2929.456207987751
 20
-3798.406302496618
 30
0.0
 10
2929.550416900221
 20
-3786.951848771061
 30
0.0
 10
2929.604461497956
 20
-3779.399250361474
 30
0.0
 10
2929.630498395148
 20
-3775.545342549936
 30
0.0
 10
2929.655138186494
 20
-3771.689076911131
 30
0.0
 10
2929.678626165819
 20
-3767.81302313641
 30
0.0
 10
2929.700937851574
 20
-3763.94605260847
 30
0.0
 10
2929.718754996837
 20
-3760.719310889494
 30
0.0
 10
2929.732586451146
 20
-3758.143019513334
 30
0.0
 10
2929.7433963749
 20
-3756.094664711339
 30
0.0
 10
2929.753441218257
 20
-3754.160387690681
 30
0.0
 10
2929.78622370895
 20
-3747.753217062539
 30
0.0
 10
2929.838631362799
 20
-3736.897997163375
 30
0.0
 10
2929.880787680144
 20
-3726.574778553494
 30
0.0
 10
2929.902048042086
 20
-3721.368551400185
 30
0.0
 11
2928.492287368221
 21
-3862.150650316617
 31
0.0
 11
2928.544787356765
 21
-3859.695167562306
 31
0.0
 11
2928.596089683064
 21
-3857.236291442228
 31
0.0
 11
2928.638779611496
 21
-3855.140493097683
 31
0.0
 11
2928.680536883563
 21
-3853.04204908648
 31
0.0
 11
2928.718115898007
 21
-3851.108461122282
 31
0.0
 11
2928.761873322029
 21
-3848.798833074397
 31
0.0
 11
2928.830447109898
 21
-3845.043624710954
 31
0.0
 11
2928.896553443953
 21
-3841.251106673243
 31
0.0
 11
2929.116062434717
 21
-3827.152682289532
 31
0.0
 11
2929.289393299288
 21
-3813.753028151517
 31
0.0
 11
2929.452320973992
 21
-3798.223463906259
 31
0.0
 11
2929.57668337643
 21
-3783.241947257487
 31
0.0
 11
2929.604270124782
 21
-3779.38999671134
 31
0.0
 11
2929.630128555643
 21
-3775.565791038127
 31
0.0
 11
2929.654980442882
 21
-3771.680226008447
 31
0.0
 11
2929.678390704794
 21
-3767.821201763291
 31
0.0
 11
2929.70082533144
 21
-3763.937631689994
 31
0.0
 11
2929.722157916522
 21
-3760.079316243212
 31
0.0
 11
2929.73256782959
 21
-3758.140980848128
 31
0.0
 11
2929.74276931444
 21
-3756.208760041599
 31
0.0
 11
2929.7545814568
 21
-3753.934251826993
 31
0.0
 11
2929.762750290611
 21
-3752.338150060345
 31
0.0
 11
2929.836312922574
 21
-3736.98722435128
 31
0.0
 11
2929.902048042086
 21
-3721.368551400185
 31
0.0
  0
SPLINE
  5
137
330
1F
100
AcDbEntity
  8
0
  6
Continuous
 62
     7
100
AcDbSpline
210
0.0
220
0.0
230
1.0
 70
     8
 71
     3
 72
   174
 73
   170
 74
   168
 42
0.0000000001
 43
0.0000000001
 44
0.00000001
 40
0.0
 40
0.0
 40
0.0
 40
0.0
 40
0.0228258304272036
 40
0.0461306930046714
 40
0.1284228032135211
 40
0.2401473092089865
 40
0.3093659181916679
 40
0.3875340479448727
 40
0.430162509888936
 40
0.4750653833510886
 40
0.526706269477656
 40
0.5720079726818694
 40
0.8357678941367753
 40
1.120118633516246
 40
1.40924684965081
 40
1.686961096987124
 40
1.871304481488757
 40
2.053829082845918
 40
2.102374323023469
 40
2.15079951395477
 40
2.212809446839494
 40
2.249784531827721
 40
2.349815807502408
 40
2.45360214320357
 40
2.892753432896532
 40
3.343194967055441
 40
3.48212404239241
 40
3.644478723229897
 40
3.829233661627155
 40
3.966003056803204
 40
4.137402815485231
 40
4.341979042720871
 40
4.67481883534412
 40
5.043490780757532
 40
5.448437402005625
 40
6.404580653738011
 40
7.403631730693401
 40
8.438337115049428
 40
9.501427864467672
 40
10.58562601594809
 40
10.95122607353556
 40
11.35405117256305
 40
11.79157633167949
 40
12.26127925732385
 40
12.76064066883607
 40
13.28714466846571
 40
13.76454884173753
 40
14.20641343724435
 40
14.6113306591877
 40
15.00975213720814
 40
15.43721443125922
 40
15.88954529234177
 40
16.327521505328
 40
16.72334744614153
 40
16.92256680088098
 40
17.12552320080431
 40
17.17522669745299
 40
17.22454553048923
 40
17.27342160768589
 40
17.32302073693628
 40
17.42185716687901
 40
17.52073653438897
 40
18.33089174691781
 40
19.14891287148479
 40
19.35740453477873
 40
19.5666512389747
 40
19.70934040435355
 40
19.8294432582111
 40
19.92337504182017
 40
19.98755095143991
 40
20.41032839472542
 40
20.82956948734546
 40
21.67515468580859
 40
22.50382800162928
 40
22.72966643208057
 40
22.92973282104104
 40
23.10015895284302
 40
23.2370766047144
 40
23.33661754821248
 40
23.58896123332309
 40
23.8138561390602
 40
24.00813385290059
 40
24.16862596078071
 40
24.42120108673287
 40
24.63336564027408
 40
24.80255855977585
 40
24.92621878224492
 40
25.00178524349798
 40
25.42029600504489
 40
25.83569437092736
 40
27.5083080969118
 40
29.17480634129892
 40
32.52710101223225
 40
35.8694963958379
 40
42.6164624131086
 40
49.32287901949137
 40
52.681317636366
 40
56.0805084455653
 40
56.9243277674079
 40
57.77304859609334
 40
57.9091334186165
 40
58.08407402120418
 40
58.29577624767493
 40
58.54214594402028
 40
58.82108895896428
 40
59.13051114437606
 40
59.46831835569029
 40
59.67921471788098
 40
59.89293379424146
 40
60.10536047394892
 40
60.31784759406042
 40
60.7429990653438
 40
61.16822005214728
 40
61.38037291064384
 40
61.59366091753482
 40
61.80644423223385
 40
62.0192725707529
 40
62.4468998086691
 40
62.87111748358961
 40
66.28790946864126
 40
69.71619373026012
 40
71.43556427883387
 40
73.15817945987759
 40
73.48296780664936
 40
73.78859110210966
 40
74.07089350818721
 40
74.32571918558375
 40
74.54891229401001
 40
74.73631699236536
 40
74.88377743888127
 40
75.74336768883728
 40
76.61220394857544
 40
77.47781700029641
 40
78.34339970315062
 40
78.70821099564964
 40
79.12082755822993
 40
79.57823270679816
 40
80.07740976139091
 40
81.81555760992916
 40
83.55398938826575
 40
84.55966936500619
 40
85.53075357176633
 40
86.46565665446589
 40
87.36279324304262
 40
88.22057795243994
 40
89.0374253835272
 40
89.81175012396201
 40
90.54196674901425
 40
97.57700984297176
 40
104.6503604633916
 40
111.7624918489703
 40
118.9097040700831
 40
126.090259154197
 40
133.3024188132858
 40
134.967525493286
 40
136.6755700985952
 40
138.4260038303334
 40
140.2182779342204
 40
142.0518437016506
 40
143.9261524707793
 40
145.8406556276327
 40
147.7948046072307
 40
155.0852074522839
 40
162.3953237304574
 40
174.1294674145192
 40
185.9034453900793
 40
197.7100212611987
 40
209.541958161714
 40
221.3920190964337
 40
221.3920190964337
 40
221.3920190964337
 40
221.3920190964337
 10
2929.902048042086
 20
-3721.368551400185
 30
0.0
 10
2929.90257511888
 20
-3721.360931519028
 30
0.0
 10
2929.903640333915
 20
-3721.345531842794
 30
0.0
 10
2929.917949334177
 20
-3721.304707070645
 30
0.0
 10
2929.966199372259
 20
-3721.247756658612
 30
0.0
 10
2930.039608289031
 20
-3721.19906089178
 30
0.0
 10
2930.116127375506
 20
-3721.158902032681
 30
0.0
 10
2930.174029099916
 20
-3721.133127056675
 30
0.0
 10
2930.225256259246
 20
-3721.11247064253
 30
0.0
 10
2930.268665615528
 20
-3721.096096319598
 30
0.0
 10
2930.31324908144
 20
-3721.080342010244
 30
0.0
 10
2930.427323801153
 20
-3721.042337224382
 30
0.0
 10
2930.617952440541
 20
-3720.988936328029
 30
0.0
 10
2930.890004190373
 20
-3720.926486874544
 30
0.0
 10
2931.168507765874
 20
-3720.872061610992
 30
0.0
 10
2931.415308648782
 20
-3720.829700850822
 30
0.0
 10
2931.627579953235
 20
-3720.796420573301
 30
0.0
 10
2931.764588967124
 20
-3720.776335863472
 30
0.0
 10
2931.856841533134
 20
-3720.763328663703
 30
0.0
 10
2931.909332453955
 20
-3720.756047546876
 30
0.0
 10
2931.958019532511
 20
-3720.749414818866
 30
0.0
 10
2932.023768305829
 20
-3720.740586905808
 30
0.0
 10
2932.103347106608
 20
-3720.730117961387
 30
0.0
 10
2932.315943127312
 20
-3720.702962659771
 30
0.0
 10
2932.644794912217
 20
-3720.664113280864
 30
0.0
 10
2932.985756652171
 20
-3720.628194159358
 30
0.0
 10
2933.235130922544
 20
-3720.603689841254
 30
0.0
 10
2933.396420952604
 20
-3720.588398373613
 30
0.0
 10
2933.557049589885
 20
-3720.573769370422
 30
0.0
 10
2933.720729317618
 20
-3720.559411673777
 30
0.0
 10
2933.891038814157
 20
-3720.545031787906
 30
0.0
 10
2934.126544728365
 20
-3720.526014825232
 30
0.0
 10
2934.427711818101
 20
-3720.503185173357
 30
0.0
 10
2934.795636708067
 20
-3720.477480994947
 30
0.0
 10
2935.371054927781
 20
-3720.440735860971
 30
0.0
 10
2936.156638569779
 20
-3720.398159224367
 30
0.0
 10
2937.152395053758
 20
-3720.35589652086
 30
0.0
 10
2938.184178605785
 20
-3720.323205663778
 30
0.0
 10
2939.244612216852
 20
-3720.300288279168
 30
0.0
 10
2940.082196087752
 20
-3720.290265582935
 30
0.0
 10
2940.699727781495
 20
-3720.286747515398
 30
0.0
 10
2941.101710957318
 20
-3720.285788778804
 30
0.0
 10
2941.538396027842
 20
-3720.286322158743
 30
0.0
 10
2942.007254341998
 20
-3720.288721296093
 30
0.0
 10
2942.505757091869
 20
-3720.293359852899
 30
0.0
 10
2943.006801120599
 20
-3720.300272318266
 30
0.0
 10
2943.488646358356
 20
-3720.30908040031
 30
0.0
 10
2943.929931330731
 20
-3720.319005711036
 30
0.0
 10
2944.344854607465
 20
-3720.329995756998
 30
0.0
 10
2944.754933196222
 20
-3720.34246278375
 30
0.0
 10
2945.180751621678
 20
-3720.357186987244
 30
0.0
 10
2945.619672089089
 20
-3720.374410111275
 30
0.0
 10
2946.047966043265
 20
-3720.393356353738
 30
0.0
 10
2946.391891506931
 20
-3720.410288321918
 30
0.0
 10
2946.657518791519
 20
-3720.424380022919
 30
0.0
 10
2946.807912060009
 20
-3720.432761605504
 30
0.0
 10
2946.908405677375
 20
-3720.438539475414
 30
0.0
 10
2946.957621958818
 20
-3720.441402309687
 30
0.0
 10
2947.006801247951
 20
-3720.444301704989
 30
0.0
 10
2947.072456349397
 20
-3720.448196876822
 30
0.0
 10
2947.154753769474
 20
-3720.453014738879
 30
0.0
 10
2947.490150328445
 20
-3720.472412057714
 30
0.0
 10
2948.064991844508
 20
-3720.503637611157
 30
0.0
 10
2948.676484521841
 20
-3720.533577391569
 30
0.0
 10
2949.087966904688
 20
-3720.552556817292
 30
0.0
 10
2949.274587049531
 20
-3720.560959621362
 30
0.0
 10
2949.431780195241
 20
-3720.56789920307
 30
0.0
 10
2949.550575715852
 20
-3720.57306861234
 30
0.0
 10
2949.643226901699
 20
-3720.577053755236
 30
0.0
 10
2949.836678657374
 20
-3720.58532221324
 30
0.0
 10
2950.138462435353
 20
-3720.598349750987
 30
0.0
 10
2950.700462429878
 20
-3720.622868599447
 30
0.0
 10
2951.397608684302
 20
-3720.653827620018
 30
0.0
 10
2952.030323378271
 20
-3720.682537986985
 30
0.0
 10
2952.448075102595
 20
-3720.70173806171
 30
0.0
 10
2952.646640381708
 20
-3720.710909752177
 30
0.0
 10
2952.815595406734
 20
-3720.718747562648
 30
0.0
 10
2952.951076946568
 20
-3720.725054119291
 30
0.0
 10
2953.11383377223
 20
-3720.732652444628
 30
0.0
 10
2953.305884806561
 20
-3720.741610582775
 30
0.0
 10
2953.529481683512
 20
-3720.752013994603
 30
0.0
 10
2953.722495223746
 20
-3720.760977851099
 30
0.0
 10
2953.924726273036
 20
-3720.770354596777
 30
0.0
 10
2954.132913931458
 20
-3720.779991788228
 30
0.0
 10
2954.343999659585
 20
-3720.789743594566
 30
0.0
 10
2954.512160188057
 20
-3720.797498186706
 30
0.0
 10
2954.634836769785
 20
-3720.80314630253
 30
0.0
 10
2954.840531855627
 20
-3720.812605784987
 30
0.0
 10
2955.143370505908
 20
-3720.826528644629
 30
0.0
 10
2955.977998785337
 20
-3720.864851156727
 30
0.0
 10
2957.228192320939
 20
-3720.922096448907
 30
0.0
 10
2959.456347544133
 20
-3721.02366307893
 30
0.0
 10
2962.240558111655
 20
-3721.149722080459
 30
0.0
 10
2966.716606814982
 20
-3721.3505586604
 30
0.0
 10
2972.309724646373
 20
-3721.598106915131
 30
0.0
 10
2977.908381851423
 20
-3721.841402362614
 30
0.0
 10
2982.392280303848
 20
-3722.033592985145
 30
0.0
 10
2984.923815172254
 20
-3722.141093647277
 30
0.0
 10
2986.619548154726
 20
-3722.212687468059
 30
0.0
 10
2987.228550074818
 20
-3722.238333035754
 30
0.0
 10
2987.614790391282
 20
-3722.254584991029
 30
0.0
 10
2987.788879185633
 20
-3722.261903333634
 30
0.0
 10
2987.999697943996
 20
-3722.270747156178
 30
0.0
 10
2988.245154818699
 20
-3722.281017528346
 30
0.0
 10
2988.523158005292
 20
-3722.29261449255
 30
0.0
 10
2988.831615688487
 20
-3722.305438347479
 30
0.0
 10
2989.117412559889
 20
-3722.31727595111
 30
0.0
 10
2989.371337100196
 20
-3722.327760061459
 30
0.0
 10
2989.583504576538
 20
-3722.336498990056
 30
0.0
 10
2989.796202793244
 20
-3722.345236961352
 30
0.0
 10
2990.079319955224
 20
-3722.356846435761
 30
0.0
 10
2990.433310067254
 20
-3722.371335866941
 30
0.0
 10
2990.787190444379
 20
-3722.385781786847
 30
0.0
 10
2991.0705093565
 20
-3722.397324623226
 30
0.0
 10
2991.283074879384
 20
-3722.405973263276
 30
0.0
 10
2991.495865825487
 20
-3722.414620005885
 30
0.0
 10
2991.780044917328
 20
-3722.42615160349
 30
0.0
 10
2992.134645620551
 20
-3722.44050513016
 30
0.0
 10
2993.556368128283
 20
-3722.497860692652
 30
0.0
 10
2995.977556165411
 20
-3722.594062791761
 30
0.0
 10
2998.830241163801
 20
-3722.704351650938
 30
0.0
 10
3001.118691341346
 20
-3722.79100252099
 30
0.0
 10
3002.373408568387
 20
-3722.837848187348
 30
0.0
 10
3003.157213924513
 20
-3722.866864861737
 30
0.0
 10
3003.461244739775
 20
-3722.878091353962
 30
0.0
 10
3003.741971406597
 20
-3722.888434010034
 30
0.0
 10
3003.995240662887
 20
-3722.89774630896
 30
0.0
 10
3004.216899241798
 20
-3722.905881850806
 30
0.0
 10
3004.402793879196
 20
-3722.912694163937
 30
0.0
 10
3004.800679281455
 20
-3722.927256483414
 30
0.0
 10
3005.425559697365
 20
-3722.950040832623
 30
0.0
 10
3006.289672793599
 20
-3722.981342912831
 30
0.0
 10
3007.155789473099
 20
-3723.01251212034
 30
0.0
 10
3007.854012408941
 20
-3723.037474799463
 30
0.0
 10
3008.401336217358
 20
-3723.056949967223
 30
0.0
 10
3008.812688530766
 20
-3723.071540765305
 30
0.0
 10
3009.26880329252
 20
-3723.087662486274
 30
0.0
 10
3010.166490400469
 20
-3723.119269071739
 30
0.0
 10
3011.490936827578
 20
-3723.165478234706
 30
0.0
 10
3012.98414052043
 20
-3723.216834763221
 30
0.0
 10
3014.22182379898
 20
-3723.25892233939
 30
0.0
 10
3015.191827919133
 20
-3723.291640907056
 30
0.0
 10
3016.125679761336
 20
-3723.32289307312
 30
0.0
 10
3017.021793787694
 20
-3723.352655487488
 30
0.0
 10
3017.878584469262
 20
-3723.38090452523
 30
0.0
 10
3018.694466273323
 20
-3723.407616637707
 30
0.0
 10
3019.467853673789
 20
-3723.432768211591
 30
0.0
 10
3022.312896724567
 20
-3723.524705751387
 30
0.0
 10
3027.256689872392
 20
-3723.679212738679
 30
0.0
 10
3034.327156419751
 20
-3723.886769939202
 30
0.0
 10
3041.435375456881
 20
-3724.082097378307
 30
0.0
 10
3048.579667847063
 20
-3724.26514509554
 30
0.0
 10
3055.757617878037
 20
-3724.43584747819
 30
0.0
 10
3061.108938522398
 20
-3724.553348249603
 30
0.0
 10
3064.636609148402
 20
-3724.626885671651
 30
0.0
 10
3066.34411476223
 20
-3724.661760817578
 30
0.0
 10
3068.094015901466
 20
-3724.69674794461
 30
0.0
 10
3069.885764660465
 20
-3724.731783221348
 30
0.0
 10
3071.718813117732
 20
-3724.766802797292
 30
0.0
 10
3073.592613351319
 20
-3724.801742829605
 30
0.0
 10
3075.506617458433
 20
-3724.836539458433
 30
0.0
 10
3079.225719662604
 20
-3724.902385919647
 30
0.0
 10
3084.743188111339
 20
-3724.993823955285
 30
0.0
 10
3093.52045163727
 20
-3725.12373918527
 30
0.0
 10
3103.792408557946
 20
-3725.25219431131
 30
0.0
 10
3115.563434396703
 20
-3725.36662986146
 30
0.0
 10
3127.367329994592
 20
-3725.447907880874
 30
0.0
 10
3139.196767565258
 20
-3725.498908342902
 30
0.0
 10
3147.090769352425
 20
-3725.50523605339
 30
0.0
 10
3151.040790919335
 20
-3725.508402329959
 30
0.0
 11
2929.902048042086
 21
-3721.368551400185
 31
0.0
 11
2929.904626904417
 21
-3721.345871717564
 31
0.0
 11
2929.911945765694
 21
-3721.323745920644
 31
0.0
 11
2929.96164906636
 21
-3721.258159540156
 31
0.0
 11
2930.052596222621
 21
-3721.193267475865
 31
0.0
 11
2930.113790289615
 21
-3721.160917792803
 31
0.0
 11
2930.185083164186
 21
-3721.128861864419
 31
0.0
 11
2930.22461028321
 21
-3721.112899639343
 31
0.0
 11
2930.266614058013
 21
-3721.097026676562
 31
0.0
 11
2930.315295108998
 21
-3721.079794834091
 31
0.0
 11
2930.358267942208
 21
-3721.065456775676
 31
0.0
 11
2930.611807160698
 21
-3720.992743909872
 31
0.0
 11
2930.888769416892
 21
-3720.928344751262
 31
0.0
 11
2931.17244236025
 21
-3720.872444960819
 31
0.0
 11
2931.446113640235
 21
-3720.825230199516
 31
0.0
 11
2931.628225009295
 21
-3720.796630677338
 31
0.0
 11
2931.808813962451
 21
-3720.770119168546
 31
0.0
 11
2931.856883676326
 21
-3720.763341045512
 31
0.0
 11
2931.904849496175
 21
-3720.756686780491
 31
0.0
 11
2931.966291450765
 21
-3720.748313131792
 31
0.0
 11
2932.002937685269
 21
-3720.743392724639
 31
0.0
 11
2932.102113996806
 21
-3720.730342232576
 31
0.0
 11
2932.205063423095
 21
-3720.717188559896
 31
0.0
 11
2932.641157716593
 21
-3720.665462140947
 31
0.0
 11
2933.089104031365
 21
-3720.618115812918
 31
0.0
 11
2933.227366865477
 21
-3720.604526233182
 31
0.0
 11
2933.388996192036
 21
-3720.589196419559
 31
0.0
 11
2933.572989328834
 21
-3720.572435963911
 31
0.0
 11
2933.70923567949
 21
-3720.560486094045
 31
0.0
 11
2933.880027027474
 21
-3720.546057208783
 31
0.0
 11
2934.083938873292
 21
-3720.529583232787
 31
0.0
 11
2934.415824464248
 21
-3720.50439827558
 31
0.0
 11
2934.78359778218
 21
-3720.478672997113
 31
0.0
 11
2935.18771898301
 21
-3720.452830762312
 31
0.0
 11
2936.14244326455
 21
-3720.400759041858
 31
0.0
 11
2937.140585597225
 21
-3720.358156951674
 31
0.0
 11
2938.174766525589
 21
-3720.325217008986
 31
0.0
 11
2939.237606594198
 21
-3720.302131731026
 31
0.0
 11
2940.321726347604
 21
-3720.289093635016
 31
0.0
 11
2940.687320468921
 21
-3720.287010232396
 31
0.0
 11
2941.090144419883
 21
-3720.286048495343
 31
0.0
 11
2941.527669252454
 21
-3720.28658304528
 31
0.0
 11
2941.997366018601
 21
-3720.288988503623
 31
0.0
 11
2942.496705770289
 21
-3720.293639491793
 31
0.0
 11
2943.023159559484
 21
-3720.300910631206
 31
0.0
 11
2943.500483829889
 21
-3720.309644790563
 31
0.0
 11
2943.942236503965
 21
-3720.319589422767
 31
0.0
 11
2944.347011541474
 21
-3720.330319084254
 31
0.0
 11
2944.7452487307
 21
-3720.342435819194
 31
0.0
 11
2945.172455197604
 21
-3720.357222552127
 31
0.0
 11
2945.624437385957
 21
-3720.374979502843
 31
0.0
 11
2946.061984635401
 21
-3720.394359070584
 31
0.0
 11
2946.457330667252
 21
-3720.413844719682
 31
0.0
 11
2946.65627010285
 21
-3720.424401815241
 31
0.0
 11
2946.85891180882
 21
-3720.435699570396
 31
0.0
 11
2946.908533365557
 21
-3720.438552408645
 31
0.0
 11
2946.957768915968
 21
-3720.441417346308
 31
0.0
 11
2947.006560470868
 21
-3720.444290513987
 31
0.0
 11
2947.056072979234
 21
-3720.447220554555
 31
0.0
 11
2947.154740153661
 21
-3720.453002299488
 31
0.0
 11
2947.253454623916
 21
-3720.458710423651
 31
0.0
 11
2948.062410431591
 21
-3720.502778207983
 31
0.0
 11
2948.879447081386
 21
-3720.542898939905
 31
0.0
 11
2949.087717228389
 21
-3720.552507245177
 31
0.0
 11
2949.29675205983
 21
-3720.561921195545
 31
0.0
 11
2949.439302353163
 21
-3720.568214985118
 31
0.0
 11
2949.559291645302
 21
-3720.57343660141
 31
0.0
 11
2949.653136579094
 21
-3720.577474964135
 31
0.0
 11
2949.717253797383
 21
-3720.580218993007
 31
0.0
 11
2950.139638712288
 21
-3720.598433004424
 31
0.0
 11
2950.558481202277
 21
-3720.616710376246
 31
0.0
 11
2951.403234255409
 21
-3720.654215137063
 31
0.0
 11
2952.231056010992
 21
-3720.691773163335
 31
0.0
 11
2952.456656303894
 21
-3720.702141601559
 31
0.0
 11
2952.656509612098
 21
-3720.711372809028
 31
0.0
 11
2952.826752668533
 21
-3720.719270159013
 31
0.0
 11
2952.963522206129
 21
-3720.725637024791
 31
0.0
 11
2953.062954957813
 21
-3720.730276779634
 31
0.0
 11
2953.31502470418
 21
-3720.742031709736
 31
0.0
 11
2953.539676545447
 21
-3720.752484883512
 31
0.0
 11
2953.733745090268
 21
-3720.761497652567
 31
0.0
 11
2953.894064947301
 21
-3720.768931368503
 31
0.0
 11
2954.146369908389
 21
-3720.78061044639
 31
0.0
 11
2954.358308428652
 21
-3720.790401330323
 31
0.0
 11
2954.527321751756
 21
-3720.798194957389
 31
0.0
 11
2954.650851121368
 21
-3720.803882264677
 31
0.0
 11
2954.726337781156
 21
-3720.807354189275
 31
0.0
 11
2955.144407065132
 21
-3720.826572184125
 31
0.0
 11
2955.55936821447
 21
-3720.845625974253
 31
0.0
 11
2957.230231298754
 21
-3720.922132378745
 31
0.0
 11
2958.895000860736
 21
-3720.998018504242
 31
0.0
 11
2962.243864730792
 21
-3721.149644163695
 31
0.0
 11
2965.582900595072
 21
-3721.299465381818
 31
0.0
 11
2972.323267519987
 21
-3721.597801024535
 31
0.0
 11
2979.023360315853
 21
-3721.888971464569
 31
0.0
 11
2982.3787181222
 21
-3722.032790568658
 31
0.0
 11
2985.774848088489
 21
-3722.177010572196
 31
0.0
 11
2986.617916417271
 21
-3722.212603280995
 31
0.0
 11
2987.465885410762
 21
-3722.248319259522
 31
0.0
 11
2987.601849947843
 21
-3722.254039712078
 31
0.0
 11
2987.77663622153
 21
-3722.261386341533
 31
0.0
 11
2987.988152422444
 21
-3722.270259302919
 31
0.0
 11
2988.234306741198
 21
-3722.280558751263
 31
0.0
 11
2988.513007368412
 21
-3722.292184841597
 31
0.0
 11
2988.822162494702
 21
-3722.305037728949
 31
0.0
 11
2989.159680310686
 21
-3722.319017568346
 31
0.0
 11
2989.370397139315
 21
-3722.327717782014
 31
0.0
 11
2989.583935167708
 21
-3722.33651289601
 31
0.0
 11
2989.796182773009
 21
-3722.345233463408
 31
0.0
 11
2990.008491433266
 21
-3722.353940299401
 31
0.0
 11
2990.433287233363
 21
-3722.371327126427
 31
0.0
 11
2990.85815435945
 21
-3722.38867108183
 31
0.0
 11
2991.070131365487
 21
-3722.397307300898
 31
0.0
 11
2991.283243046133
 21
-3722.405978255622
 31
0.0
 11
2991.495850910769
 21
-3722.414617405418
 31
0.0
 11
2991.70850425635
 21
-3722.42324621125
 31
0.0
 11
2992.135781602682
 21
-3722.440541410571
 31
0.0
 11
2992.559654489084
 21
-3722.45764146577
 31
0.0
 11
2995.973752248338
 21
-3722.593302659073
 31
0.0
 11
2999.399476972896
 21
-3722.725752989451
 31
0.0
 11
3001.117616257089
 21
-3722.790810528729
 31
0.0
 11
3002.839032087594
 21
-3722.855080276257
 31
0.0
 11
3003.163598096907
 21
-3722.86709592429
 31
0.0
 11
3003.469013237229
 21
-3722.87837381371
 31
0.0
 11
3003.751124241041
 21
-3722.888767562098
 31
0.0
 11
3004.005777840818
 21
-3722.89813078703
 31
0.0
 11
3004.228820769039
 21
-3722.906317106085
 31
0.0
 11
3004.416099758182
 21
-3722.913180136843
 31
0.0
 11
3004.563461540725
 21
-3722.918573496882
 31
0.0
 11
3005.422480967674
 21
-3722.949894766695
 31
0.0
 11
3006.290747732131
 21
-3722.981347460949
 31
0.0
 11
3007.155800799756
 21
-3723.012478562784
 31
0.0
 11
3008.020830857204
 21
-3723.043404525864
 31
0.0
 11
3008.385411432697
 21
-3723.0563769238
 31
0.0
 11
3008.797768672167
 21
-3723.071003433014
 31
0.0
 11
3009.254888364631
 21
-3723.087160682111
 31
0.0
 11
3009.7537562991
 21
-3723.104725299692
 31
0.0
 11
3011.490847208105
 21
-3723.165331547157
 31
0.0
 11
3013.228251652018
 21
-3723.22508810496
 31
0.0
 11
3014.233350645333
 21
-3723.259267473788
 31
0.0
 11
3015.203882901764
 21
-3723.292003934287
 31
0.0
 11
3016.138262888878
 21
-3723.323273947432
 31
0.0
 11
3017.034905074239
 21
-3723.353053974194
 31
0.0
 11
3017.892223925413
 21
-3723.38132047555
 31
0.0
 11
3018.708633909964
 21
-3723.408049912472
 31
0.0
 11
3019.482549495459
 21
-3723.433218745934
 31
0.0
 11
3020.212385149462
 21
-3723.45680343691
 31
0.0
 11
3027.24399389001
 21
-3723.676598463438
 31
0.0
 11
3034.314297695102
 21
-3723.884187247085
 31
0.0
 11
3041.423744489591
 21
-3724.079582032235
 31
0.0
 11
3048.56861112617
 21
-3724.262675667086
 31
0.0
 11
3055.74713587273
 21
-3724.433420444534
 31
0.0
 11
3062.957556997161
 21
-3724.591768657474
 31
0.0
 11
3064.622302002204
 21
-3724.626472028565
 31
0.0
 11
3066.329990444606
 21
-3724.661351211679
 31
0.0
 11
3068.080074405314
 21
-3724.696342348843
 31
0.0
 11
3069.872005965278
 21
-3724.731381582087
 31
0.0
 11
3071.705237205451
 21
-3724.766405053439
 31
0.0
 11
3073.579220206782
 21
-3724.801348904929
 31
0.0
 11
3075.493407050221
 21
-3724.836149278584
 31
0.0
 11
3077.447249816719
 21
-3724.870742316435
 31
0.0
 11
3084.736651376823
 21
-3724.991566729138
 31
0.0
 11
3092.045966842576
 21
-3725.099767572599
 31
0.0
 11
3103.779191881774
 21
-3725.246594606007
 31
0.0
 11
3115.552614336498
 21
-3725.360967118379
 31
0.0
 11
3127.358906679298
 21
-3725.442789589785
 31
0.0
 11
3139.190741382727
 21
-3725.491966500289
 31
0.0
 11
3151.040790919335
 21
-3725.508402329959
 31
0.0
  0
SPLINE
  5
138
330
1F
100
AcDbEntity
  8
0
  6
Continuous
 62
     7
100
AcDbSpline
210
0.0
220
0.0
230
1.0
 70
     8
 71
     3
 72
    51
 73
    47
 74
    45
 42
0.0000000001
 43
0.0000000001
 44
0.00000001
 40
0.0
 40
0.0
 40
0.0
 40
0.0
 40
26.40407896412885
 40
54.66236704965335
 40
68.28024009894288
 40
81.98173957220762
 40
88.81823017417052
 40
95.63836533790548
 40
97.3466285619949
 40
99.05292008640512
 40
100.6289414310217
 40
102.4677938525177
 40
105.8873003955668
 40
109.2985033786767
 40
136.7874540583615
 40
163.9878333421067
 40
177.6602302085757
 40
191.3374716127752
 40
194.7524770993829
 40
198.1696072392402
 40
201.2573818609175
 40
204.9991994347533
 40
211.8247244738637
 40
218.6579626457363
 40
245.9929525845825
 40
273.2985540997529
 40
286.9844371196745
 40
300.6160176512161
 40
302.1507807888597
 40
304.0307857784026
 40
305.7386463469932
 40
307.445485243514
 40
310.8620316394306
 40
314.2747525358934
 40
321.11079473813
 40
327.9335644347465
 40
355.3150199677202
 40
382.580857003937
 40
389.4126133540806
 40
396.2424831158988
 40
397.9499989618165
 40
399.6574764699665
 40
401.0669038999428
 40
403.0722821136753
 40
405.0850863411521
 40
407.0978905686287
 40
407.0978905686287
 40
407.0978905686287
 40
407.0978905686287
 10
1265.306705348204
 20
-4157.659016166784
 30
0.0
 10
1265.494586071611
 20
-4148.859722355413
 30
0.0
 10
1265.883541318955
 20
-4130.643210098032
 30
0.0
 10
1266.493484834418
 20
-4107.890207990251
 30
0.0
 10
1267.325569368383
 20
-4089.382460407196
 30
0.0
 10
1268.003698284559
 20
-4078.016797222712
 30
0.0
 10
1268.674669951469
 20
-4068.922009259868
 30
0.0
 10
1269.10448980253
 20
-4063.818326974258
 30
0.0
 10
1269.415257407438
 20
-4060.420944670559
 30
0.0
 10
1269.571691404365
 20
-4058.764788205486
 30
0.0
 10
1269.737190573192
 20
-4057.065772267249
 30
0.0
 10
1269.965002223663
 20
-4054.799061728094
 30
0.0
 10
1270.267480122327
 20
-4051.925056892051
 30
0.0
 10
1271.533625501632
 20
-4040.555455421377
 30
0.0
 10
1274.201274301469
 20
-4021.365023149224
 30
0.0
 10
1278.326960523994
 20
-3998.947957356775
 30
0.0
 10
1282.123684502322
 20
-3981.164653229331
 30
0.0
 10
1284.437239266448
 20
-3971.173596769907
 30
0.0
 10
1286.043496425159
 20
-3964.52851304612
 30
0.0
 10
1286.832368738276
 20
-3961.317346689733
 30
0.0
 10
1287.658641471816
 20
-3958.003217010355
 30
0.0
 10
1288.775043710562
 20
-3953.590534954544
 30
0.0
 10
1290.225292489594
 20
-3947.974538253615
 30
0.0
 10
1293.712961346746
 20
-3934.762459357569
 30
0.0
 10
1299.160242671483
 20
-3915.008059013776
 30
0.0
 10
1305.264461931748
 20
-3893.065758311766
 30
0.0
 10
1309.972356936504
 20
-3875.477019900301
 30
0.0
 10
1312.361338329804
 20
-3866.160737649272
 30
0.0
 10
1313.728029388471
 20
-3860.64543023703
 30
0.0
 10
1314.13565766344
 20
-3858.98725459725
 30
0.0
 10
1314.553707143484
 20
-3857.272578178269
 30
0.0
 10
1315.08911305272
 20
-3855.059334582245
 30
0.0
 10
1315.750826390021
 20
-3852.291971992297
 30
0.0
 10
1316.795038979561
 20
-3847.858164624354
 30
0.0
 10
1318.072135794965
 20
-3842.312767056735
 30
0.0
 10
1321.060707944224
 20
-3828.963043511629
 30
0.0
 10
1325.25416513729
 20
-3808.905245597978
 30
0.0
 10
1329.156243292599
 20
-3788.786905051195
 30
0.0
 10
1331.702792587311
 20
-3775.384203157439
 30
0.0
 10
1332.654088221651
 20
-3770.35025192608
 30
0.0
 10
1333.287249119843
 20
-3766.994507576269
 30
0.0
 10
1333.585284266078
 20
-3765.414225896433
 30
0.0
 10
1333.901646441353
 20
-3763.736362857929
 30
0.0
 10
1334.236837204308
 20
-3761.958481056029
 30
0.0
 10
1334.609297526685
 20
-3759.982956935332
 30
0.0
 10
1334.857908971276
 20
-3758.66431897727
 30
0.0
 10
1334.982214693571
 20
-3758.00499999824
 30
0.0
 11
1265.306705348204
 21
-4157.659016166784
 31
0.0
 11
1265.893526367538
 21
-4131.261458949586
 31
0.0
 11
1266.739416482728
 21
-4103.015834236411
 31
0.0
 11
1267.357459464215
 21
-4089.411993261907
 31
0.0
 11
1268.182696927619
 21
-4075.735368278203
 31
0.0
 11
1268.686873562116
 21
-4068.917494000105
 31
0.0
 11
1269.260525203159
 21
-4062.121527001484
 31
0.0
 11
1269.416156291399
 21
-4060.420367923929
 31
0.0
 11
1269.576635962312
 21
-4058.72163985814
 31
0.0
 11
1269.729436088258
 21
-4057.153043224139
 31
0.0
 11
1269.913314867375
 21
-4055.32340751651
 31
0.0
 11
1270.271198753967
 21
-4051.922680517518
 31
0.0
 11
1270.648729412852
 21
-4048.532433270844
 31
0.0
 11
1274.413992410711
 21
-4021.30257458544
 31
0.0
 11
1279.31082404861
 21
-3994.546609398408
 31
0.0
 11
1282.161629789491
 21
-3981.174723117782
 31
0.0
 11
1285.243085334247
 21
-3967.849125039105
 31
0.0
 11
1286.045388556296
 21
-3964.529701593166
 31
0.0
 11
1286.860559483903
 21
-3961.211226830341
 31
0.0
 11
1287.607463496128
 21
-3958.215148308206
 31
0.0
 11
1288.525032595238
 21
-3954.587578087766
 31
0.0
 11
1290.230561325753
 21
-3947.97857182291
 31
0.0
 11
1291.973540676194
 21
-3941.371366142936
 31
0.0
 11
1299.172796883847
 21
-3915.001451751467
 31
0.0
 11
1306.42393434057
 21
-3888.676237988062
 31
0.0
 11
1309.953805969156
 21
-3875.453401669001
 31
0.0
 11
1313.330792921212
 21
-3862.246738694822
 31
0.0
 11
1313.699935080979
 21
-3860.757030013719
 31
0.0
 11
1314.148747202817
 21
-3858.931383158493
 31
0.0
 11
1314.553292277711
 21
-3857.272126998605
 31
0.0
 11
1314.95462583715
 21
-3855.613142251013
 31
0.0
 11
1315.74923260901
 21
-3852.29028363928
 31
0.0
 11
1316.531627682942
 21
-3848.96845855878
 31
0.0
 11
1318.066326798143
 21
-3842.306914322151
 31
0.0
 11
1319.557352789431
 21
-3835.649059725784
 31
0.0
 11
1325.196891478517
 21
-3808.854662727932
 31
0.0
 11
1330.425963384523
 21
-3782.094941573044
 31
0.0
 11
1331.701801130411
 21
-3775.383374477805
 31
0.0
 11
1332.970631871988
 21
-3768.672399175166
 31
0.0
 11
1333.287228941366
 21
-3766.994490757009
 31
0.0
 11
1333.60368323364
 21
-3765.316594418811
 31
0.0
 11
1333.86483625469
 21
-3763.931572837764
 31
0.0
 11
1334.236379769911
 21
-3761.960913761107
 31
0.0
 11
1334.609297231755
 21
-3759.982956879676
 31
0.0
 11
1334.982214693571
 21
-3758.00499999824
 31
0.0
  0
SPLINE
  5
139
330
1F
100
AcDbEntity
  8
0
  6
Continuous
 62
     7
100
AcDbSpline
210
0.0
220
0.0
230
1.0
 70
     8
 71
     3
 72
    19
 73
    15
 74
    13
 42
0.0000000001
 43
0.0000000001
 44
0.00000001
 40
0.0
 40
0.0
 40
0.0
 40
0.0
 40
2.274401850953928
 40
4.561441957954868
 40
7.37659645623155
 40
10.11286498615015
 40
15.64192732968401
 40
21.21577175116439
 40
26.72186919210595
 40
32.31864205667226
 40
35.07949731064195
 40
37.87004808020477
 40
40.92806618380824
 40
43.4214532185089
 40
43.4214532185089
 40
43.4214532185089
 40
43.4214532185089
 10
1263.946603681274
 20
-4201.058952593189
 30
0.0
 10
1263.972728364422
 20
-4200.301268894251
 30
0.0
 10
1264.025122898746
 20
-4198.781691246288
 30
0.0
 10
1264.109890113757
 20
-4196.32428733333
 30
0.0
 10
1264.20002058945
 20
-4193.713021293439
 30
0.0
 10
1264.327101882107
 20
-4190.021713054632
 30
0.0
 10
1264.48432921029
 20
-4185.411334480877
 30
0.0
 10
1264.667930113801
 20
-4179.878043710308
 30
0.0
 10
1264.844679773743
 20
-4174.321947322538
 30
0.0
 10
1264.98347196323
 20
-4169.7027869098
 30
0.0
 10
1265.089264980632
 20
-4165.988232802457
 30
0.0
 10
1265.167719104875
 20
-4163.119496869984
 30
0.0
 10
1265.240561418272
 20
-4160.339797950433
 30
0.0
 10
1265.286204828891
 20
-4158.489892390615
 30
0.0
 10
1265.306705348204
 20
-4157.659016166784
 30
0.0
 11
1263.946603681274
 21
-4201.058952593189
 31
0.0
 11
1264.024983372501
 21
-4198.78590169107
 31
0.0
 11
1264.103828649812
 21
-4196.500221076181
 31
0.0
 11
1264.200885459816
 21
-4193.686740167272
 31
0.0
 11
1264.294973792872
 21
-4190.952089759376
 31
0.0
 11
1264.482975884738
 21
-4185.426224613343
 31
0.0
 11
1264.66740121708
 21
-4179.855432126483
 31
0.0
 11
1264.842114768936
 21
-4174.352107294716
 31
0.0
 11
1265.009908423128
 21
-4168.757850258508
 31
0.0
 11
1265.088465368074
 21
-4165.998112854375
 31
0.0
 11
1265.164775103643
 21
-4163.208605653853
 31
0.0
 11
1265.244632548427
 21
-4160.151630431435
 31
0.0
 11
1265.306705348204
 21
-4157.659016166784
 31
0.0
  0
ARC
  5
13A
330
1F
100
AcDbEntity
  8
1
  6
Continuous
 62
     7
100
AcDbCircle
 10
765.0770230833775
 20
-1148.748629502418
 30
0.0
 40
1.000000000000432
100
AcDbArc
 50
29.54200888918471
 51
89.64480772643694
  0
ARC
  5
13B
330
1F
100
AcDbEntity
  8
1
  6
Continuous
 62
     7
100
AcDbCircle
 10
790.4747291920436
 20
-1189.505938442581
 30
0.0
 40
0.9999999999998713
100
AcDbArc
 50
209.5420088891281
 51
268.6034443061981
  0
ARC
  5
13C
330
1F
100
AcDbEntity
  8
1
  6
Continuous
 62
     7
100
AcDbCircle
 10
1262.947197434655
 20
-1201.024497488779
 30
0.0
 40
1.000000000000368
100
AcDbArc
 50
268.6034443062388
 51
358.0254771259446
  0
ARC
  5
13D
330
1F
100
AcDbEntity
  8
1
  6
Continuous
 62
     7
100
AcDbCircle
 10
875.1158619113826
 20
-965.166933091584
 30
0.0
 40
2.0
100
AcDbArc
 50
90.0
 51
180.0
  0
ARC
  5
13E
330
1F
100
AcDbEntity
  8
1
  6
Continuous
 62
     7
100
AcDbCircle
 10
1257.760275868224
 20
-722.4195503219505
 30
0.0
 40
1.999999999999994
100
AcDbArc
 50
84.48556448818076
 51
157.7289290891893
  0
ARC
  5
13F
330
1F
100
AcDbEntity
  8
1
  6
Continuous
 62
     7
100
AcDbCircle
 10
2958.934238316135
 20
-1188.892268645531
 30
0.0
 40
0.9999999999999795
100
AcDbArc
 50
213.6381957375976
 51
270.0
  0
ARC
  5
140
330
1F
100
AcDbEntity
  8
1
  6
Continuous
 62
     7
100
AcDbCircle
 10
2929.82442375313
 20
-1148.752235266681
 30
0.0
 40
0.9999999999999795
100
AcDbArc
 50
33.63819573759756
 51
90.0
  0
ARC
  5
141
330
1F
100
AcDbEntity
  8
1
  6
Continuous
 62
     7
100
AcDbCircle
 10
1871.82442375313
 20
-1148.752235266681
 30
0.0
 40
0.9999999999997902
100
AcDbArc
 50
33.63819573760478
 51
90.0
  0
ARC
  5
142
330
1F
100
AcDbEntity
  8
1
  6
Continuous
 62
     7
100
AcDbCircle
 10
1900.934238316135
 20
-1188.892268645531
 30
0.0
 40
0.9999999999999795
100
AcDbArc
 50
213.6381957375976
 51
270.0
  0
ARC
  5
143
330
1F
100
AcDbEntity
  8
1
  6
Continuous
 62
     7
100
AcDbCircle
 10
2285.147343522534
 20
-1188.892268645531
 30
0.0
 40
1.0
100
AcDbArc
 50
270.0
 51
326.3618042624024
  0
ARC
  5
144
330
1F
100
AcDbEntity
  8
1
  6
Continuous
 62
     7
100
AcDbCircle
 10
2314.257158085539
 20
-1148.752235266681
 30
0.0
 40
1.0
100
AcDbArc
 50
90.0
 51
146.361804262388
  0
ARC
  5
145
330
1F
100
AcDbEntity
  8
1
  6
Continuous
 62
     7
100
AcDbCircle
 10
3372.257158085135
 20
-1148.752235266681
 30
0.0
 40
1.0
100
AcDbArc
 50
90.0
 51
146.3618042624024
  0
ARC
  5
146
330
1F
100
AcDbEntity
  8
1
  6
Continuous
 62
     7
100
AcDbCircle
 10
3343.147343522131
 20
-1188.892268645531
 30
0.0
 40
1.0
100
AcDbArc
 50
270.0
 51
326.3618042624024
  0
ARC
  5
147
330
1F
100
AcDbEntity
  8
1
  6
Continuous
 62
     7
100
AcDbCircle
 10
153.9471974346554
 20
-1201.024497488779
 30
0.0
 40
1.000000000000384
100
AcDbArc
 50
268.6034443061997
 51
358.0254771259437
  0
ARC
  5
148
330
1F
100
AcDbEntity
  8
1
  6
Continuous
 62
     7
100
AcDbCircle
 10
-318.5252708079564
 20
-1189.505938442581
 30
0.0
 40
0.9999999999998218
100
AcDbArc
 50
209.5420088891296
 51
268.6034443061981
  0
ARC
  5
149
330
1F
100
AcDbEntity
  8
1
  6
Continuous
 62
     7
100
AcDbCircle
 10
-343.9229769166225
 20
-1148.748629502418
 30
0.0
 40
1.000000000000382
100
AcDbArc
 50
29.54200888918631
 51
89.6448077264402
  0
ARC
  5
14A
330
1F
100
AcDbEntity
  8
1
  6
Continuous
 62
     7
100
AcDbCircle
 10
-343.7945897605247
 20
-1140.709301842913
 30
0.0
 40
3.500000000000504
100
AcDbArc
 50
96.40950224132511
 51
179.6448077264386
  0
ARC
  5
14B
330
1F
100
AcDbEntity
  8
1
  6
Continuous
 62
     7
100
AcDbCircle
 10
-343.7945897605247
 20
-4140.709301842912
 30
0.0
 40
3.500000000000278
100
AcDbArc
 50
96.40950224132551
 51
179.6448077264349
  0
ARC
  5
14C
330
1F
100
AcDbEntity
  8
1
  6
Continuous
 62
     7
100
AcDbCircle
 10
-343.9229769166225
 20
-4148.748629502417
 30
0.0
 40
0.9999999999999339
100
AcDbArc
 50
29.54200888914098
 51
89.64480772643981
  0
ARC
  5
14D
330
1F
100
AcDbEntity
  8
1
  6
Continuous
 62
     7
100
AcDbCircle
 10
-318.5252708079564
 20
-4189.50593844258
 30
0.0
 40
1.000000000000382
100
AcDbArc
 50
209.5420088891863
 51
268.6034443061997
  0
ARC
  5
14E
330
1F
100
AcDbEntity
  8
1
  6
Continuous
 62
     7
100
AcDbCircle
 10
153.9471974346554
 20
-4201.024497488778
 30
0.0
 40
1.000000000000384
100
AcDbArc
 50
268.6034443061997
 51
358.0254771258916
  0
ARC
  5
14F
330
1F
100
AcDbEntity
  8
1
  6
Continuous
 62
     7
100
AcDbCircle
 10
3343.147343522131
 20
-4188.892268645531
 30
0.0
 40
1.0
100
AcDbArc
 50
270.0
 51
326.3618042624133
  0
ARC
  5
150
330
1F
100
AcDbEntity
  8
1
  6
Continuous
 62
     7
100
AcDbCircle
 10
3372.257158085135
 20
-4148.75223526668
 30
0.0
 40
1.0
100
AcDbArc
 50
90.0
 51
146.3618042624133
  0
ARC
  5
151
330
1F
100
AcDbEntity
  8
1
  6
Continuous
 62
     7
100
AcDbCircle
 10
2314.257158085539
 20
-4148.75223526668
 30
0.0
 40
1.0
100
AcDbArc
 50
90.0
 51
146.3618042623988
  0
ARC
  5
152
330
1F
100
AcDbEntity
  8
1
  6
Continuous
 62
     7
100
AcDbCircle
 10
2285.147343522534
 20
-4188.892268645531
 30
0.0
 40
1.0
100
AcDbArc
 50
270.0
 51
326.3618042624133
  0
ARC
  5
153
330
1F
100
AcDbEntity
  8
1
  6
Continuous
 62
     7
100
AcDbCircle
 10
1900.934238316135
 20
-4188.892268645531
 30
0.0
 40
0.9999999999998536
100
AcDbArc
 50
213.6381957375867
 51
270.0
  0
ARC
  5
154
330
1F
100
AcDbEntity
  8
1
  6
Continuous
 62
     7
100
AcDbCircle
 10
1871.82442375313
 20
-4148.75223526668
 30
0.0
 40
0.9999999999996642
100
AcDbArc
 50
33.63819573759393
 51
90.0
  0
ARC
  5
155
330
1F
100
AcDbEntity
  8
1
  6
Continuous
 62
     7
100
AcDbCircle
 10
2929.82442375313
 20
-4148.75223526668
 30
0.0
 40
0.9999999999998536
100
AcDbArc
 50
33.63819573758671
 51
90.0
  0
ARC
  5
156
330
1F
100
AcDbEntity
  8
1
  6
Continuous
 62
     7
100
AcDbCircle
 10
2958.934238316135
 20
-4188.892268645531
 30
0.0
 40
0.9999999999998536
100
AcDbArc
 50
213.6381957375867
 51
270.0
  0
ARC
  5
157
330
1F
100
AcDbEntity
  8
1
  6
Continuous
 62
     7
100
AcDbCircle
 10
1257.760275868224
 20
-3722.41955032195
 30
0.0
 40
1.999999999998862
100
AcDbArc
 50
84.48556448817762
 51
157.7289290891923
  0
ARC
  5
158
330
1F
100
AcDbEntity
  8
1
  6
Continuous
 62
     7
100
AcDbCircle
 10
875.1158619113826
 20
-3965.166933091584
 30
0.0
 40
2.0
100
AcDbArc
 50
90.0
 51
180.0
  0
ARC
  5
159
330
1F
100
AcDbEntity
  8
1
  6
Continuous
 62
     7
100
AcDbCircle
 10
1262.947197434655
 20
-4201.024497488778
 30
0.0
 40
1.000000000000368
100
AcDbArc
 50
268.6034443062388
 51
358.0254771258925
  0
ARC
  5
15A
330
1F
100
AcDbEntity
  8
1
  6
Continuous
 62
     7
100
AcDbCircle
 10
790.4747291920436
 20
-4189.50593844258
 30
0.0
 40
1.000000000000432
100
AcDbArc
 50
209.5420088891847
 51
268.6034443061997
  0
ARC
  5
15B
330
1F
100
AcDbEntity
  8
1
  6
Continuous
 62
     7
100
AcDbCircle
 10
765.0770230833775
 20
-4148.748629502417
 30
0.0
 40
0.9999999999999833
100
AcDbArc
 50
29.54200888913937
 51
89.64480772643655
  0
ENDSEC
  0
SECTION
  2
OBJECTS
  0
DICTIONARY
  5
C
330
0
100
AcDbDictionary
281
     1
  3
ACAD_GROUP
350
D
  3
ACAD_LAYOUT
350
1A
  3
ACAD_MATERIAL
350
3B
  3
ACAD_MLEADERSTYLE
350
15E
  3
ACAD_MLINESTYLE
350
17
  3
ACAD_PLOTSETTINGS
350
19
  3
ACAD_PLOTSTYLENAME
350
E
  3
ACAD_VISUALSTYLE
350
2A
  3
AcDbVariableDictionary
350
15C
  0
DICTIONARY
  5
D
102
{ACAD_REACTORS
330
C
102
}
330
C
100
AcDbDictionary
281
     1
  0
DICTIONARY
  5
1A
102
{ACAD_REACTORS
330
C
102
}
330
C
100
AcDbDictionary
281
     1
  3
Layout1
350
1E
  3
Layout2
350
26
  3
Model
350
22
  0
DICTIONARY
  5
3B
102
{ACAD_REACTORS
330
C
102
}
330
C
100
AcDbDictionary
281
     1
  3
ByBlock
350
3D
  3
ByLayer
350
3C
  3
Global
350
3E
  0
DICTIONARY
  5
15E
102
{ACAD_REACTORS
330
C
102
}
330
C
100
AcDbDictionary
281
     1
  0
DICTIONARY
  5
17
102
{ACAD_REACTORS
330
C
102
}
330
C
100
AcDbDictionary
281
     1
  3
Standard
350
18
  0
DICTIONARY
  5
19
102
{ACAD_REACTORS
330
C
102
}
330
C
100
AcDbDictionary
281
     1
  0
ACDBDICTIONARYWDFLT
  5
E
102
{ACAD_REACTORS
330
C
102
}
330
C
100
AcDbDictionary
281
     1
  3
Normal
350
F
100
AcDbDictionaryWithDefault
340
F
  0
DICTIONARY
  5
2A
102
{ACAD_REACTORS
330
C
102
}
330
C
100
AcDbDictionary
281
     1
  3
2dWireframe
350
2F
  3
3D Hidden
350
31
  3
3dWireframe
350
30
  3
Basic
350
32
  3
Brighten
350
36
  3
ColorChange
350
3A
  3
Conceptual
350
34
  3
Dim
350
35
  3
Facepattern
350
39
  3
Flat
350
2B
  3
FlatWithEdges
350
2C
  3
Gouraud
350
2D
  3
GouraudWithEdges
350
2E
  3
Linepattern
350
38
  3
Realistic
350
33
  3
Thicken
350
37
  0
DICTIONARY
  5
15C
102
{ACAD_REACTORS
330
C
102
}
330
C
100
AcDbDictionary
281
     1
  3
DIMASSOC
350
15F
  3
HIDETEXT
350
160
  0
LAYOUT
  5
1E
102
{ACAD_REACTORS
330
1A
102
}
330
1A
100
AcDbPlotSettings
  1

  2
none_device
  4

  6

 40
0.0
 41
0.0
 42
0.0
 43
0.0
 44
0.0
 45
0.0
 46
0.0
 47
0.0
 48
0.0
 49
0.0
140
0.0
141
0.0
142
1.0
143
1.0
 70
   688
 72
     0
 73
     0
 74
     5
  7

 75
    16
147
1.0
148
0.0
149
0.0
100
AcDbLayout
  1
Layout1
 70
     1
 71
     1
 10
0.0
 20
0.0
 11
12.0
 21
9.0
 12
0.0
 22
0.0
 32
0.0
 14
1.00000000000000E+20
 24
1.00000000000000E+20
 34
1.00000000000000E+20
 15
-1.00000000000000E+20
 25
-1.00000000000000E+20
 35
-1.00000000000000E+20
146
0.0
 13
0.0
 23
0.0
 33
0.0
 16
1.0
 26
0.0
 36
0.0
 17
0.0
 27
1.0
 37
0.0
 76
     0
330
1B
  0
LAYOUT
  5
26
102
{ACAD_REACTORS
330
1A
102
}
330
1A
100
AcDbPlotSettings
  1

  2
none_device
  4

  6

 40
0.0
 41
0.0
 42
0.0
 43
0.0
 44
0.0
 45
0.0
 46
0.0
 47
0.0
 48
0.0
 49
0.0
140
0.0
141
0.0
142
1.0
143
1.0
 70
   688
 72
     0
 73
     0
 74
     5
  7

 75
    16
147
1.0
148
0.0
149
0.0
100
AcDbLayout
  1
Layout2
 70
     1
 71
     2
 10
0.0
 20
0.0
 11
0.0
 21
0.0
 12
0.0
 22
0.0
 32
0.0
 14
0.0
 24
0.0
 34
0.0
 15
0.0
 25
0.0
 35
0.0
146
0.0
 13
0.0
 23
0.0
 33
0.0
 16
1.0
 26
0.0
 36
0.0
 17
0.0
 27
1.0
 37
0.0
 76
     0
330
23
  0
LAYOUT
  5
22
102
{ACAD_REACTORS
330
1A
102
}
330
1A
100
AcDbPlotSettings
  1

  2
none_device
  4

  6

 40
0.0
 41
0.0
 42
0.0
 43
0.0
 44
0.0
 45
0.0
 46
0.0
 47
0.0
 48
0.0
 49
0.0
140
0.0
141
0.0
142
1.0
143
1.0
 70
  1712
 72
     0
 73
     0
 74
     0
  7

 75
     0
147
1.0
148
0.0
149
0.0
100
AcDbLayout
  1
Model
 70
     1
 71
     0
 10
0.0
 20
0.0
 11
12.0
 21
9.0
 12
0.0
 22
0.0
 32
0.0
 14
-695.16997913752
 24
-4594.39801381593
 34
0.0
 15
3840.83002086248
 25
-719.1805807484718
 35
0.0
146
0.0
 13
0.0
 23
0.0
 33
0.0
 16
1.0
 26
0.0
 36
0.0
 17
0.0
 27
1.0
 37
0.0
 76
     0
330
1F
331
29
  0
MATERIAL
  5
3D
102
{ACAD_REACTORS
330
3B
102
}
102
{ACAD_XDICTIONARY
360
183
102
}
330
3B
100
AcDbMaterial
  1
ByBlock
  0
MATERIAL
  5
3C
102
{ACAD_REACTORS
330
3B
102
}
102
{ACAD_XDICTIONARY
360
181
102
}
330
3B
100
AcDbMaterial
  1
ByLayer
  0
MATERIAL
  5
3E
102
{ACAD_REACTORS
330
3B
102
}
102
{ACAD_XDICTIONARY
360
185
102
}
330
3B
100
AcDbMaterial
  1
Global
  0
MLINESTYLE
  5
18
102
{ACAD_REACTORS
330
17
102
}
330
17
100
AcDbMlineStyle
  2
Standard
 70
     0
  3

 62
   256
 51
90.0
 52
90.0
 71
     2
 49
0.5
 62
   256
  6
BYLAYER
 49
-0.5
 62
   256
  6
BYLAYER
  0
ACDBPLACEHOLDER
  5
F
102
{ACAD_REACTORS
330
E
102
}
330
E
  0
VISUALSTYLE
  5
2F
102
{ACAD_REACTORS
330
2A
102
}
102
{ACAD_XDICTIONARY
360
169
102
}
330
2A
100
AcDbVisualStyle
  2
2dWireframe
 70
     4
 71
     0
 72
     2
 73
     0
 90
        0
 40
-0.6
 41
-30.0
 62
     5
 63
     7
 74
     1
 91
        4
 64
     7
 65
   257
 75
     1
175
     1
 42
1.0
 92
        0
 66
   257
 43
1.0
 76
     1
 77
     6
 78
     2
 67
     7
 79
     5
170
     0
171
     0
290
     0
174
     0
 93
        1
 44
0.0
173
     0
291
     0
 45
0.0
1001
ACAD
1000
AcDbSavedByObjectVersion
1070
     0
  0
VISUALSTYLE
  5
31
102
{ACAD_REACTORS
330
2A
102
}
102
{ACAD_XDICTIONARY
360
16D
102
}
330
2A
100
AcDbVisualStyle
  2
3D Hidden
 70
     6
 71
     1
 72
     2
 73
     2
 90
        0
 40
-0.6
 41
-30.0
 62
     5
 63
     7
 74
     2
 91
        2
 64
     7
 65
   257
 75
     2
175
     1
 42
40.0
 92
        0
 66
   257
 43
1.0
 76
     1
 77
     6
 78
     2
 67
     7
 79
     3
170
     0
171
     0
290
     0
174
     0
 93
        1
 44
0.0
173
     0
291
     0
 45
0.0
1001
ACAD
1000
AcDbSavedByObjectVersion
1070
     0
  0
VISUALSTYLE
  5
30
102
{ACAD_REACTORS
330
2A
102
}
102
{ACAD_XDICTIONARY
360
16B
102
}
330
2A
100
AcDbVisualStyle
  2
3dWireframe
 70
     5
 71
     0
 72
     2
 73
     0
 90
        0
 40
-0.6
 41
-30.0
 62
     5
 63
     7
 74
     1
 91
        4
 64
     7
 65
   257
 75
     1
175
     1
 42
1.0
 92
        0
 66
   257
 43
1.0
 76
     1
 77
     6
 78
     2
 67
     7
 79
     5
170
     0
171
     0
290
     0
174
     0
 93
        1
 44
0.0
173
     0
291
     0
 45
0.0
1001
ACAD
1000
AcDbSavedByObjectVersion
1070
     0
  0
VISUALSTYLE
  5
32
102
{ACAD_REACTORS
330
2A
102
}
102
{ACAD_XDICTIONARY
360
16F
102
}
330
2A
100
AcDbVisualStyle
  2
Basic
 70
     7
 71
     1
 72
     0
 73
     1
 90
        0
 40
-0.6
 41
-30.0
 62
     5
 63
     7
 74
     0
 91
        4
 64
     7
 65
   257
 75
     1
175
     1
 42
1.0
 92
        8
 66
     7
 43
1.0
 76
     1
 77
     6
 78
     2
 67
     7
 79
     5
170
     0
171
     0
290
     0
174
     0
 93
        1
 44
0.0
173
     0
291
     1
 45
0.0
1001
ACAD
1000
AcDbSavedByObjectVersion
1070
     0
  0
VISUALSTYLE
  5
36
102
{ACAD_REACTORS
330
2A
102
}
102
{ACAD_XDICTIONARY
360
177
102
}
330
2A
100
AcDbVisualStyle
  2
Brighten
 70
    12
 71
     2
 72
     2
 73
     0
 90
        0
 40
-0.6
 41
-30.0
 62
     5
 63
     7
 74
     1
 91
        4
 64
     7
 65
   257
 75
     1
175
     1
 42
1.0
 92
        8
 66
     7
 43
1.0
 76
     1
 77
     6
 78
     2
 67
     7
 79
     5
170
     0
171
     0
290
     0
174
     0
 93
        1
 44
50.0
173
     0
291
     1
 45
0.0
1001
ACAD
1000
AcDbSavedByObjectVersion
1070
     0
  0
VISUALSTYLE
  5
3A
102
{ACAD_REACTORS
330
2A
102
}
102
{ACAD_XDICTIONARY
360
17F
102
}
330
2A
100
AcDbVisualStyle
  2
ColorChange
 70
    16
 71
     2
 72
     2
 73
     3
 90
        0
 40
-0.6
 41
-30.0
 62
     5
 63
     8
 74
     1
 91
        4
 64
     7
 65
   257
 75
     1
175
     1
 42
1.0
 92
        8
 66
     8
 43
1.0
 76
     1
 77
     6
 78
     2
 67
     7
 79
     5
170
     0
171
     0
290
     0
174
     0
 93
        1
 44
0.0
173
     0
291
     1
 45
0.0
1001
ACAD
1000
AcDbSavedByObjectVersion
1070
     0
  0
VISUALSTYLE
  5
34
102
{ACAD_REACTORS
330
2A
102
}
102
{ACAD_XDICTIONARY
360
173
102
}
330
2A
100
AcDbVisualStyle
  2
Conceptual
 70
     9
 71
     3
 72
     2
 73
     0
 90
        0
 40
-0.6
 41
-30.0
 62
     5
 63
     7
 74
     2
 91
        2
 64
     7
 65
   257
 75
     1
175
     1
 42
40.0
 92
        8
 66
     7
 43
1.0
 76
     1
 77
     6
 78
     2
 67
     7
 79
     3
170
     0
171
     0
290
     0
174
     0
 93
        1
 44
0.0
173
     0
291
     0
 45
0.0
1001
ACAD
1000
AcDbSavedByObjectVersion
1070
     0
  0
VISUALSTYLE
  5
35
102
{ACAD_REACTORS
330
2A
102
}
102
{ACAD_XDICTIONARY
360
175
102
}
330
2A
100
AcDbVisualStyle
  2
Dim
 70
    11
 71
     2
 72
     2
 73
     0
 90
        0
 40
-0.6
 41
-30.0
 62
     5
 63
     7
 74
     1
 91
        4
 64
     7
 65
   257
 75
     1
175
     1
 42
1.0
 92
        8
 66
     7
 43
1.0
 76
     1
 77
     6
 78
     2
 67
     7
 79
     5
170
     0
171
     0
290
     0
174
     0
 93
        1
 44
-50.0
173
     0
291
     1
 45
0.0
1001
ACAD
1000
AcDbSavedByObjectVersion
1070
     0
  0
VISUALSTYLE
  5
39
102
{ACAD_REACTORS
330
2A
102
}
102
{ACAD_XDICTIONARY
360
17D
102
}
330
2A
100
AcDbVisualStyle
  2
Facepattern
 70
    15
 71
     2
 72
     2
 73
     0
 90
        0
 40
-0.6
 41
-30.0
 62
     5
 63
     7
 74
     1
 91
        4
 64
     7
 65
   257
 75
     1
175
     1
 42
1.0
 92
        8
 66
     7
 43
1.0
 76
     1
 77
     6
 78
     2
 67
     7
 79
     5
170
     0
171
     0
290
     0
174
     0
 93
        1
 44
0.0
173
     0
291
     1
 45
0.0
1001
ACAD
1000
AcDbSavedByObjectVersion
1070
     0
  0
VISUALSTYLE
  5
2B
102
{ACAD_REACTORS
330
2A
102
}
102
{ACAD_XDICTIONARY
360
161
102
}
330
2A
100
AcDbVisualStyle
  2
Flat
 70
     0
 71
     2
 72
     1
 73
     1
 90
        2
 40
-0.6
 41
30.0
 62
     5
 63
     7
 74
     0
 91
        4
 64
     7
 65
   257
 75
     1
175
     1
 42
1.0
 92
        8
 66
     7
 43
1.0
 76
     1
 77
     6
 78
     2
 67
     7
 79
     5
170
     0
171
     0
290
     0
174
     0
 93
       13
 44
0.0
173
     0
291
     1
 45
0.0
1001
ACAD
1000
AcDbSavedByObjectVersion
1070
     0
  0
VISUALSTYLE
  5
2C
102
{ACAD_REACTORS
330
2A
102
}
102
{ACAD_XDICTIONARY
360
163
102
}
330
2A
100
AcDbVisualStyle
  2
FlatWithEdges
 70
     1
 71
     2
 72
     1
 73
     1
 90
        2
 40
-0.6
 41
30.0
 62
     5
 63
     7
 74
     1
 91
        4
 64
     7
 65
   257
 75
     1
175
     1
 42
1.0
 92
        0
 66
   257
 43
1.0
 76
     1
 77
     6
 78
     2
 67
     7
 79
     5
170
     0
171
     0
290
     0
174
     0
 93
       13
 44
0.0
173
     0
291
     1
 45
0.0
1001
ACAD
1000
AcDbSavedByObjectVersion
1070
     0
  0
VISUALSTYLE
  5
2D
102
{ACAD_REACTORS
330
2A
102
}
102
{ACAD_XDICTIONARY
360
165
102
}
330
2A
100
AcDbVisualStyle
  2
Gouraud
 70
     2
 71
     2
 72
     2
 73
     1
 90
        2
 40
-0.6
 41
30.0
 62
     5
 63
     7
 74
     0
 91
        4
 64
     7
 65
   257
 75
     1
175
     1
 42
1.0
 92
        0
 66
     7
 43
1.0
 76
     1
 77
     6
 78
     2
 67
     7
 79
     5
170
     0
171
     0
290
     0
174
     0
 93
       13
 44
0.0
173
     0
291
     1
 45
0.0
1001
ACAD
1000
AcDbSavedByObjectVersion
1070
     0
  0
VISUALSTYLE
  5
2E
102
{ACAD_REACTORS
330
2A
102
}
102
{ACAD_XDICTIONARY
360
167
102
}
330
2A
100
AcDbVisualStyle
  2
GouraudWithEdges
 70
     3
 71
     2
 72
     2
 73
     1
 90
        2
 40
-0.6
 41
30.0
 62
     5
 63
     7
 74
     1
 91
        4
 64
     7
 65
   257
 75
     1
175
     1
 42
1.0
 92
        0
 66
   257
 43
1.0
 76
     1
 77
     6
 78
     2
 67
     7
 79
     5
170
     0
171
     0
290
     0
174
     0
 93
       13
 44
0.0
173
     0
291
     1
 45
0.0
1001
ACAD
1000
AcDbSavedByObjectVersion
1070
     0
  0
VISUALSTYLE
  5
38
102
{ACAD_REACTORS
330
2A
102
}
102
{ACAD_XDICTIONARY
360
17B
102
}
330
2A
100
AcDbVisualStyle
  2
Linepattern
 70
    14
 71
     2
 72
     2
 73
     0
 90
        0
 40
-0.6
 41
-30.0
 62
     5
 63
     7
 74
     1
 91
        4
 64
     7
 65
   257
 75
     7
175
     7
 42
1.0
 92
        8
 66
     7
 43
1.0
 76
     1
 77
     6
 78
     2
 67
     7
 79
     5
170
     0
171
     0
290
     0
174
     0
 93
        1
 44
0.0
173
     0
291
     1
 45
0.0
1001
ACAD
1000
AcDbSavedByObjectVersion
1070
     0
  0
VISUALSTYLE
  5
33
102
{ACAD_REACTORS
330
2A
102
}
102
{ACAD_XDICTIONARY
360
171
102
}
330
2A
100
AcDbVisualStyle
  2
Realistic
 70
     8
 71
     2
 72
     2
 73
     0
 90
        0
 40
-0.6
 41
-30.0
 62
     5
 63
     7
 74
     1
 91
        0
 64
     7
 65
   257
 75
     1
175
     1
 42
1.0
 92
        8
 66
     8
 43
1.0
 76
     1
 77
     6
 78
     2
 67
     7
 79
     5
170
     0
171
     0
290
     0
174
     0
 93
       13
 44
0.0
173
     0
291
     0
 45
0.0
1001
ACAD
1000
AcDbSavedByObjectVersion
1070
     0
  0
VISUALSTYLE
  5
37
102
{ACAD_REACTORS
330
2A
102
}
102
{ACAD_XDICTIONARY
360
179
102
}
330
2A
100
AcDbVisualStyle
  2
Thicken
 70
    13
 71
     2
 72
     2
 73
     0
 90
        0
 40
-0.6
 41
-30.0
 62
     5
 63
     7
 74
     1
 91
        4
 64
     7
 65
   257
 75
     1
175
     1
 42
1.0
 92
       12
 66
     7
 43
1.0
 76
     1
 77
     6
 78
     2
 67
     7
 79
     5
170
     0
171
     0
290
     0
174
     0
 93
        1
 44
0.0
173
     0
291
     1
 45
0.0
1001
ACAD
1000
AcDbSavedByObjectVersion
1070
     0
  0
DICTIONARYVAR
  5
15F
102
{ACAD_REACTORS
330
15C
102
}
330
15C
100
DictionaryVariables
280
     0
  1
2
  0
DICTIONARYVAR
  5
160
102
{ACAD_REACTORS
330
15C
102
}
330
15C
100
DictionaryVariables
280
     0
  1
1
  0
DICTIONARY
  5
183
330
3D
100
AcDbDictionary
280
     1
281
     1
  3
ACAD_XREC_ROUNDTRIP
360
184
  0
DICTIONARY
  5
181
330
3C
100
AcDbDictionary
280
     1
281
     1
  3
ACAD_XREC_ROUNDTRIP
360
182
  0
DICTIONARY
  5
185
330
3E
100
AcDbDictionary
280
     1
281
     1
  3
ACAD_XREC_ROUNDTRIP
360
186
  0
DICTIONARY
  5
169
330
2F
100
AcDbDictionary
280
     1
281
     1
  3
ACAD_XREC_ROUNDTRIP
360
16A
  0
DICTIONARY
  5
16D
330
31
100
AcDbDictionary
280
     1
281
     1
  3
ACAD_XREC_ROUNDTRIP
360
16E
  0
DICTIONARY
  5
16B
330
30
100
AcDbDictionary
280
     1
281
     1
  3
ACAD_XREC_ROUNDTRIP
360
16C
  0
DICTIONARY
  5
16F
330
32
100
AcDbDictionary
280
     1
281
     1
  3
ACAD_XREC_ROUNDTRIP
360
170
  0
DICTIONARY
  5
177
330
36
100
AcDbDictionary
280
     1
281
     1
  3
ACAD_XREC_ROUNDTRIP
360
178
  0
DICTIONARY
  5
17F
330
3A
100
AcDbDictionary
280
     1
281
     1
  3
ACAD_XREC_ROUNDTRIP
360
180
  0
DICTIONARY
  5
173
330
34
100
AcDbDictionary
280
     1
281
     1
  3
ACAD_XREC_ROUNDTRIP
360
174
  0
DICTIONARY
  5
175
330
35
100
AcDbDictionary
280
     1
281
     1
  3
ACAD_XREC_ROUNDTRIP
360
176
  0
DICTIONARY
  5
17D
330
39
100
AcDbDictionary
280
     1
281
     1
  3
ACAD_XREC_ROUNDTRIP
360
17E
  0
DICTIONARY
  5
161
330
2B
100
AcDbDictionary
280
     1
281
     1
  3
ACAD_XREC_ROUNDTRIP
360
162
  0
DICTIONARY
  5
163
330
2C
100
AcDbDictionary
280
     1
281
     1
  3
ACAD_XREC_ROUNDTRIP
360
164
  0
DICTIONARY
  5
165
330
2D
100
AcDbDictionary
280
     1
281
     1
  3
ACAD_XREC_ROUNDTRIP
360
166
  0
DICTIONARY
  5
167
330
2E
100
AcDbDictionary
280
     1
281
     1
  3
ACAD_XREC_ROUNDTRIP
360
168
  0
DICTIONARY
  5
17B
330
38
100
AcDbDictionary
280
     1
281
     1
  3
ACAD_XREC_ROUNDTRIP
360
17C
  0
DICTIONARY
  5
171
330
33
100
AcDbDictionary
280
     1
281
     1
  3
ACAD_XREC_ROUNDTRIP
360
172
  0
DICTIONARY
  5
179
330
37
100
AcDbDictionary
280
     1
281
     1
  3
ACAD_XREC_ROUNDTRIP
360
17A
  0
XRECORD
  5
184
102
{ACAD_REACTORS
330
183
102
}
330
183
100
AcDbXrecord
280
     1
102
MATERIAL
148
0.0
149
0.0
149
0.0
 93
        0
 94
      127
282
     0
 72
     1
 77
     1
171
     1
175
     1
179
     1
273
     0
  0
XRECORD
  5
182
102
{ACAD_REACTORS
330
181
102
}
330
181
100
AcDbXrecord
280
     1
102
MATERIAL
148
0.0
149
0.0
149
0.0
 93
        0
 94
      127
282
     0
 72
     1
 77
     1
171
     1
175
     1
179
     1
273
     0
  0
XRECORD
  5
186
102
{ACAD_REACTORS
330
185
102
}
330
185
100
AcDbXrecord
280
     1
102
MATERIAL
148
0.0
149
0.0
149
0.0
 93
        0
 94
      127
282
     0
 72
     1
 77
     1
171
     1
175
     1
179
     1
273
     0
  0
XRECORD
  5
16A
102
{ACAD_REACTORS
330
169
102
}
330
169
100
AcDbXrecord
280
     1
102
RTVSPropertyOp0
 70
     1
102
RTVSPropertyOp1
 70
     1
102
RTVSPropertyOp2
 70
     1
102
RTVSPropertyOp3
 70
     1
102
RTVSPropertyOp4
 70
     1
102
RTVSPropertyOp5
 70
     1
102
RTVSPropertyOp6
 70
     1
102
RTVSPropertyOp7
 70
     1
102
RTVSPropertyOp8
 70
     1
102
RTVSPropertyOp9
 70
     1
102
RTVSPropertyOp10
 70
     1
102
RTVSPropertyOp11
 70
     1
102
RTVSPropertyOp12
 70
     1
102
RTVSPropertyOp13
 70
     1
102
RTVSPropertyOp14
 70
     1
102
RTVSPropertyOp15
 70
     1
102
RTVSPropertyOp16
 70
     1
102
RTVSPropertyOp17
 70
     1
102
RTVSPropertyOp18
 70
     1
102
RTVSPropertyOp19
 70
     1
102
RTVSPropertyOp20
 70
     1
102
RTVSPropertyOp21
 70
     1
102
RTVSPropertyOp22
 70
     1
102
RTVSPropertyOp23
 70
     1
102
RTVSPropertyOp24
 70
     1
102
RTVSPropertyOp25
 70
     1
102
RTVSPropertyOp26
 70
     1
102
RTVSPropertyOp27
 70
     1
  0
XRECORD
  5
16E
102
{ACAD_REACTORS
330
16D
102
}
330
16D
100
AcDbXrecord
280
     1
102
RTVSPropertyOp0
 70
     1
102
RTVSPropertyOp1
 70
     1
102
RTVSPropertyOp2
 70
     1
102
RTVSPropertyOp3
 70
     1
102
RTVSPropertyOp4
 70
     1
102
RTVSPropertyOp5
 70
     1
102
RTVSPropertyOp6
 70
     1
102
RTVSPropertyOp7
 70
     1
102
RTVSPropertyOp8
 70
     1
102
RTVSPropertyOp9
 70
     1
102
RTVSPropertyOp10
 70
     1
102
RTVSPropertyOp11
 70
     1
102
RTVSPropertyOp12
 70
     1
102
RTVSPropertyOp13
 70
     1
102
RTVSPropertyOp14
 70
     1
102
RTVSPropertyOp15
 70
     1
102
RTVSPropertyOp16
 70
     1
102
RTVSPropertyOp17
 70
     1
102
RTVSPropertyOp18
 70
     1
102
RTVSPropertyOp19
 70
     1
102
RTVSPropertyOp20
 70
     1
102
RTVSPropertyOp21
 70
     1
102
RTVSPropertyOp22
 70
     1
102
RTVSPropertyOp23
 70
     1
102
RTVSPropertyOp24
 70
     1
102
RTVSPropertyOp25
 70
     1
102
RTVSPropertyOp26
 70
     1
102
RTVSPropertyOp27
 70
     1
  0
XRECORD
  5
16C
102
{ACAD_REACTORS
330
16B
102
}
330
16B
100
AcDbXrecord
280
     1
102
RTVSPropertyOp0
 70
     1
102
RTVSPropertyOp1
 70
     1
102
RTVSPropertyOp2
 70
     1
102
RTVSPropertyOp3
 70
     1
102
RTVSPropertyOp4
 70
     1
102
RTVSPropertyOp5
 70
     1
102
RTVSPropertyOp6
 70
     1
102
RTVSPropertyOp7
 70
     1
102
RTVSPropertyOp8
 70
     1
102
RTVSPropertyOp9
 70
     1
102
RTVSPropertyOp10
 70
     1
102
RTVSPropertyOp11
 70
     1
102
RTVSPropertyOp12
 70
     1
102
RTVSPropertyOp13
 70
     1
102
RTVSPropertyOp14
 70
     1
102
RTVSPropertyOp15
 70
     1
102
RTVSPropertyOp16
 70
     1
102
RTVSPropertyOp17
 70
     1
102
RTVSPropertyOp18
 70
     1
102
RTVSPropertyOp19
 70
     1
102
RTVSPropertyOp20
 70
     1
102
RTVSPropertyOp21
 70
     1
102
RTVSPropertyOp22
 70
     1
102
RTVSPropertyOp23
 70
     1
102
RTVSPropertyOp24
 70
     1
102
RTVSPropertyOp25
 70
     1
102
RTVSPropertyOp26
 70
     1
102
RTVSPropertyOp27
 70
     1
  0
XRECORD
  5
170
102
{ACAD_REACTORS
330
16F
102
}
330
16F
100
AcDbXrecord
280
     1
102
RTVSPropertyOp0
 70
     1
102
RTVSPropertyOp1
 70
     1
102
RTVSPropertyOp2
 70
     1
102
RTVSPropertyOp3
 70
     1
102
RTVSPropertyOp4
 70
     1
102
RTVSPropertyOp5
 70
     1
102
RTVSPropertyOp6
 70
     1
102
RTVSPropertyOp7
 70
     1
102
RTVSPropertyOp8
 70
     1
102
RTVSPropertyOp9
 70
     1
102
RTVSPropertyOp10
 70
     1
102
RTVSPropertyOp11
 70
     1
102
RTVSPropertyOp12
 70
     1
102
RTVSPropertyOp13
 70
     1
102
RTVSPropertyOp14
 70
     1
102
RTVSPropertyOp15
 70
     1
102
RTVSPropertyOp16
 70
     1
102
RTVSPropertyOp17
 70
     1
102
RTVSPropertyOp18
 70
     1
102
RTVSPropertyOp19
 70
     1
102
RTVSPropertyOp20
 70
     1
102
RTVSPropertyOp21
 70
     1
102
RTVSPropertyOp22
 70
     1
102
RTVSPropertyOp23
 70
     1
102
RTVSPropertyOp24
 70
     1
102
RTVSPropertyOp25
 70
     1
102
RTVSPropertyOp26
 70
     1
102
RTVSPropertyOp27
 70
     1
  0
XRECORD
  5
178
102
{ACAD_REACTORS
330
177
102
}
330
177
100
AcDbXrecord
280
     1
102
RTVSPropertyOp0
 70
     1
102
RTVSPropertyOp1
 70
     1
102
RTVSPropertyOp2
 70
     1
102
RTVSPropertyOp3
 70
     1
102
RTVSPropertyOp4
 70
     1
102
RTVSPropertyOp5
 70
     1
102
RTVSPropertyOp6
 70
     1
102
RTVSPropertyOp7
 70
     1
102
RTVSPropertyOp8
 70
     1
102
RTVSPropertyOp9
 70
     1
102
RTVSPropertyOp10
 70
     1
102
RTVSPropertyOp11
 70
     1
102
RTVSPropertyOp12
 70
     1
102
RTVSPropertyOp13
 70
     1
102
RTVSPropertyOp14
 70
     1
102
RTVSPropertyOp15
 70
     1
102
RTVSPropertyOp16
 70
     1
102
RTVSPropertyOp17
 70
     1
102
RTVSPropertyOp18
 70
     1
102
RTVSPropertyOp19
 70
     1
102
RTVSPropertyOp20
 70
     1
102
RTVSPropertyOp21
 70
     1
102
RTVSPropertyOp22
 70
     1
102
RTVSPropertyOp23
 70
     1
102
RTVSPropertyOp24
 70
     1
102
RTVSPropertyOp25
 70
     1
102
RTVSPropertyOp26
 70
     1
102
RTVSPropertyOp27
 70
     1
  0
XRECORD
  5
180
102
{ACAD_REACTORS
330
17F
102
}
330
17F
100
AcDbXrecord
280
     1
102
RTVSPropertyOp0
 70
     1
102
RTVSPropertyOp1
 70
     1
102
RTVSPropertyOp2
 70
     1
102
RTVSPropertyOp3
 70
     1
102
RTVSPropertyOp4
 70
     1
102
RTVSPropertyOp5
 70
     1
102
RTVSPropertyOp6
 70
     1
102
RTVSPropertyOp7
 70
     1
102
RTVSPropertyOp8
 70
     1
102
RTVSPropertyOp9
 70
     1
102
RTVSPropertyOp10
 70
     1
102
RTVSPropertyOp11
 70
     1
102
RTVSPropertyOp12
 70
     1
102
RTVSPropertyOp13
 70
     1
102
RTVSPropertyOp14
 70
     1
102
RTVSPropertyOp15
 70
     1
102
RTVSPropertyOp16
 70
     1
102
RTVSPropertyOp17
 70
     1
102
RTVSPropertyOp18
 70
     1
102
RTVSPropertyOp19
 70
     1
102
RTVSPropertyOp20
 70
     1
102
RTVSPropertyOp21
 70
     1
102
RTVSPropertyOp22
 70
     1
102
RTVSPropertyOp23
 70
     1
102
RTVSPropertyOp24
 70
     1
102
RTVSPropertyOp25
 70
     1
102
RTVSPropertyOp26
 70
     1
102
RTVSPropertyOp27
 70
     1
  0
XRECORD
  5
174
102
{ACAD_REACTORS
330
173
102
}
330
173
100
AcDbXrecord
280
     1
102
RTVSPropertyOp0
 70
     1
102
RTVSPropertyOp1
 70
     1
102
RTVSPropertyOp2
 70
     1
102
RTVSPropertyOp3
 70
     1
102
RTVSPropertyOp4
 70
     1
102
RTVSPropertyOp5
 70
     1
102
RTVSPropertyOp6
 70
     1
102
RTVSPropertyOp7
 70
     1
102
RTVSPropertyOp8
 70
     1
102
RTVSPropertyOp9
 70
     1
102
RTVSPropertyOp10
 70
     1
102
RTVSPropertyOp11
 70
     1
102
RTVSPropertyOp12
 70
     1
102
RTVSPropertyOp13
 70
     1
102
RTVSPropertyOp14
 70
     1
102
RTVSPropertyOp15
 70
     1
102
RTVSPropertyOp16
 70
     1
102
RTVSPropertyOp17
 70
     1
102
RTVSPropertyOp18
 70
     1
102
RTVSPropertyOp19
 70
     1
102
RTVSPropertyOp20
 70
     1
102
RTVSPropertyOp21
 70
     1
102
RTVSPropertyOp22
 70
     1
102
RTVSPropertyOp23
 70
     1
102
RTVSPropertyOp24
 70
     1
102
RTVSPropertyOp25
 70
     1
102
RTVSPropertyOp26
 70
     1
102
RTVSPropertyOp27
 70
     1
  0
XRECORD
  5
176
102
{ACAD_REACTORS
330
175
102
}
330
175
100
AcDbXrecord
280
     1
102
RTVSPropertyOp0
 70
     1
102
RTVSPropertyOp1
 70
     1
102
RTVSPropertyOp2
 70
     1
102
RTVSPropertyOp3
 70
     1
102
RTVSPropertyOp4
 70
     1
102
RTVSPropertyOp5
 70
     1
102
RTVSPropertyOp6
 70
     1
102
RTVSPropertyOp7
 70
     1
102
RTVSPropertyOp8
 70
     1
102
RTVSPropertyOp9
 70
     1
102
RTVSPropertyOp10
 70
     1
102
RTVSPropertyOp11
 70
     1
102
RTVSPropertyOp12
 70
     1
102
RTVSPropertyOp13
 70
     1
102
RTVSPropertyOp14
 70
     1
102
RTVSPropertyOp15
 70
     1
102
RTVSPropertyOp16
 70
     1
102
RTVSPropertyOp17
 70
     1
102
RTVSPropertyOp18
 70
     1
102
RTVSPropertyOp19
 70
     1
102
RTVSPropertyOp20
 70
     1
102
RTVSPropertyOp21
 70
     1
102
RTVSPropertyOp22
 70
     1
102
RTVSPropertyOp23
 70
     1
102
RTVSPropertyOp24
 70
     1
102
RTVSPropertyOp25
 70
     1
102
RTVSPropertyOp26
 70
     1
102
RTVSPropertyOp27
 70
     1
  0
XRECORD
  5
17E
102
{ACAD_REACTORS
330
17D
102
}
330
17D
100
AcDbXrecord
280
     1
102
RTVSPropertyOp0
 70
     1
102
RTVSPropertyOp1
 70
     1
102
RTVSPropertyOp2
 70
     1
102
RTVSPropertyOp3
 70
     1
102
RTVSPropertyOp4
 70
     1
102
RTVSPropertyOp5
 70
     1
102
RTVSPropertyOp6
 70
     1
102
RTVSPropertyOp7
 70
     1
102
RTVSPropertyOp8
 70
     1
102
RTVSPropertyOp9
 70
     1
102
RTVSPropertyOp10
 70
     1
102
RTVSPropertyOp11
 70
     1
102
RTVSPropertyOp12
 70
     1
102
RTVSPropertyOp13
 70
     1
102
RTVSPropertyOp14
 70
     1
102
RTVSPropertyOp15
 70
     1
102
RTVSPropertyOp16
 70
     1
102
RTVSPropertyOp17
 70
     1
102
RTVSPropertyOp18
 70
     1
102
RTVSPropertyOp19
 70
     1
102
RTVSPropertyOp20
 70
     1
102
RTVSPropertyOp21
 70
     1
102
RTVSPropertyOp22
 70
     1
102
RTVSPropertyOp23
 70
     1
102
RTVSPropertyOp24
 70
     1
102
RTVSPropertyOp25
 70
     1
102
RTVSPropertyOp26
 70
     1
102
RTVSPropertyOp27
 70
     1
  0
XRECORD
  5
162
102
{ACAD_REACTORS
330
161
102
}
330
161
100
AcDbXrecord
280
     1
102
RTVSPropertyOp0
 70
     1
102
RTVSPropertyOp1
 70
     1
102
RTVSPropertyOp2
 70
     1
102
RTVSPropertyOp3
 70
     1
102
RTVSPropertyOp4
 70
     1
102
RTVSPropertyOp5
 70
     1
102
RTVSPropertyOp6
 70
     1
102
RTVSPropertyOp7
 70
     1
102
RTVSPropertyOp8
 70
     1
102
RTVSPropertyOp9
 70
     1
102
RTVSPropertyOp10
 70
     1
102
RTVSPropertyOp11
 70
     1
102
RTVSPropertyOp12
 70
     1
102
RTVSPropertyOp13
 70
     1
102
RTVSPropertyOp14
 70
     1
102
RTVSPropertyOp15
 70
     1
102
RTVSPropertyOp16
 70
     1
102
RTVSPropertyOp17
 70
     1
102
RTVSPropertyOp18
 70
     1
102
RTVSPropertyOp19
 70
     1
102
RTVSPropertyOp20
 70
     1
102
RTVSPropertyOp21
 70
     1
102
RTVSPropertyOp22
 70
     1
102
RTVSPropertyOp23
 70
     1
102
RTVSPropertyOp24
 70
     1
102
RTVSPropertyOp25
 70
     1
102
RTVSPropertyOp26
 70
     1
102
RTVSPropertyOp27
 70
     1
  0
XRECORD
  5
164
102
{ACAD_REACTORS
330
163
102
}
330
163
100
AcDbXrecord
280
     1
102
RTVSPropertyOp0
 70
     1
102
RTVSPropertyOp1
 70
     1
102
RTVSPropertyOp2
 70
     1
102
RTVSPropertyOp3
 70
     1
102
RTVSPropertyOp4
 70
     1
102
RTVSPropertyOp5
 70
     1
102
RTVSPropertyOp6
 70
     1
102
RTVSPropertyOp7
 70
     1
102
RTVSPropertyOp8
 70
     1
102
RTVSPropertyOp9
 70
     1
102
RTVSPropertyOp10
 70
     1
102
RTVSPropertyOp11
 70
     1
102
RTVSPropertyOp12
 70
     1
102
RTVSPropertyOp13
 70
     1
102
RTVSPropertyOp14
 70
     1
102
RTVSPropertyOp15
 70
     1
102
RTVSPropertyOp16
 70
     1
102
RTVSPropertyOp17
 70
     1
102
RTVSPropertyOp18
 70
     1
102
RTVSPropertyOp19
 70
     1
102
RTVSPropertyOp20
 70
     1
102
RTVSPropertyOp21
 70
     1
102
RTVSPropertyOp22
 70
     1
102
RTVSPropertyOp23
 70
     1
102
RTVSPropertyOp24
 70
     1
102
RTVSPropertyOp25
 70
     1
102
RTVSPropertyOp26
 70
     1
102
RTVSPropertyOp27
 70
     1
  0
XRECORD
  5
166
102
{ACAD_REACTORS
330
165
102
}
330
165
100
AcDbXrecord
280
     1
102
RTVSPropertyOp0
 70
     1
102
RTVSPropertyOp1
 70
     1
102
RTVSPropertyOp2
 70
     1
102
RTVSPropertyOp3
 70
     1
102
RTVSPropertyOp4
 70
     1
102
RTVSPropertyOp5
 70
     1
102
RTVSPropertyOp6
 70
     1
102
RTVSPropertyOp7
 70
     1
102
RTVSPropertyOp8
 70
     1
102
RTVSPropertyOp9
 70
     1
102
RTVSPropertyOp10
 70
     1
102
RTVSPropertyOp11
 70
     1
102
RTVSPropertyOp12
 70
     1
102
RTVSPropertyOp13
 70
     1
102
RTVSPropertyOp14
 70
     1
102
RTVSPropertyOp15
 70
     1
102
RTVSPropertyOp16
 70
     1
102
RTVSPropertyOp17
 70
     1
102
RTVSPropertyOp18
 70
     1
102
RTVSPropertyOp19
 70
     1
102
RTVSPropertyOp20
 70
     1
102
RTVSPropertyOp21
 70
     1
102
RTVSPropertyOp22
 70
     1
102
RTVSPropertyOp23
 70
     1
102
RTVSPropertyOp24
 70
     1
102
RTVSPropertyOp25
 70
     1
102
RTVSPropertyOp26
 70
     1
102
RTVSPropertyOp27
 70
     1
  0
XRECORD
  5
168
102
{ACAD_REACTORS
330
167
102
}
330
167
100
AcDbXrecord
280
     1
102
RTVSPropertyOp0
 70
     1
102
RTVSPropertyOp1
 70
     1
102
RTVSPropertyOp2
 70
     1
102
RTVSPropertyOp3
 70
     1
102
RTVSPropertyOp4
 70
     1
102
RTVSPropertyOp5
 70
     1
102
RTVSPropertyOp6
 70
     1
102
RTVSPropertyOp7
 70
     1
102
RTVSPropertyOp8
 70
     1
102
RTVSPropertyOp9
 70
     1
102
RTVSPropertyOp10
 70
     1
102
RTVSPropertyOp11
 70
     1
102
RTVSPropertyOp12
 70
     1
102
RTVSPropertyOp13
 70
     1
102
RTVSPropertyOp14
 70
     1
102
RTVSPropertyOp15
 70
     1
102
RTVSPropertyOp16
 70
     1
102
RTVSPropertyOp17
 70
     1
102
RTVSPropertyOp18
 70
     1
102
RTVSPropertyOp19
 70
     1
102
RTVSPropertyOp20
 70
     1
102
RTVSPropertyOp21
 70
     1
102
RTVSPropertyOp22
 70
     1
102
RTVSPropertyOp23
 70
     1
102
RTVSPropertyOp24
 70
     1
102
RTVSPropertyOp25
 70
     1
102
RTVSPropertyOp26
 70
     1
102
RTVSPropertyOp27
 70
     1
  0
XRECORD
  5
17C
102
{ACAD_REACTORS
330
17B
102
}
330
17B
100
AcDbXrecord
280
     1
102
RTVSPropertyOp0
 70
     1
102
RTVSPropertyOp1
 70
     1
102
RTVSPropertyOp2
 70
     1
102
RTVSPropertyOp3
 70
     1
102
RTVSPropertyOp4
 70
     1
102
RTVSPropertyOp5
 70
     1
102
RTVSPropertyOp6
 70
     1
102
RTVSPropertyOp7
 70
     1
102
RTVSPropertyOp8
 70
     1
102
RTVSPropertyOp9
 70
     1
102
RTVSPropertyOp10
 70
     1
102
RTVSPropertyOp11
 70
     1
102
RTVSPropertyOp12
 70
     1
102
RTVSPropertyOp13
 70
     1
102
RTVSPropertyOp14
 70
     1
102
RTVSPropertyOp15
 70
     1
102
RTVSPropertyOp16
 70
     1
102
RTVSPropertyOp17
 70
     1
102
RTVSPropertyOp18
 70
     1
102
RTVSPropertyOp19
 70
     1
102
RTVSPropertyOp20
 70
     1
102
RTVSPropertyOp21
 70
     1
102
RTVSPropertyOp22
 70
     1
102
RTVSPropertyOp23
 70
     1
102
RTVSPropertyOp24
 70
     1
102
RTVSPropertyOp25
 70
     1
102
RTVSPropertyOp26
 70
     1
102
RTVSPropertyOp27
 70
     1
  0
XRECORD
  5
172
102
{ACAD_REACTORS
330
171
102
}
330
171
100
AcDbXrecord
280
     1
102
RTVSPropertyOp0
 70
     1
102
RTVSPropertyOp1
 70
     1
102
RTVSPropertyOp2
 70
     1
102
RTVSPropertyOp3
 70
     1
102
RTVSPropertyOp4
 70
     1
102
RTVSPropertyOp5
 70
     1
102
RTVSPropertyOp6
 70
     1
102
RTVSPropertyOp7
 70
     1
102
RTVSPropertyOp8
 70
     1
102
RTVSPropertyOp9
 70
     1
102
RTVSPropertyOp10
 70
     1
102
RTVSPropertyOp11
 70
     1
102
RTVSPropertyOp12
 70
     1
102
RTVSPropertyOp13
 70
     1
102
RTVSPropertyOp14
 70
     1
102
RTVSPropertyOp15
 70
     1
102
RTVSPropertyOp16
 70
     1
102
RTVSPropertyOp17
 70
     1
102
RTVSPropertyOp18
 70
     1
102
RTVSPropertyOp19
 70
     1
102
RTVSPropertyOp20
 70
     1
102
RTVSPropertyOp21
 70
     1
102
RTVSPropertyOp22
 70
     1
102
RTVSPropertyOp23
 70
     1
102
RTVSPropertyOp24
 70
     1
102
RTVSPropertyOp25
 70
     1
102
RTVSPropertyOp26
 70
     1
102
RTVSPropertyOp27
 70
     1
  0
XRECORD
  5
17A
102
{ACAD_REACTORS
330
179
102
}
330
179
100
AcDbXrecord
280
     1
102
RTVSPropertyOp0
 70
     1
102
RTVSPropertyOp1
 70
     1
102
RTVSPropertyOp2
 70
     1
102
RTVSPropertyOp3
 70
     1
102
RTVSPropertyOp4
 70
     1
102
RTVSPropertyOp5
 70
     1
102
RTVSPropertyOp6
 70
     1
102
RTVSPropertyOp7
 70
     1
102
RTVSPropertyOp8
 70
     1
102
RTVSPropertyOp9
 70
     1
102
RTVSPropertyOp10
 70
     1
102
RTVSPropertyOp11
 70
     1
102
RTVSPropertyOp12
 70
     1
102
RTVSPropertyOp13
 70
     1
102
RTVSPropertyOp14
 70
     1
102
RTVSPropertyOp15
 70
     1
102
RTVSPropertyOp16
 70
     1
102
RTVSPropertyOp17
 70
     1
102
RTVSPropertyOp18
 70
     1
102
RTVSPropertyOp19
 70
     1
102
RTVSPropertyOp20
 70
     1
102
RTVSPropertyOp21
 70
     1
102
RTVSPropertyOp22
 70
     1
102
RTVSPropertyOp23
 70
     1
102
RTVSPropertyOp24
 70
     1
102
RTVSPropertyOp25
 70
     1
102
RTVSPropertyOp26
 70
     1
102
RTVSPropertyOp27
 70
     1
  0
ENDSEC
  0
EOF
