  0
SECTION
  2
HEADER
  9
$ACADVER
  1
AC1015
  9
$ACADMAINTVER
 70
     6
  9
$DWGCODEPAGE
  3
ANSI_1252
  9
$INSBASE
 10
0.0
 20
0.0
 30
0.0
  9
$EXTMIN
 10
-712.6168367346941
 20
-107.9367346938781
 30
0.0
  9
$EXTMAX
 10
2903.362555990912
 20
2010.926739039981
 30
0.0
  9
$LIMMIN
 10
0.0
 20
0.0
  9
$LIMMAX
 10
12.0
 20
9.0
  9
$ORTHOMODE
 70
     0
  9
$REGENMODE
 70
     1
  9
$FILLMODE
 70
     1
  9
$QTEXTMODE
 70
     0
  9
$MIRRTEXT
 70
     1
  9
$LTSCALE
 40
1.0
  9
$ATTMODE
 70
     1
  9
$TEXTSIZE
 40
0.2
  9
$TRACEWID
 40
0.05
  9
$TEXTSTYLE
  7
Standard
  9
$CLAYER
  8
0
  9
$CELTYPE
  6
ByLayer
  9
$CECOLOR
 62
   256
  9
$CELTSCALE
 40
1.0
  9
$DISPSILH
 70
     0
  9
$DIMSCALE
 40
1.0
  9
$DIMASZ
 40
0.18
  9
$DIMEXO
 40
0.0625
  9
$DIMDLI
 40
0.38
  9
$DIMRND
 40
0.0
  9
$DIMDLE
 40
0.0
  9
$DIMEXE
 40
0.18
  9
$DIMTP
 40
0.0
  9
$DIMTM
 40
0.0
  9
$DIMTXT
 40
0.18
  9
$DIMCEN
 40
0.09
  9
$DIMTSZ
 40
0.0
  9
$DIMTOL
 70
     0
  9
$DIMLIM
 70
     0
  9
$DIMTIH
 70
     1
  9
$DIMTOH
 70
     1
  9
$DIMSE1
 70
     0
  9
$DIMSE2
 70
     0
  9
$DIMTAD
 70
     0
  9
$DIMZIN
 70
     0
  9
$DIMBLK
  1

  9
$DIMASO
 70
     1
  9
$DIMSHO
 70
     1
  9
$DIMPOST
  1

  9
$DIMAPOST
  1

  9
$DIMALT
 70
     0
  9
$DIMALTD
 70
     2
  9
$DIMALTF
 40
25.4
  9
$DIMLFAC
 40
1.0
  9
$DIMTOFL
 70
     0
  9
$DIMTVP
 40
0.0
  9
$DIMTIX
 70
     0
  9
$DIMSOXD
 70
     0
  9
$DIMSAH
 70
     0
  9
$DIMBLK1
  1

  9
$DIMBLK2
  1

  9
$DIMSTYLE
  2
Standard
  9
$DIMCLRD
 70
     0
  9
$DIMCLRE
 70
     0
  9
$DIMCLRT
 70
     0
  9
$DIMTFAC
 40
1.0
  9
$DIMGAP
 40
0.09
  9
$DIMJUST
 70
     0
  9
$DIMSD1
 70
     0
  9
$DIMSD2
 70
     0
  9
$DIMTOLJ
 70
     1
  9
$DIMTZIN
 70
     0
  9
$DIMALTZ
 70
     0
  9
$DIMALTTZ
 70
     0
  9
$DIMUPT
 70
     0
  9
$DIMDEC
 70
     4
  9
$DIMTDEC
 70
     4
  9
$DIMALTU
 70
     2
  9
$DIMALTTD
 70
     2
  9
$DIMTXSTY
  7
Standard
  9
$DIMAUNIT
 70
     0
  9
$DIMADEC
 70
     0
  9
$DIMALTRND
 40
0.0
  9
$DIMAZIN
 70
     0
  9
$DIMDSEP
 70
    46
  9
$DIMATFIT
 70
     3
  9
$DIMFRAC
 70
     0
  9
$DIMLDRBLK
  1

  9
$DIMLUNIT
 70
     2
  9
$DIMLWD
 70
    -2
  9
$DIMLWE
 70
    -2
  9
$DIMTMOVE
 70
     0
  9
$LUNITS
 70
     2
  9
$LUPREC
 70
     4
  9
$SKETCHINC
 40
0.1
  9
$FILLETRAD
 40
0.5
  9
$AUNITS
 70
     0
  9
$AUPREC
 70
     0
  9
$MENU
  1
.
  9
$ELEVATION
 40
0.0
  9
$PELEVATION
 40
0.0
  9
$THICKNESS
 40
0.0
  9
$LIMCHECK
 70
     0
  9
$CHAMFERA
 40
0.5
  9
$CHAMFERB
 40
0.5
  9
$CHAMFERC
 40
1.0
  9
$CHAMFERD
 40
0.0
  9
$SKPOLY
 70
     0
  9
$TDCREATE
 40
2454846.39417191
  9
$TDUCREATE
 40
2454846.352505243
  9
$TDUPDATE
 40
2454846.394171921
  9
$TDUUPDATE
 40
2454846.352505255
  9
$TDINDWG
 40
0.0000000116
  9
$TDUSRTIMER
 40
0.0000000116
  9
$USRTIMER
 70
     1
  9
$ANGBASE
 50
0.0
  9
$ANGDIR
 70
     0
  9
$PDMODE
 70
     0
  9
$PDSIZE
 40
0.0
  9
$PLINEWID
 40
0.0
  9
$SPLFRAME
 70
     0
  9
$SPLINETYPE
 70
     6
  9
$SPLINESEGS
 70
     8
  9
$HANDSEED
  5
48E
  9
$SURFTAB1
 70
     6
  9
$SURFTAB2
 70
     6
  9
$SURFTYPE
 70
     6
  9
$SURFU
 70
     6
  9
$SURFV
 70
     6
  9
$UCSBASE
  2

  9
$UCSNAME
  2

  9
$UCSORG
 10
0.0
 20
0.0
 30
0.0
  9
$UCSXDIR
 10
1.0
 20
0.0
 30
0.0
  9
$UCSYDIR
 10
0.0
 20
1.0
 30
0.0
  9
$UCSORTHOREF
  2

  9
$UCSORTHOVIEW
 70
     0
  9
$UCSORGTOP
 10
0.0
 20
0.0
 30
0.0
  9
$UCSORGBOTTOM
 10
0.0
 20
0.0
 30
0.0
  9
$UCSORGLEFT
 10
0.0
 20
0.0
 30
0.0
  9
$UCSORGRIGHT
 10
0.0
 20
0.0
 30
0.0
  9
$UCSORGFRONT
 10
0.0
 20
0.0
 30
0.0
  9
$UCSORGBACK
 10
0.0
 20
0.0
 30
0.0
  9
$PUCSBASE
  2

  9
$PUCSNAME
  2

  9
$PUCSORG
 10
0.0
 20
0.0
 30
0.0
  9
$PUCSXDIR
 10
1.0
 20
0.0
 30
0.0
  9
$PUCSYDIR
 10
0.0
 20
1.0
 30
0.0
  9
$PUCSORTHOREF
  2

  9
$PUCSORTHOVIEW
 70
     0
  9
$PUCSORGTOP
 10
0.0
 20
0.0
 30
0.0
  9
$PUCSORGBOTTOM
 10
0.0
 20
0.0
 30
0.0
  9
$PUCSORGLEFT
 10
0.0
 20
0.0
 30
0.0
  9
$PUCSORGRIGHT
 10
0.0
 20
0.0
 30
0.0
  9
$PUCSORGFRONT
 10
0.0
 20
0.0
 30
0.0
  9
$PUCSORGBACK
 10
0.0
 20
0.0
 30
0.0
  9
$USERI1
 70
     0
  9
$USERI2
 70
     0
  9
$USERI3
 70
     0
  9
$USERI4
 70
     0
  9
$USERI5
 70
     0
  9
$USERR1
 40
13.01
  9
$USERR2
 40
0.0
  9
$USERR3
 40
0.0
  9
$USERR4
 40
0.0
  9
$USERR5
 40
0.0
  9
$WORLDVIEW
 70
     1
  9
$SHADEDGE
 70
     3
  9
$SHADEDIF
 70
    70
  9
$TILEMODE
 70
     1
  9
$MAXACTVP
 70
    64
  9
$PINSBASE
 10
0.0
 20
0.0
 30
0.0
  9
$PLIMCHECK
 70
     0
  9
$PEXTMIN
 10
1.00000000000000E+20
 20
1.00000000000000E+20
 30
1.00000000000000E+20
  9
$PEXTMAX
 10
-1.00000000000000E+20
 20
-1.00000000000000E+20
 30
-1.00000000000000E+20
  9
$PLIMMIN
 10
0.0
 20
0.0
  9
$PLIMMAX
 10
12.0
 20
9.0
  9
$UNITMODE
 70
     0
  9
$VISRETAIN
 70
     1
  9
$PLINEGEN
 70
     0
  9
$PSLTSCALE
 70
     1
  9
$TREEDEPTH
 70
  3020
  9
$CMLSTYLE
  2
Standard
  9
$CMLJUST
 70
     0
  9
$CMLSCALE
 40
1.0
  9
$PROXYGRAPHICS
 70
     1
  9
$MEASUREMENT
 70
     1
  9
$CELWEIGHT
370
    -1
  9
$ENDCAPS
280
     0
  9
$JOINSTYLE
280
     0
  9
$LWDISPLAY
290
     0
  9
$INSUNITS
 70
     1
  9
$HYPERLINKBASE
  1

  9
$STYLESHEET
  1

  9
$XEDIT
290
     1
  9
$CEPSNTYPE
380
     0
  9
$PSTYLEMODE
290
     0
  9
$FINGERPRINTGUID
  2
{FAEB1C30-E019-11D5-929B-00C0DF256EC4}
  9
$VERSIONGUID
  2
{FAEB1C32-E019-11D5-929B-00C0DF256EC4}
  9
$EXTNAMES
290
     1
  9
$PSVPSCALE
 40
0.0
  9
$OLESTARTUP
290
     0
  0
ENDSEC
  0
SECTION
  2
CLASSES
  0
CLASS
  1
ACDBDICTIONARYWDFLT
  2
AcDbDictionaryWithDefault
  3
ObjectDBX Classes
 90
        0
280
     0
281
     0
  0
CLASS
  1
TABLESTYLE
  2
AcDbTableStyle
  3
ObjectDBX Classes
 90
     2047
280
     0
281
     0
  0
CLASS
  1
DICTIONARYVAR
  2
AcDbDictionaryVar
  3
ObjectDBX Classes
 90
        0
280
     0
281
     0
  0
CLASS
  1

  2
exOdDbCircle
  3

 90
        0
280
     0
281
     1
  0
CLASS
  1

  2
exOdDbSpline
  3

 90
        0
280
     0
281
     1
  0
CLASS
  1

  2
exOdDbPolyline
  3

 90
        0
280
     0
281
     1
  0
CLASS
  1
ACDBPLACEHOLDER
  2
AcDbPlaceHolder
  3
ObjectDBX Classes
 90
        0
280
     0
281
     0
  0
CLASS
  1
LAYOUT
  2
AcDbLayout
  3
ObjectDBX Classes
 90
        0
280
     0
281
     0
  0
ENDSEC
  0
SECTION
  2
TABLES
  0
TABLE
  2
VPORT
  5
8
330
0
100
AcDbSymbolTable
 70
     2
  0
VPORT
  5
29
330
8
100
AcDbSymbolTableRecord
100
AcDbViewportTableRecord
  2
*Active
 70
     0
 10
0.0
 20
0.0
 11
1.0
 21
1.0
 12
1095.372859628109
 22
951.4950021730514
 13
0.0
 23
0.0
 14
0.5
 24
0.5
 15
0.5
 25
0.5
 16
0.0
 26
0.0
 36
1.0
 17
0.0
 27
0.0
 37
0.0
 40
2481.83098152532
 41
1.60267857142857
 42
50.0
 43
0.0
 44
0.0
 50
0.0
 51
0.0
 71
     0
 72
   100
 73
     1
 74
     3
 75
     0
 76
     0
 77
     0
 78
     0
281
     0
 65
     1
110
0.0
120
0.0
130
0.0
111
1.0
121
0.0
131
0.0
112
0.0
122
1.0
132
0.0
 79
     0
146
0.0
  0
ENDTAB
  0
TABLE
  2
LTYPE
  5
5
330
0
100
AcDbSymbolTable
 70
     8
  0
LTYPE
  5
14
330
5
100
AcDbSymbolTableRecord
100
AcDbLinetypeTableRecord
  2
ByBlock
 70
     0
  3

 72
    65
 73
     0
 40
0.0
  0
LTYPE
  5
15
330
5
100
AcDbSymbolTableRecord
100
AcDbLinetypeTableRecord
  2
ByLayer
 70
     0
  3

 72
    65
 73
     0
 40
0.0
  0
LTYPE
  5
16
330
5
100
AcDbSymbolTableRecord
100
AcDbLinetypeTableRecord
  2
Continuous
 70
     0
  3
Solid line
 72
    65
 73
     0
 40
0.0
  0
LTYPE
  5
2E
330
5
100
AcDbSymbolTableRecord
100
AcDbLinetypeTableRecord
  2
DASHED
 70
     0
  3
Dashed
 72
    65
 73
     2
 40
15.0
 49
7.0
 74
     0
 49
-8.0
 74
     0
  0
LTYPE
  5
2F
330
5
100
AcDbSymbolTableRecord
100
AcDbLinetypeTableRecord
  2
DOTTED
 70
     0
  3
Dotted
 72
    65
 73
     2
 40
1.0
 49
0.0
 74
     0
 49
-1.0
 74
     0
  0
LTYPE
  5
30
330
5
100
AcDbSymbolTableRecord
100
AcDbLinetypeTableRecord
  2
DOT_CENTER
 70
     0
  3
Dot_Center
 72
    65
 73
     4
 40
14.0
 49
12.0
 74
     0
 49
-1.0
 74
     0
 49
0.0
 74
     0
 49
-1.0
 74
     0
  0
LTYPE
  5
31
330
5
100
AcDbSymbolTableRecord
100
AcDbLinetypeTableRecord
  2
LONG_DASHED
 70
     0
  3
Long_Dashed
 72
    65
 73
     2
 40
15.0
 49
10.0
 74
     0
 49
-5.0
 74
     0
  0
LTYPE
  5
32
330
5
100
AcDbSymbolTableRecord
100
AcDbLinetypeTableRecord
  2
DASH_CENTER
 70
     0
  3
Dash_Center
 72
    65
 73
     4
 40
14.0
 49
11.0
 74
     0
 49
-1.0
 74
     0
 49
1.0
 74
     0
 49
-1.0
 74
     0
  0
LTYPE
  5
33
330
5
100
AcDbSymbolTableRecord
100
AcDbLinetypeTableRecord
  2
PHANTOM
 70
     0
  3
Phantom
 72
    65
 73
     6
 40
13.0
 49
10.0
 74
     0
 49
-1.0
 74
     0
 49
0.0
 74
     0
 49
-1.0
 74
     0
 49
0.0
 74
     0
 49
-1.0
 74
     0
  0
LTYPE
  5
34
330
5
100
AcDbSymbolTableRecord
100
AcDbLinetypeTableRecord
  2
CENTER_DASH_DASH
 70
     0
  3
Center_Dash_Dash
 72
    65
 73
     6
 40
14.0
 49
9.0
 74
     0
 49
-1.0
 74
     0
 49
1.0
 74
     0
 49
-1.0
 74
     0
 49
1.0
 74
     0
 49
-1.0
 74
     0
  0
ENDTAB
  0
TABLE
  2
LAYER
  5
2
330
0
100
AcDbSymbolTable
 70
     5
  0
LAYER
  5
10
330
2
100
AcDbSymbolTableRecord
100
AcDbLayerTableRecord
  2
0
 70
     0
 62
     7
  6
Continuous
370
    -3
390
F
  0
LAYER
  5
35
330
2
100
AcDbSymbolTableRecord
100
AcDbLayerTableRecord
  2
1
 70
     0
 62
     7
  6
Continuous
370
    -3
390
F
  0
LAYER
  5
36
330
2
100
AcDbSymbolTableRecord
100
AcDbLayerTableRecord
  2
KADDIK
 70
     0
 62
     7
  6
Continuous
370
    -3
390
F
  0
LAYER
  5
37
330
2
100
AcDbSymbolTableRecord
100
AcDbLayerTableRecord
  2
KADDUN
 70
     0
 62
     7
  6
Continuous
370
    -3
390
F
  0
LAYER
  5
38
330
2
100
AcDbSymbolTableRecord
100
AcDbLayerTableRecord
  2
TITELHOEK
 70
     0
 62
     7
  6
Continuous
370
    -3
390
F
  0
ENDTAB
  0
TABLE
  2
STYLE
  5
3
330
0
100
AcDbSymbolTable
 70
     3
  0
STYLE
  5
11
330
3
100
AcDbSymbolTableRecord
100
AcDbTextStyleTableRecord
  2
Standard
 70
     0
 40
0.0
 41
1.0
 50
0.0
 71
     0
 42
0.2
  3
txt
  4

  0
STYLE
  5
3F8
330
3
100
AcDbSymbolTableRecord
100
AcDbTextStyleTableRecord
  2
CONVERTER_1
 70
     0
 40
0.0
 41
0.99
 50
0.0
 71
     0
 42
0.2
  3
txt.shx
  4

  0
STYLE
  5
414
330
3
100
AcDbSymbolTableRecord
100
AcDbTextStyleTableRecord
  2
CONVERTER_2
 70
     0
 40
0.0
 41
0.9
 50
0.0
 71
     0
 42
0.2
  3
txt.shx
  4

  0
ENDTAB
  0
TABLE
  2
VIEW
  5
6
330
0
100
AcDbSymbolTable
 70
     0
  0
ENDTAB
  0
TABLE
  2
UCS
  5
7
330
0
100
AcDbSymbolTable
 70
     0
  0
ENDTAB
  0
TABLE
  2
APPID
  5
9
330
0
100
AcDbSymbolTable
 70
     1
  0
APPID
  5
12
330
9
100
AcDbSymbolTableRecord
100
AcDbRegAppTableRecord
  2
ACAD
 70
     0
  0
ENDTAB
  0
TABLE
  2
DIMSTYLE
  5
A
330
0
100
AcDbSymbolTable
 70
     1
100
AcDbDimStyleTable
  0
DIMSTYLE
105
27
330
A
100
AcDbSymbolTableRecord
100
AcDbDimStyleTableRecord
  2
Standard
 70
     0
340
11
  0
ENDTAB
  0
TABLE
  2
BLOCK_RECORD
  5
1
330
0
100
AcDbSymbolTable
 70
     2
  0
BLOCK_RECORD
  5
1F
330
1
100
AcDbSymbolTableRecord
100
AcDbBlockTableRecord
  2
*Model_Space
340
22
  0
BLOCK_RECORD
  5
1B
330
1
100
AcDbSymbolTableRecord
100
AcDbBlockTableRecord
  2
*Paper_Space
340
1E
  0
BLOCK_RECORD
  5
23
330
1
100
AcDbSymbolTableRecord
100
AcDbBlockTableRecord
  2
*Paper_Space0
340
26
  0
BLOCK_RECORD
  5
39
330
1
100
AcDbSymbolTableRecord
100
AcDbBlockTableRecord
  2
1
340
0
102
{BLKREFS
331
3C
102
}
  0
ENDTAB
  0
ENDSEC
  0
SECTION
  2
BLOCKS
  0
BLOCK
  5
20
330
1F
100
AcDbEntity
  8
0
100
AcDbBlockBegin
  2
*Model_Space
 70
     0
 71
     0
 10
0.0
 20
0.0
 30
0.0
  3
*Model_Space
  1

  0
ENDBLK
  5
21
330
1F
100
AcDbEntity
  8
0
100
AcDbBlockEnd
  0
BLOCK
  5
1C
330
1B
100
AcDbEntity
 67
     1
  8
0
100
AcDbBlockBegin
  2
*Paper_Space
 70
     0
 71
     0
 10
0.0
 20
0.0
 30
0.0
  3
*Paper_Space
  1

  0
ENDBLK
  5
1D
330
1B
100
AcDbEntity
 67
     1
  8
0
100
AcDbBlockEnd
  0
BLOCK
  5
24
330
23
100
AcDbEntity
  8
0
100
AcDbBlockBegin
  2
*Paper_Space0
 70
     0
 71
     0
 10
0.0
 20
0.0
 30
0.0
  3
*Paper_Space0
  1

  0
ENDBLK
  5
25
330
23
100
AcDbEntity
  8
0
100
AcDbBlockEnd
  0
BLOCK
  5
3A
330
39
100
AcDbEntity
  8
0
100
AcDbBlockBegin
  2
1
 70
     0
 71
     0
 10
0.0
 20
0.0
 30
0.0
  3
1
  1

  0
POINT
  5
3D
330
39
100
AcDbEntity
  8
1
 62
     1
100
AcDbPoint
 10
120.383163265306
 20
-100.936734693878
 30
0.0
  0
POINT
  5
3E
330
39
100
AcDbEntity
  8
1
 62
     1
100
AcDbPoint
 10
120.383163265306
 20
-100.936734693878
 30
0.0
  0
POINT
  5
3F
330
39
100
AcDbEntity
  8
1
 62
     5
100
AcDbPoint
 10
120.383163265306
 20
-59.93673469387801
 30
0.0
  0
POINT
  5
40
330
39
100
AcDbEntity
  8
1
 62
     5
100
AcDbPoint
 10
-222.616834734694
 20
-97.936734693878
 30
0.0
  0
POINT
  5
41
330
39
100
AcDbEntity
  8
1
 62
   250
100
AcDbPoint
 10
120.383163265306
 20
-100.936734693878
 30
0.0
  0
POINT
  5
42
330
39
100
AcDbEntity
  8
1
 62
     5
100
AcDbPoint
 10
120.383163265306
 20
-59.93673469387801
 30
0.0
  0
LINE
  5
43
330
39
100
AcDbEntity
  8
TITELHOEK
  6
Continuous
 62
     1
100
AcDbLine
 10
-18.11316773469399
 20
-86.434893693878
 30
0.0
 11
-16.698954734694
 21
-85.02067969387798
 31
0.0
  0
LINE
  5
44
330
39
100
AcDbEntity
  8
TITELHOEK
  6
Continuous
 62
     1
100
AcDbLine
 10
-16.698954734694
 20
-85.02067969387798
 30
0.0
 11
-16.698954734694
 21
-81.02067969387798
 31
0.0
  0
LINE
  5
45
330
39
100
AcDbEntity
  8
TITELHOEK
  6
Continuous
 62
     1
100
AcDbLine
 10
-12.698954734694
 20
-85.02067969387798
 30
0.0
 11
-16.698954734694
 21
-85.02067969387798
 31
0.0
  0
LINE
  5
46
330
39
100
AcDbEntity
  8
TITELHOEK
  6
Continuous
 62
     1
100
AcDbLine
 10
-19.78977073469399
 20
-79.84230869387801
 30
0.0
 11
-23.78977073469399
 21
-79.84230869387801
 31
0.0
  0
LINE
  5
47
330
39
100
AcDbEntity
  8
TITELHOEK
  6
Continuous
 62
     1
100
AcDbLine
 10
-25.20398473469401
 20
-81.25652169387797
 30
0.0
 11
-23.78977073469399
 21
-79.84230869387801
 31
0.0
  0
LINE
  5
48
330
39
100
AcDbEntity
  8
TITELHOEK
  6
Continuous
 62
     1
100
AcDbLine
 10
-23.78977073469399
 20
-79.84230869387801
 30
0.0
 11
-23.78977073469399
 21
-75.84230869387801
 31
0.0
  0
LINE
  5
49
102
{ACAD_REACTORS
330
48D
330
48D
102
}
330
39
100
AcDbEntity
  8
TITELHOEK
  6
Continuous
 62
     1
100
AcDbLine
 10
-21.320274734694
 20
-83.14199969387801
 30
0.0
 11
-18.820274734694
 21
-83.14199969387801
 31
0.0
  0
LINE
  5
4A
102
{ACAD_REACTORS
330
48C
330
48C
102
}
330
39
100
AcDbEntity
  8
TITELHOEK
  6
Continuous
 62
     1
100
AcDbLine
 10
-29.91109173469399
 20
-81.96362869387798
 30
0.0
 11
-25.91109173469399
 21
-81.96362869387798
 31
0.0
  0
LINE
  5
4B
102
{ACAD_REACTORS
330
48C
330
48C
102
}
330
39
100
AcDbEntity
  8
TITELHOEK
  6
Continuous
 62
     1
100
AcDbLine
 10
-25.91109173469399
 20
-81.96362869387798
 30
0.0
 11
-25.91109173469399
 21
-85.96362869387798
 31
0.0
  0
LINE
  5
4C
102
{ACAD_REACTORS
330
48D
330
48D
102
}
330
39
100
AcDbEntity
  8
TITELHOEK
  6
Continuous
 62
     1
100
AcDbLine
 10
-18.820274734694
 20
-87.14199969387801
 30
0.0
 11
-18.820274734694
 21
-83.14199969387801
 31
0.0
  0
LINE
  5
4D
102
{ACAD_REACTORS
330
48D
330
48D
102
}
330
39
100
AcDbEntity
  8
TITELHOEK
  6
Continuous
 62
     1
100
AcDbLine
 10
-14.820274734694
 20
-87.14199969387801
 30
0.0
 11
-18.820274734694
 21
-87.14199969387801
 31
0.0
  0
LINE
  5
4E
102
{ACAD_REACTORS
330
48D
330
48D
102
}
330
39
100
AcDbEntity
  8
TITELHOEK
  6
Continuous
 62
     1
100
AcDbLine
 10
-14.820274734694
 20
-89.64199969387801
 30
0.0
 11
-14.820274734694
 21
-87.14199969387801
 31
0.0
  0
LINE
  5
4F
102
{ACAD_REACTORS
330
48C
330
48C
102
}
330
39
100
AcDbEntity
  8
1
  6
Continuous
 62
   250
100
AcDbLine
 10
-29.91109173469399
 20
-81.96362869387798
 30
0.0
 11
-29.91109173469399
 21
-85.96362869387798
 31
0.0
  0
LINE
  5
50
102
{ACAD_REACTORS
330
48C
330
48C
102
}
330
39
100
AcDbEntity
  8
1
  6
Continuous
 62
   250
100
AcDbLine
 10
-25.91109173469399
 20
-85.96362869387798
 30
0.0
 11
-29.91109173469399
 21
-85.96362869387798
 31
0.0
  0
LINE
  5
51
102
{ACAD_REACTORS
330
48D
330
48D
102
}
330
39
100
AcDbEntity
  8
1
  6
Continuous
 62
   250
100
AcDbLine
 10
-21.320274734694
 20
-83.14199969387801
 30
0.0
 11
-21.320274734694
 21
-89.64199969387801
 31
0.0
  0
LINE
  5
52
102
{ACAD_REACTORS
330
48D
330
48D
102
}
330
39
100
AcDbEntity
  8
1
  6
Continuous
 62
   250
100
AcDbLine
 10
-21.320274734694
 20
-89.64199969387801
 30
0.0
 11
-14.820274734694
 21
-89.64199969387801
 31
0.0
  0
LINE
  5
53
330
39
100
AcDbEntity
  8
TITELHOEK
  6
Continuous
 62
     1
100
AcDbLine
 10
5.58691026530602
 20
-90.024859693878
 30
0.0
 11
5.58691026530602
 21
-84.024859693878
 31
0.0
  0
LINE
  5
54
330
39
100
AcDbEntity
  8
TITELHOEK
  6
Continuous
 62
     1
100
AcDbLine
 10
-0.41308973469398
 20
-85.024859693878
 30
0.0
 11
-5.41308973469398
 21
-86.024859693878
 31
0.0
  0
LINE
  5
55
330
39
100
AcDbEntity
  8
TITELHOEK
  6
Continuous
 62
     1
100
AcDbLine
 10
-5.41308973469398
 20
-88.024859693878
 30
0.0
 11
-0.41308973469398
 21
-89.024859693878
 31
0.0
  0
LINE
  5
56
330
39
100
AcDbEntity
  8
TITELHOEK
  6
Continuous
 62
     1
100
AcDbLine
 10
-5.41308973469398
 20
-86.024859693878
 30
0.0
 11
-5.41308973469398
 21
-88.024859693878
 31
0.0
  0
LINE
  5
57
330
39
100
AcDbEntity
  8
TITELHOEK
  6
Continuous
 62
     1
100
AcDbLine
 10
-0.41308973469398
 20
-85.024859693878
 30
0.0
 11
-0.41308973469398
 21
-89.024859693878
 31
0.0
  0
LINE
  5
58
330
39
100
AcDbEntity
  8
TITELHOEK
  6
Continuous
 62
     1
100
AcDbLine
 10
-0.41308973469398
 20
-89.024859693878
 30
0.0
 11
-0.41308973469398
 21
-85.024859693878
 31
0.0
  0
LINE
  5
59
330
39
100
AcDbEntity
  8
TITELHOEK
  6
Continuous
 62
     1
100
AcDbLine
 10
8.58691026530602
 20
-87.024859693878
 30
0.0
 11
-6.41308973469398
 21
-87.024859693878
 31
0.0
  0
LINE
  5
5A
330
39
100
AcDbEntity
  8
KADDUN
  6
Continuous
 62
     1
100
AcDbLine
 10
-64.61683673469389
 20
-60.93673469387801
 30
0.0
 11
-31.61683673469399
 21
-60.93673469387801
 31
0.0
  0
LINE
  5
5B
330
39
100
AcDbEntity
  8
KADDUN
  6
Continuous
 62
     1
100
AcDbLine
 10
-64.61683673469389
 20
-65.93673469387801
 30
0.0
 11
-31.61683673469399
 21
-65.93673469387801
 31
0.0
  0
LINE
  5
5C
330
39
100
AcDbEntity
  8
KADDUN
  6
Continuous
 62
     1
100
AcDbLine
 10
-64.61683673469389
 20
-70.93673469387801
 30
0.0
 11
-31.61683673469399
 21
-70.93673469387801
 31
0.0
  0
LINE
  5
5D
330
39
100
AcDbEntity
  8
KADDUN
  6
Continuous
 62
     1
100
AcDbLine
 10
-64.61683673469389
 20
-75.93673469387801
 30
0.0
 11
-31.61683673469399
 21
-75.93673469387801
 31
0.0
  0
LINE
  5
5E
330
39
100
AcDbEntity
  8
KADDUN
  6
Continuous
 62
     1
100
AcDbLine
 10
-64.61683673469389
 20
-80.93673469387801
 30
0.0
 11
-31.61683673469399
 21
-80.93673469387801
 31
0.0
  0
LINE
  5
5F
330
39
100
AcDbEntity
  8
KADDIK
  6
Continuous
 62
     1
100
AcDbLine
 10
-64.61683673469389
 20
-95.93673469387801
 30
0.0
 11
-31.61683673469399
 21
-95.93673469387801
 31
0.0
  0
LINE
  5
60
330
39
100
AcDbEntity
  8
KADDUN
  6
Continuous
 62
     1
100
AcDbLine
 10
-64.61683673469389
 20
-90.93673469387801
 30
0.0
 11
-31.61683673469399
 21
-90.93673469387801
 31
0.0
  0
LINE
  5
61
330
39
100
AcDbEntity
  8
KADDUN
  6
Continuous
 62
     1
100
AcDbLine
 10
-64.61683673469389
 20
-85.93673469387801
 30
0.0
 11
-31.61683673469399
 21
-85.93673469387801
 31
0.0
  0
LINE
  5
62
330
39
100
AcDbEntity
  8
KADDIK
  6
Continuous
 62
     1
100
AcDbLine
 10
-64.61683673469389
 20
-60.93673469387801
 30
0.0
 11
-64.61683673469389
 21
-100.936734693878
 31
0.0
  0
LINE
  5
63
330
39
100
AcDbEntity
  8
KADDUN
  6
Continuous
 62
     1
100
AcDbLine
 10
-56.61683673469399
 20
-100.936734693878
 30
0.0
 11
-56.61683673469399
 21
-60.93673469387801
 31
0.0
  0
LINE
  5
64
330
39
100
AcDbEntity
  8
KADDUN
  6
Continuous
 62
     1
100
AcDbLine
 10
-41.61683673469399
 20
-100.936734693878
 30
0.0
 11
-41.61683673469399
 21
-60.93673469387801
 31
0.0
  0
LINE
  5
65
330
39
100
AcDbEntity
  8
1
  6
Continuous
 62
     1
100
AcDbLine
 10
120.383163265306
 20
-100.936734693878
 30
0.0
 11
-31.616836734694
 21
-100.936734693878
 31
0.0
  0
LINE
  5
66
330
39
100
AcDbEntity
  8
1
  6
Continuous
 62
     1
100
AcDbLine
 10
120.383163265306
 20
-60.93673469387801
 30
0.0
 11
120.383163265306
 21
-100.936734693878
 31
0.0
  0
LINE
  5
67
330
39
100
AcDbEntity
  8
TITELHOEK
  6
Continuous
 62
     1
100
AcDbLine
 10
87.383163265306
 20
-90.93673469387801
 30
0.0
 11
87.383163265306
 21
-80.93673469387801
 31
0.0
  0
LINE
  5
68
330
39
100
AcDbEntity
  8
TITELHOEK
  6
Continuous
 62
     1
100
AcDbLine
 10
97.38316326530601
 20
-70.93673469387801
 30
0.0
 11
97.38316326530601
 21
-60.93673469387801
 31
0.0
  0
LINE
  5
69
330
39
100
AcDbEntity
  8
TITELHOEK
  6
Continuous
 62
     1
100
AcDbLine
 10
66.383163265306
 20
-90.93673469387801
 30
0.0
 11
66.383163265306
 21
-80.93673469387801
 31
0.0
  0
LINE
  5
6A
330
39
100
AcDbEntity
  8
TITELHOEK
  6
Continuous
 62
     1
100
AcDbLine
 10
59.44570526530602
 20
-100.936734693878
 30
0.0
 11
59.44570526530602
 21
-90.93673469387801
 31
0.0
  0
LINE
  5
6B
330
39
100
AcDbEntity
  8
TITELHOEK
  6
Continuous
 62
     1
100
AcDbLine
 10
53.394730265306
 20
-90.93673469387801
 30
0.0
 11
53.394730265306
 21
-80.93673469387801
 31
0.0
  0
LINE
  5
6C
330
39
100
AcDbEntity
  8
TITELHOEK
  6
Continuous
 62
     1
100
AcDbLine
 10
70.383163265306
 20
-70.93673469387801
 30
0.0
 11
70.383163265306
 21
-60.93673469387801
 31
0.0
  0
LINE
  5
6D
330
39
100
AcDbEntity
  8
TITELHOEK
  6
Continuous
 62
     1
100
AcDbLine
 10
28.39473026530601
 20
-90.93673469387801
 30
0.0
 11
28.39473026530601
 21
-80.93673469387801
 31
0.0
  0
LINE
  5
6E
330
39
100
AcDbEntity
  8
TITELHOEK
  6
Continuous
 62
     1
100
AcDbLine
 10
40.894730265306
 20
-90.93673469387801
 30
0.0
 11
40.894730265306
 21
-80.93673469387801
 31
0.0
  0
LINE
  5
6F
330
39
100
AcDbEntity
  8
TITELHOEK
  6
Continuous
 62
     1
100
AcDbLine
 10
16.38316326530601
 20
-90.93673469387801
 30
0.0
 11
16.38316326530601
 21
-60.93673469387801
 31
0.0
  0
LINE
  5
70
330
39
100
AcDbEntity
  8
TITELHOEK
  6
Continuous
 62
     1
100
AcDbLine
 10
40.38316326530601
 20
-70.93673469387801
 30
0.0
 11
40.38316326530601
 21
-60.93673469387801
 31
0.0
  0
LINE
  5
71
330
39
100
AcDbEntity
  8
TITELHOEK
  6
Continuous
 62
     1
100
AcDbLine
 10
-7.74412673469398
 20
-93.26909369387801
 30
0.0
 11
-6.863124734694
 21
-93.26909369387801
 31
0.0
  0
LINE
  5
72
330
39
100
AcDbEntity
  8
TITELHOEK
  6
Continuous
 62
     1
100
AcDbLine
 10
-8.16221573469399
 20
-94.55311769387799
 30
0.0
 11
-8.16221573469399
 21
-94.34434369387799
 31
0.0
  0
LINE
  5
73
330
39
100
AcDbEntity
  8
TITELHOEK
  6
Continuous
 62
     1
100
AcDbLine
 10
-8.161953734694
 20
-94.353976693878
 30
0.0
 11
-8.16221573469399
 21
-94.35423969387801
 31
0.0
  0
LINE
  5
74
330
39
100
AcDbEntity
  8
TITELHOEK
  6
Continuous
 62
     1
100
AcDbLine
 10
-7.74412673469398
 20
-93.26909369387801
 30
0.0
 11
-7.74412673469398
 21
-91.38167369387799
 31
0.0
  0
LINE
  5
75
330
39
100
AcDbEntity
  8
TITELHOEK
  6
Continuous
 62
     1
100
AcDbLine
 10
-7.74412673469398
 20
-91.38167369387799
 30
0.0
 11
-3.61534973469399
 21
-91.38167369387799
 31
0.0
  0
LINE
  5
76
330
39
100
AcDbEntity
  8
TITELHOEK
  6
Continuous
 62
     1
100
AcDbLine
 10
-4.50385073469398
 20
-93.26909369387801
 30
0.0
 11
-3.61534973469399
 21
-93.26909369387801
 31
0.0
  0
LINE
  5
77
330
39
100
AcDbEntity
  8
TITELHOEK
  6
Continuous
 62
     1
100
AcDbLine
 10
-8.042761734694
 20
-98.57746069387798
 30
0.0
 11
-8.98647173469398
 21
-98.57746069387798
 31
0.0
  0
LINE
  5
78
330
39
100
AcDbEntity
  8
TITELHOEK
  6
Continuous
 62
     1
100
AcDbLine
 10
-7.74412673469398
 20
-98.57746069387798
 30
0.0
 11
-6.863124734694
 21
-98.57746069387798
 31
0.0
  0
LINE
  5
79
330
39
100
AcDbEntity
  8
TITELHOEK
  6
Continuous
 62
     1
100
AcDbLine
 10
-7.74412673469398
 20
-100.464879693878
 30
0.0
 11
-7.74412673469398
 21
-98.57746069387798
 31
0.0
  0
LINE
  5
7A
330
39
100
AcDbEntity
  8
TITELHOEK
  6
Continuous
 62
     1
100
AcDbLine
 10
-8.999159734694
 20
-98.57746069387798
 30
0.0
 11
-8.042761734694
 21
-98.57746069387798
 31
0.0
  0
LINE
  5
7B
330
39
100
AcDbEntity
  8
TITELHOEK
  6
Continuous
 62
     1
100
AcDbLine
 10
-7.74412673469398
 20
-100.464879693878
 30
0.0
 11
-3.61534973469399
 21
-100.464879693878
 31
0.0
  0
LINE
  5
7C
330
39
100
AcDbEntity
  8
TITELHOEK
  6
Continuous
 62
     1
100
AcDbLine
 10
-4.50385073469398
 20
-98.57746069387798
 30
0.0
 11
-3.61534973469399
 21
-98.57746069387798
 31
0.0
  0
LINE
  5
7D
330
39
100
AcDbEntity
  8
TITELHOEK
  6
Continuous
 62
     1
100
AcDbLine
 10
-8.042761734694
 20
-100.936734693878
 30
0.0
 11
-8.042761734694
 21
-90.93673469387801
 31
0.0
  0
LINE
  5
7E
330
39
100
AcDbEntity
  8
TITELHOEK
  6
Continuous
 62
     1
100
AcDbLine
 10
-6.863124734694
 20
-93.26909369387801
 30
0.0
 11
-6.863124734694
 21
-98.57746069387798
 31
0.0
  0
LINE
  5
7F
330
39
100
AcDbEntity
  8
TITELHOEK
  6
Continuous
 62
     1
100
AcDbLine
 10
-3.61534973469399
 20
-90.93673469387801
 30
0.0
 11
-3.61534973469399
 21
-100.936734693878
 31
0.0
  0
LINE
  5
80
330
39
100
AcDbEntity
  8
TITELHOEK
  6
Continuous
 62
     1
100
AcDbLine
 10
-3.61534973469399
 20
-90.93673469387801
 30
0.0
 11
-3.61534973469399
 21
-100.936734693878
 31
0.0
  0
LINE
  5
81
330
39
100
AcDbEntity
  8
TITELHOEK
  6
Continuous
 62
     1
100
AcDbLine
 10
-4.50385073469398
 20
-93.26909369387801
 30
0.0
 11
-4.50385073469398
 21
-98.57746069387798
 31
0.0
  0
LINE
  5
82
330
39
100
AcDbEntity
  8
TITELHOEK
  6
Continuous
 62
     1
100
AcDbLine
 10
-12.525382734694
 20
-95.62836769387798
 30
0.0
 11
-12.525382734694
 21
-93.26909369387801
 31
0.0
  0
LINE
  5
83
330
39
100
AcDbEntity
  8
TITELHOEK
  6
Continuous
 62
     1
100
AcDbLine
 10
-12.525382734694
 20
-93.26909369387801
 30
0.0
 11
-11.035117734694
 21
-93.26909369387801
 31
0.0
  0
LINE
  5
84
330
39
100
AcDbEntity
  8
TITELHOEK
  6
Continuous
 62
     1
100
AcDbLine
 10
-12.525382734694
 20
-95.62836769387798
 30
0.0
 11
-11.035117734694
 21
-95.62836769387798
 31
0.0
  0
LINE
  5
85
330
39
100
AcDbEntity
  8
TITELHOEK
  6
Continuous
 62
     1
100
AcDbLine
 10
-15.61374573469398
 20
-90.93673469387801
 30
0.0
 11
-17.325768734694
 21
-92.00654169387798
 31
0.0
  0
LINE
  5
86
330
39
100
AcDbEntity
  8
TITELHOEK
  6
Continuous
 62
     1
100
AcDbLine
 10
-15.41176873469398
 20
-93.26909369387801
 30
0.0
 11
-14.88465673469398
 21
-93.26909369387801
 31
0.0
  0
LINE
  5
87
330
39
100
AcDbEntity
  8
TITELHOEK
  6
Continuous
 62
     1
100
AcDbLine
 10
-15.41176873469398
 20
-94.65651369387797
 30
0.0
 11
-15.41176873469398
 21
-90.93673469387801
 31
0.0
  0
LINE
  5
88
330
39
100
AcDbEntity
  8
TITELHOEK
  6
Continuous
 62
     1
100
AcDbLine
 10
-15.41176873469398
 20
-91.38167369387799
 30
0.0
 11
-9.82614373469399
 21
-91.38167369387799
 31
0.0
  0
LINE
  5
89
330
39
100
AcDbEntity
  8
TITELHOEK
  6
Continuous
 62
     1
100
AcDbLine
 10
-12.525382734694
 20
-98.57746069387798
 30
0.0
 11
-12.05352773469399
 21
-98.57746069387798
 31
0.0
  0
LINE
  5
8A
330
39
100
AcDbEntity
  8
TITELHOEK
  6
Continuous
 62
     1
100
AcDbLine
 10
-12.05352773469399
 20
-98.57746069387798
 30
0.0
 11
-12.05352773469399
 21
-100.464879693878
 31
0.0
  0
LINE
  5
8B
330
39
100
AcDbEntity
  8
TITELHOEK
  6
Continuous
 62
     1
100
AcDbLine
 10
-15.41176873469398
 20
-98.57746069387798
 30
0.0
 11
-14.88465673469398
 21
-98.57746069387798
 31
0.0
  0
LINE
  5
8C
330
39
100
AcDbEntity
  8
TITELHOEK
  6
Continuous
 62
     1
100
AcDbLine
 10
-15.41176873469398
 20
-100.464879693878
 30
0.0
 11
-12.05352773469399
 21
-100.464879693878
 31
0.0
  0
LINE
  5
8D
330
39
100
AcDbEntity
  8
TITELHOEK
  6
Continuous
 62
     1
100
AcDbLine
 10
-12.525382734694
 20
-97.515786693878
 30
0.0
 11
-10.402035734694
 21
-100.464879693878
 31
0.0
  0
LINE
  5
8E
330
39
100
AcDbEntity
  8
TITELHOEK
  6
Continuous
 62
     1
100
AcDbLine
 10
-15.41176873469398
 20
-97.19004069387802
 30
0.0
 11
-15.41176873469398
 21
-100.936734693878
 31
0.0
  0
LINE
  5
8F
330
39
100
AcDbEntity
  8
TITELHOEK
  6
Continuous
 62
     1
100
AcDbLine
 10
-14.88465673469398
 20
-98.57746069387798
 30
0.0
 11
-14.88465673469398
 21
-93.26909369387801
 31
0.0
  0
LINE
  5
90
330
39
100
AcDbEntity
  8
TITELHOEK
  6
Continuous
 62
     1
100
AcDbLine
 10
-12.525382734694
 20
-98.57746069387798
 30
0.0
 11
-12.525382734694
 21
-97.515786693878
 31
0.0
  0
LINE
  5
91
330
39
100
AcDbEntity
  8
TITELHOEK
  6
Continuous
 62
     1
100
AcDbLine
 10
-9.78370673469398
 20
-97.48781169387797
 30
0.0
 11
-8.999159734694
 21
-98.57746069387798
 31
0.0
  0
LINE
  5
92
330
39
100
AcDbEntity
  8
TITELHOEK
  6
Continuous
 62
     1
100
AcDbLine
 10
-10.402035734694
 20
-100.464879693878
 30
0.0
 11
-8.042761734694
 21
-100.464879693878
 31
0.0
  0
LINE
  5
93
330
39
100
AcDbEntity
  8
TITELHOEK
  6
Continuous
 62
     1
100
AcDbLine
 10
-8.042761734694
 20
-100.464879693878
 30
0.0
 11
-10.402035734694
 21
-100.464879693878
 31
0.0
  0
LINE
  5
94
330
39
100
AcDbEntity
  8
TITELHOEK
  6
Continuous
 62
     1
100
AcDbLine
 10
-19.913244734694
 20
-93.62340269387801
 30
0.0
 11
-22.043447734694
 21
-94.95452169387801
 31
0.0
  0
LINE
  5
95
330
39
100
AcDbEntity
  8
TITELHOEK
  6
Continuous
 62
     1
100
AcDbLine
 10
-28.568447734694
 20
-91.38167369387799
 30
0.0
 11
-24.43971773469399
 21
-91.38167369387799
 31
0.0
  0
LINE
  5
96
330
39
100
AcDbEntity
  8
TITELHOEK
  6
Continuous
 62
     1
100
AcDbLine
 10
-25.265463734694
 20
-93.26909369387801
 30
0.0
 11
-24.43971773469399
 21
-93.26909369387801
 31
0.0
  0
LINE
  5
97
330
39
100
AcDbEntity
  8
TITELHOEK
  6
Continuous
 62
     1
100
AcDbLine
 10
-24.63092373469398
 20
-96.57138269387798
 30
0.0
 11
-25.265463734694
 21
-96.96789369387801
 31
0.0
  0
LINE
  5
98
330
39
100
AcDbEntity
  8
TITELHOEK
  6
Continuous
 62
     1
100
AcDbLine
 10
-25.265463734694
 20
-93.26909369387801
 30
0.0
 11
-25.265463734694
 21
-97.515786693878
 31
0.0
  0
LINE
  5
99
330
39
100
AcDbEntity
  8
TITELHOEK
  6
Continuous
 62
     1
100
AcDbLine
 10
-28.568447734694
 20
-93.26909369387801
 30
0.0
 11
-27.742701734694
 21
-93.26909369387801
 31
0.0
  0
LINE
  5
9A
330
39
100
AcDbEntity
  8
TITELHOEK
  6
Continuous
 62
     1
100
AcDbLine
 10
-28.80437573469398
 20
-97.987641693878
 30
0.0
 11
-28.80437573469398
 21
-97.515786693878
 31
0.0
  0
LINE
  5
9B
330
39
100
AcDbEntity
  8
TITELHOEK
  6
Continuous
 62
     1
100
AcDbLine
 10
-27.742701734694
 20
-93.26909369387801
 30
0.0
 11
-27.742701734694
 21
-97.987641693878
 31
0.0
  0
LINE
  5
9C
330
39
100
AcDbEntity
  8
TITELHOEK
  6
Continuous
 62
     1
100
AcDbLine
 10
-28.568447734694
 20
-91.38167369387799
 30
0.0
 11
-28.568447734694
 21
-93.26909369387801
 31
0.0
  0
LINE
  5
9D
330
39
100
AcDbEntity
  8
TITELHOEK
  6
Continuous
 62
     1
100
AcDbLine
 10
-24.43971773469399
 20
-91.38167369387799
 30
0.0
 11
-24.43971773469399
 21
-93.26909369387801
 31
0.0
  0
LINE
  5
9E
330
39
100
AcDbEntity
  8
TITELHOEK
  6
Continuous
 62
     1
100
AcDbLine
 10
-30.03937773469399
 20
-99.951012693878
 30
0.0
 11
-31.61683673469399
 21
-100.936734693878
 31
0.0
  0
LINE
  5
9F
330
39
100
AcDbEntity
  8
TITELHOEK
  6
Continuous
 62
     1
100
AcDbLine
 10
-31.28161373469398
 20
-97.515786693878
 30
0.0
 11
-28.80437573469398
 21
-97.515786693878
 31
0.0
  0
LINE
  5
A0
330
39
100
AcDbEntity
  8
TITELHOEK
  6
Continuous
 62
     1
100
AcDbLine
 10
-31.61683673469399
 20
-100.936734693878
 30
0.0
 11
-31.61683673469399
 21
-60.93673469387801
 31
0.0
  0
LINE
  5
A1
330
39
100
AcDbEntity
  8
TITELHOEK
  6
Continuous
 62
     1
100
AcDbLine
 10
-9.10526973469398
 20
-90.93673469387801
 30
0.0
 11
-9.10526973469398
 21
-60.93673469387801
 31
0.0
  0
LINE
  5
A2
330
39
100
AcDbEntity
  8
TITELHOEK
  6
Continuous
 62
     1
100
AcDbLine
 10
-31.61683673469399
 20
-90.93673469387801
 30
0.0
 11
120.383163265306
 21
-90.93673469387801
 31
0.0
  0
LINE
  5
A3
330
39
100
AcDbEntity
  8
TITELHOEK
  6
Continuous
 62
     1
100
AcDbLine
 10
-9.10526973469398
 20
-80.93673469387801
 30
0.0
 11
120.383163265306
 21
-80.93673469387801
 31
0.0
  0
LINE
  5
A4
330
39
100
AcDbEntity
  8
TITELHOEK
  6
Continuous
 62
     1
100
AcDbLine
 10
-31.61683673469399
 20
-60.93673469387801
 30
0.0
 11
120.383163265306
 21
-60.93673469387801
 31
0.0
  0
LINE
  5
A5
330
39
100
AcDbEntity
  8
TITELHOEK
  6
Continuous
 62
     1
100
AcDbLine
 10
-31.61683673469399
 20
-70.93673469387801
 30
0.0
 11
120.383163265306
 21
-70.93673469387801
 31
0.0
  0
LINE
  5
A6
330
39
100
AcDbEntity
  8
1
  6
Continuous
 62
     2
100
AcDbLine
 10
-705.6168367346951
 20
-100.936734693878
 30
0.0
 11
-705.616836734695
 21
-107.9367346938781
 31
0.0
  0
LINE
  5
A7
330
39
100
AcDbEntity
  8
1
  6
Continuous
 62
     2
100
AcDbLine
 10
120.3831632653061
 20
1080.063265306122
 30
0.0
 11
120.3831632653061
 21
1073.063265306122
 31
0.0
  0
LINE
  5
A8
330
39
100
AcDbEntity
  8
1
  6
Continuous
 62
     2
100
AcDbLine
 10
-705.6168367346947
 20
1080.063265306122
 30
0.0
 11
-705.6168367346947
 21
1073.063265306122
 31
0.0
  0
LINE
  5
A9
330
39
100
AcDbEntity
  8
1
  6
Continuous
 62
     2
100
AcDbLine
 10
-712.6168367346938
 20
1073.063265306122
 30
0.0
 11
-705.6168367346947
 21
1073.063265306122
 31
0.0
  0
LINE
  5
AA
330
39
100
AcDbEntity
  8
1
  6
Continuous
 62
     2
100
AcDbLine
 10
-712.6168367346941
 20
1005.813265306122
 30
0.0
 11
-705.6168367346949
 21
1005.813265306122
 31
0.0
  0
LINE
  5
AB
330
39
100
AcDbEntity
  8
1
  6
Continuous
 62
     2
100
AcDbLine
 10
-712.6168367346941
 20
931.5632653061219
 30
0.0
 11
-705.6168367346949
 21
931.5632653061219
 31
0.0
  0
LINE
  5
AC
330
39
100
AcDbEntity
  8
1
  6
Continuous
 62
     2
100
AcDbLine
 10
-712.6168367346941
 20
857.3132653061219
 30
0.0
 11
-705.6168367346949
 21
857.3132653061219
 31
0.0
  0
LINE
  5
AD
330
39
100
AcDbEntity
  8
1
  6
Continuous
 62
     2
100
AcDbLine
 10
-712.6168367346941
 20
783.0632653061219
 30
0.0
 11
-705.6168367346949
 21
783.0632653061219
 31
0.0
  0
LINE
  5
AE
330
39
100
AcDbEntity
  8
1
  6
Continuous
 62
     2
100
AcDbLine
 10
-712.6168367346941
 20
708.8132653061219
 30
0.0
 11
-705.6168367346949
 21
708.8132653061219
 31
0.0
  0
LINE
  5
AF
330
39
100
AcDbEntity
  8
1
  6
Continuous
 62
     2
100
AcDbLine
 10
-712.6168367346941
 20
-100.936734693878
 30
0.0
 11
-705.6168367346951
 21
-100.936734693878
 31
0.0
  0
LINE
  5
B0
330
39
100
AcDbEntity
  8
1
  6
Continuous
 62
     2
100
AcDbLine
 10
-712.6168367346941
 20
189.0632653061219
 30
0.0
 11
-705.6168367346949
 21
189.0632653061219
 31
0.0
  0
LINE
  5
B1
330
39
100
AcDbEntity
  8
1
  6
Continuous
 62
     2
100
AcDbLine
 10
-712.6168367346941
 20
-28.436734693878
 30
0.0
 11
-705.616836734695
 21
-28.436734693878
 31
0.0
  0
LINE
  5
B2
330
39
100
AcDbEntity
  8
1
  6
Continuous
 62
     2
100
AcDbLine
 10
-712.6168367346941
 20
44.06326530612201
 30
0.0
 11
-705.616836734695
 21
44.06326530612201
 31
0.0
  0
LINE
  5
B3
330
39
100
AcDbEntity
  8
1
  6
Continuous
 62
     2
100
AcDbLine
 10
-712.6168367346941
 20
116.563265306122
 30
0.0
 11
-705.616836734695
 21
116.563265306122
 31
0.0
  0
LINE
  5
B4
330
39
100
AcDbEntity
  8
1
  6
Continuous
 62
     2
100
AcDbLine
 10
-712.6168367346941
 20
263.3132653061219
 30
0.0
 11
-705.6168367346949
 21
263.3132653061219
 31
0.0
  0
LINE
  5
B5
330
39
100
AcDbEntity
  8
1
  6
Continuous
 62
     2
100
AcDbLine
 10
-712.6168367346941
 20
337.5632653061219
 30
0.0
 11
-705.6168367346949
 21
337.5632653061219
 31
0.0
  0
LINE
  5
B6
330
39
100
AcDbEntity
  8
1
  6
Continuous
 62
     2
100
AcDbLine
 10
-712.6168367346941
 20
411.8132653061219
 30
0.0
 11
-705.6168367346949
 21
411.8132653061219
 31
0.0
  0
LINE
  5
B7
330
39
100
AcDbEntity
  8
1
  6
Continuous
 62
     2
100
AcDbLine
 10
-712.6168367346941
 20
486.0632653061219
 30
0.0
 11
-705.6168367346949
 21
486.0632653061219
 31
0.0
  0
LINE
  5
B8
330
39
100
AcDbEntity
  8
1
  6
Continuous
 62
     2
100
AcDbLine
 10
-712.6168367346941
 20
560.3132653061219
 30
0.0
 11
-705.6168367346949
 21
560.3132653061219
 31
0.0
  0
LINE
  5
B9
330
39
100
AcDbEntity
  8
1
  6
Continuous
 62
     2
100
AcDbLine
 10
-712.6168367346941
 20
634.5632653061219
 30
0.0
 11
-705.6168367346949
 21
634.5632653061219
 31
0.0
  0
LINE
  5
BA
330
39
100
AcDbEntity
  8
1
  6
Continuous
 62
     2
100
AcDbLine
 10
-642.616834734694
 20
1080.063265306122
 30
0.0
 11
-642.616834734694
 21
1073.063265306122
 31
0.0
  0
LINE
  5
BB
330
39
100
AcDbEntity
  8
1
  6
Continuous
 62
     2
100
AcDbLine
 10
-572.616834734694
 20
1080.063265306122
 30
0.0
 11
-572.616834734694
 21
1073.063265306122
 31
0.0
  0
LINE
  5
BC
330
39
100
AcDbEntity
  8
1
  6
Continuous
 62
     2
100
AcDbLine
 10
-502.6168347346939
 20
1080.063265306122
 30
0.0
 11
-502.6168347346939
 21
1073.063265306122
 31
0.0
  0
LINE
  5
BD
330
39
100
AcDbEntity
  8
1
  6
Continuous
 62
     2
100
AcDbLine
 10
-432.6168347346939
 20
1080.063265306122
 30
0.0
 11
-432.6168347346939
 21
1073.063265306122
 31
0.0
  0
LINE
  5
BE
330
39
100
AcDbEntity
  8
1
  6
Continuous
 62
     2
100
AcDbLine
 10
-362.6168347346939
 20
1080.063265306122
 30
0.0
 11
-362.6168347346939
 21
1073.063265306122
 31
0.0
  0
LINE
  5
BF
330
39
100
AcDbEntity
  8
1
  6
Continuous
 62
     2
100
AcDbLine
 10
-292.6168347346939
 20
1080.063265306122
 30
0.0
 11
-292.6168347346939
 21
1073.063265306122
 31
0.0
  0
LINE
  5
C0
330
39
100
AcDbEntity
  8
1
  6
Continuous
 62
     2
100
AcDbLine
 10
-222.6168347346939
 20
1080.063265306122
 30
0.0
 11
-222.6168347346939
 21
1073.063265306122
 31
0.0
  0
LINE
  5
C1
330
39
100
AcDbEntity
  8
1
  6
Continuous
 62
     2
100
AcDbLine
 10
-152.6168347346939
 20
1080.063265306122
 30
0.0
 11
-152.6168347346939
 21
1073.063265306122
 31
0.0
  0
LINE
  5
C2
330
39
100
AcDbEntity
  8
1
  6
Continuous
 62
     2
100
AcDbLine
 10
-82.61683473469391
 20
1080.063265306122
 30
0.0
 11
-82.61683473469391
 21
1073.063265306122
 31
0.0
  0
LINE
  5
C3
330
39
100
AcDbEntity
  8
1
  6
Continuous
 62
     2
100
AcDbLine
 10
-14.9501687346939
 20
1080.063265306122
 30
0.0
 11
-14.9501687346939
 21
1073.063265306122
 31
0.0
  0
LINE
  5
C4
330
39
100
AcDbEntity
  8
1
  6
Continuous
 62
     2
100
AcDbLine
 10
52.7164972653061
 20
1080.063265306122
 30
0.0
 11
52.7164972653061
 21
1073.063265306122
 31
0.0
  0
LINE
  5
C5
330
39
100
AcDbEntity
  8
1
  6
Continuous
 62
     1
100
AcDbLine
 10
120.3831632653061
 20
1073.063265306122
 30
0.0
 11
-705.6168367346947
 21
1073.063265306122
 31
0.0
  0
LINE
  5
C6
330
39
100
AcDbEntity
  8
1
  6
Continuous
 62
     1
100
AcDbLine
 10
-705.6168367346947
 20
1073.063265306122
 30
0.0
 11
-705.6168367346951
 21
-100.936734693878
 31
0.0
  0
LINE
  5
C7
330
39
100
AcDbEntity
  8
1
  6
Continuous
 62
     2
100
AcDbLine
 10
-642.6168347346941
 20
-100.936734693878
 30
0.0
 11
-642.6168347346941
 21
-107.9367346938781
 31
0.0
  0
LINE
  5
C8
330
39
100
AcDbEntity
  8
1
  6
Continuous
 62
     2
100
AcDbLine
 10
-572.6168347346941
 20
-100.936734693878
 30
0.0
 11
-572.6168347346941
 21
-107.9367346938781
 31
0.0
  0
LINE
  5
C9
330
39
100
AcDbEntity
  8
1
  6
Continuous
 62
     2
100
AcDbLine
 10
-502.616834734694
 20
-100.936734693878
 30
0.0
 11
-502.616834734694
 21
-107.9367346938781
 31
0.0
  0
LINE
  5
CA
330
39
100
AcDbEntity
  8
1
  6
Continuous
 62
     2
100
AcDbLine
 10
-432.616834734694
 20
-100.936734693878
 30
0.0
 11
-432.616834734694
 21
-107.9367346938781
 31
0.0
  0
LINE
  5
CB
330
39
100
AcDbEntity
  8
1
  6
Continuous
 62
     2
100
AcDbLine
 10
-362.616834734694
 20
-100.936734693878
 30
0.0
 11
-362.616834734694
 21
-107.9367346938781
 31
0.0
  0
LINE
  5
CC
330
39
100
AcDbEntity
  8
1
  6
Continuous
 62
     2
100
AcDbLine
 10
-292.616834734694
 20
-100.936734693878
 30
0.0
 11
-292.616834734694
 21
-107.9367346938781
 31
0.0
  0
LINE
  5
CD
330
39
100
AcDbEntity
  8
1
  6
Continuous
 62
     2
100
AcDbLine
 10
-222.616834734694
 20
-100.936734693878
 30
0.0
 11
-222.616834734694
 21
-107.9367346938781
 31
0.0
  0
LINE
  5
CE
330
39
100
AcDbEntity
  8
1
  6
Continuous
 62
     2
100
AcDbLine
 10
-152.616834734694
 20
-100.936734693878
 30
0.0
 11
-152.616834734694
 21
-107.9367346938781
 31
0.0
  0
LINE
  5
CF
330
39
100
AcDbEntity
  8
1
  6
Continuous
 62
     2
100
AcDbLine
 10
-82.61683473469402
 20
-100.936734693878
 30
0.0
 11
-82.61683473469402
 21
-107.9367346938781
 31
0.0
  0
LINE
  5
D0
330
39
100
AcDbEntity
  8
1
  6
Continuous
 62
     2
100
AcDbLine
 10
-14.95016873469402
 20
-100.936734693878
 30
0.0
 11
-14.95016873469402
 21
-107.9367346938781
 31
0.0
  0
LINE
  5
D1
330
39
100
AcDbEntity
  8
1
  6
Continuous
 62
     2
100
AcDbLine
 10
52.71649726530599
 20
-100.936734693878
 30
0.0
 11
52.71649726530599
 21
-107.9367346938781
 31
0.0
  0
LINE
  5
D2
330
39
100
AcDbEntity
  8
1
  6
Continuous
 62
     1
100
AcDbLine
 10
120.383163265306
 20
-100.936734693878
 30
0.0
 11
-705.6168367346952
 21
-100.936734693878
 31
0.0
  0
LINE
  5
D3
330
39
100
AcDbEntity
  8
1
  6
Continuous
 62
     2
100
AcDbLine
 10
120.3831632653061
 20
1073.063265306122
 30
0.0
 11
127.3831632653051
 21
1073.063265306122
 31
0.0
  0
LINE
  5
D4
330
39
100
AcDbEntity
  8
1
  6
Continuous
 62
     2
100
AcDbLine
 10
120.3831632653059
 20
1005.813265306122
 30
0.0
 11
127.3831632653051
 21
1005.813265306122
 31
0.0
  0
LINE
  5
D5
330
39
100
AcDbEntity
  8
1
  6
Continuous
 62
     2
100
AcDbLine
 10
120.3831632653059
 20
931.5632653061219
 30
0.0
 11
127.3831632653051
 21
931.5632653061219
 31
0.0
  0
LINE
  5
D6
330
39
100
AcDbEntity
  8
1
  6
Continuous
 62
     2
100
AcDbLine
 10
120.3831632653059
 20
857.3132653061219
 30
0.0
 11
127.3831632653051
 21
857.3132653061219
 31
0.0
  0
LINE
  5
D7
330
39
100
AcDbEntity
  8
1
  6
Continuous
 62
     2
100
AcDbLine
 10
120.3831632653059
 20
783.0632653061219
 30
0.0
 11
127.3831632653051
 21
783.0632653061219
 31
0.0
  0
LINE
  5
D8
330
39
100
AcDbEntity
  8
1
  6
Continuous
 62
     2
100
AcDbLine
 10
120.3831632653059
 20
708.8132653061219
 30
0.0
 11
127.3831632653051
 21
708.8132653061219
 31
0.0
  0
LINE
  5
D9
330
39
100
AcDbEntity
  8
1
  6
Continuous
 62
     1
100
AcDbLine
 10
120.3831632653061
 20
1073.063265306122
 30
0.0
 11
120.383163265306
 21
-100.936734693878
 31
0.0
  0
LINE
  5
DA
330
39
100
AcDbEntity
  8
1
  6
Continuous
 62
     2
100
AcDbLine
 10
120.383163265306
 20
-100.936734693878
 30
0.0
 11
127.383163265305
 21
-100.936734693878
 31
0.0
  0
LINE
  5
DB
330
39
100
AcDbEntity
  8
1
  6
Continuous
 62
     2
100
AcDbLine
 10
120.383163265306
 20
-100.936734693878
 30
0.0
 11
120.383163265306
 21
-107.9367346938781
 31
0.0
  0
LINE
  5
DC
330
39
100
AcDbEntity
  8
1
  6
Continuous
 62
     2
100
AcDbLine
 10
120.3831632653059
 20
189.0632653061219
 30
0.0
 11
127.3831632653051
 21
189.0632653061219
 31
0.0
  0
LINE
  5
DD
330
39
100
AcDbEntity
  8
1
  6
Continuous
 62
     2
100
AcDbLine
 10
120.383163265306
 20
-28.436734693878
 30
0.0
 11
127.383163265305
 21
-28.436734693878
 31
0.0
  0
LINE
  5
DE
330
39
100
AcDbEntity
  8
1
  6
Continuous
 62
     2
100
AcDbLine
 10
120.383163265306
 20
44.06326530612201
 30
0.0
 11
127.383163265305
 21
44.06326530612201
 31
0.0
  0
LINE
  5
DF
330
39
100
AcDbEntity
  8
1
  6
Continuous
 62
     2
100
AcDbLine
 10
120.383163265306
 20
116.563265306122
 30
0.0
 11
127.383163265305
 21
116.563265306122
 31
0.0
  0
LINE
  5
E0
330
39
100
AcDbEntity
  8
1
  6
Continuous
 62
     2
100
AcDbLine
 10
120.3831632653059
 20
263.3132653061219
 30
0.0
 11
127.3831632653051
 21
263.3132653061219
 31
0.0
  0
LINE
  5
E1
330
39
100
AcDbEntity
  8
1
  6
Continuous
 62
     2
100
AcDbLine
 10
120.3831632653059
 20
337.5632653061219
 30
0.0
 11
127.3831632653051
 21
337.5632653061219
 31
0.0
  0
LINE
  5
E2
330
39
100
AcDbEntity
  8
1
  6
Continuous
 62
     2
100
AcDbLine
 10
120.3831632653059
 20
411.8132653061219
 30
0.0
 11
127.3831632653051
 21
411.8132653061219
 31
0.0
  0
LINE
  5
E3
330
39
100
AcDbEntity
  8
1
  6
Continuous
 62
     2
100
AcDbLine
 10
120.3831632653059
 20
486.0632653061219
 30
0.0
 11
127.3831632653051
 21
486.0632653061219
 31
0.0
  0
LINE
  5
E4
330
39
100
AcDbEntity
  8
1
  6
Continuous
 62
     2
100
AcDbLine
 10
120.3831632653059
 20
560.3132653061219
 30
0.0
 11
127.3831632653051
 21
560.3132653061219
 31
0.0
  0
LINE
  5
E5
330
39
100
AcDbEntity
  8
1
  6
Continuous
 62
     2
100
AcDbLine
 10
120.3831632653059
 20
634.5632653061219
 30
0.0
 11
127.3831632653051
 21
634.5632653061219
 31
0.0
  0
LINE
  5
E6
330
39
100
AcDbEntity
  8
0
  6
Continuous
 62
     7
100
AcDbLine
 10
2850.526689862372
 20
1695.001221476801
 30
0.0
 11
2851.113876874306
 21
1694.815782833674
 31
0.0
  0
LINE
  5
E7
330
39
100
AcDbEntity
  8
0
  6
Continuous
 62
     7
100
AcDbLine
 10
2851.113876874306
 20
1694.815782833674
 30
0.0
 11
2851.957847294372
 21
1694.549254121852
 31
0.0
  0
LINE
  5
E8
330
39
100
AcDbEntity
  8
0
  6
Continuous
 62
     7
100
AcDbLine
 10
2851.957847294372
 20
1694.549254121852
 30
0.0
 11
2853.158716794315
 21
1695.202666112776
 31
0.0
  0
LINE
  5
E9
330
39
100
AcDbEntity
  8
0
  6
Continuous
 62
     7
100
AcDbLine
 10
2851.904669994377
 20
1695.598708132985
 30
0.0
 11
2853.158716794315
 21
1695.202666112776
 31
0.0
  0
LINE
  5
EA
330
39
100
AcDbEntity
  8
0
  6
Continuous
 62
     7
100
AcDbLine
 10
2853.158716794315
 20
1695.202666112776
 30
0.0
 11
2853.145999871565
 21
1693.381152608714
 31
0.0
  0
LINE
  5
EB
330
39
100
AcDbEntity
  8
0
  6
Continuous
 62
     7
100
AcDbLine
 10
2851.727538638656
 20
1695.654647718828
 30
0.0
 11
2851.904669994377
 21
1695.598708132985
 31
0.0
  0
LINE
  5
EC
330
39
100
AcDbEntity
  8
0
  6
Continuous
 62
     7
100
AcDbLine
 10
2852.6874086914
 20
1693.269751091776
 30
0.0
 11
2853.145999871565
 21
1693.381152608714
 31
0.0
  0
LINE
  5
ED
330
39
100
AcDbEntity
  8
0
  6
Continuous
 62
     3
100
AcDbLine
 10
2851.113876874306
 20
1694.815782833674
 30
0.0
 11
2851.127433524166
 21
1694.320236492718
 31
0.0
  0
LINE
  5
EE
330
39
100
AcDbEntity
  8
0
  6
Continuous
 62
     3
100
AcDbLine
 10
2851.127433524166
 20
1694.320236492718
 30
0.0
 11
2851.183536485008
 21
1693.950549456866
 31
0.0
  0
LINE
  5
EF
330
39
100
AcDbEntity
  8
0
  6
Continuous
 62
     3
100
AcDbLine
 10
2851.183536485008
 20
1693.950549456866
 30
0.0
 11
2851.356611417081
 21
1693.68041314981
 31
0.0
  0
LINE
  5
F0
330
39
100
AcDbEntity
  8
0
  6
Continuous
 62
     3
100
AcDbLine
 10
2849.5842142058
 20
1694.455606811672
 30
0.0
 11
2849.757289137873
 21
1694.185470504617
 31
0.0
  0
LINE
  5
F1
330
39
100
AcDbEntity
  8
0
  6
Continuous
 62
     3
100
AcDbLine
 10
2849.579619546027
 20
1694.485885430595
 30
0.0
 11
2849.5842142058
 21
1694.455606811672
 31
0.0
  0
LINE
  5
F2
330
39
100
AcDbEntity
  8
0
  6
Continuous
 62
     7
100
AcDbLine
 10
2849.757289137873
 20
1694.185470504617
 30
0.0
 11
2849.908968679424
 21
1694.166982748184
 31
0.0
  0
LINE
  5
F3
330
39
100
AcDbEntity
  8
0
  6
Continuous
 62
     7
100
AcDbLine
 10
2849.908968679424
 20
1694.166982748184
 30
0.0
 11
2851.356611417081
 21
1693.68041314981
 31
0.0
  0
LINE
  5
F4
330
39
100
AcDbEntity
  8
0
  6
Continuous
 62
     7
100
AcDbLine
 10
2849.908968679424
 20
1694.166982748184
 30
0.0
 11
2849.329729965289
 21
1694.349911251391
 31
0.0
  0
LINE
  5
F5
330
39
100
AcDbEntity
  8
0
  6
Continuous
 62
     7
100
AcDbLine
 10
2852.6874086914
 20
1693.269751091776
 30
0.0
 11
2851.356611417081
 21
1693.68041314981
 31
0.0
  0
LINE
  5
F6
330
39
100
AcDbEntity
  8
0
  6
Continuous
 62
     7
100
AcDbLine
 10
2378.95146373267
 20
1437.16703216472
 30
0.0
 11
2380.152294700402
 21
1437.820423185201
 31
0.0
  0
LINE
  5
F7
330
39
100
AcDbEntity
  8
0
  6
Continuous
 62
     7
100
AcDbLine
 10
2380.152294700402
 20
1437.820423185201
 30
0.0
 11
2379.396964620336
 21
1438.058963681044
 31
0.0
  0
LINE
  5
F8
330
39
100
AcDbEntity
  8
0
  6
Continuous
 62
     7
100
AcDbLine
 10
2379.396964620336
 20
1438.058963681044
 30
0.0
 11
2378.718858370598
 21
1438.273116613112
 31
0.0
  0
LINE
  5
F9
330
39
100
AcDbEntity
  8
0
  6
Continuous
 62
     7
100
AcDbLine
 10
2378.593461768457
 20
1435.454563535548
 30
0.0
 11
2377.882251382232
 21
1435.679171735323
 31
0.0
  0
LINE
  5
FA
330
39
100
AcDbEntity
  8
0
  6
Continuous
 62
     7
100
AcDbLine
 10
2378.938766423994
 20
1435.345494590916
 30
0.0
 11
2378.95146373267
 21
1437.16703216472
 31
0.0
  0
LINE
  5
FB
330
39
100
AcDbEntity
  8
0
  6
Continuous
 62
     7
100
AcDbLine
 10
2378.95146373267
 20
1437.16703216472
 30
0.0
 11
2378.606177015894
 21
1437.276076127851
 31
0.0
  0
LINE
  5
FC
330
39
100
AcDbEntity
  8
0
  6
Continuous
 62
     3
100
AcDbLine
 10
2378.593461768457
 20
1435.454563535548
 30
0.0
 11
2378.606177015894
 21
1437.276076127851
 31
0.0
  0
LINE
  5
FD
330
39
100
AcDbEntity
  8
0
  6
Continuous
 62
     7
100
AcDbLine
 10
2378.606177015894
 20
1437.276076127851
 30
0.0
 11
2377.894965819384
 21
1437.500684583523
 31
0.0
  0
LINE
  5
FE
330
39
100
AcDbEntity
  8
0
  6
Continuous
 62
     7
100
AcDbLine
 10
2378.938766423994
 20
1435.345494590916
 30
0.0
 11
2378.593461768457
 21
1435.454563535548
 31
0.0
  0
LINE
  5
FF
330
39
100
AcDbEntity
  8
0
  6
Continuous
 62
     7
100
AcDbLine
 10
1230.229601728379
 20
1682.216364548188
 30
0.0
 11
1231.058083504916
 21
1682.009285646231
 31
0.0
  0
LINE
  5
100
330
39
100
AcDbEntity
  8
0
  6
Continuous
 62
     7
100
AcDbLine
 10
1231.058083504916
 20
1682.009285646231
 30
0.0
 11
1231.884007161824
 21
1681.802841050998
 31
0.0
  0
LINE
  5
101
330
39
100
AcDbEntity
  8
0
  6
Continuous
 62
     7
100
AcDbLine
 10
1231.884007161824
 20
1681.802841050998
 30
0.0
 11
1233.128804848165
 21
1682.244056399125
 31
0.0
  0
LINE
  5
102
330
39
100
AcDbEntity
  8
0
  6
Continuous
 62
     7
100
AcDbLine
 10
1231.901576768793
 20
1682.550797464312
 30
0.0
 11
1233.128804848165
 21
1682.244056399125
 31
0.0
  0
LINE
  5
103
330
39
100
AcDbEntity
  8
0
  6
Continuous
 62
     7
100
AcDbLine
 10
1233.128804848165
 20
1682.244056399125
 30
0.0
 11
1233.095796068558
 21
1680.332964015415
 31
0.0
  0
LINE
  5
104
330
39
100
AcDbEntity
  8
0
  6
Continuous
 62
     7
100
AcDbLine
 10
1231.474406333807
 20
1682.657578144837
 30
0.0
 11
1231.901576768793
 21
1682.550797464312
 31
0.0
  0
LINE
  5
105
330
39
100
AcDbEntity
  8
0
  6
Continuous
 62
     7
100
AcDbLine
 10
1232.621903910256
 20
1680.309582121787
 30
0.0
 11
1233.095796068558
 21
1680.332964015415
 31
0.0
  0
LINE
  5
106
330
39
100
AcDbEntity
  8
0
  6
Continuous
 62
     3
100
AcDbLine
 10
1231.058083504916
 20
1682.009285646231
 30
0.0
 11
1231.068359617942
 21
1681.475412387494
 31
0.0
  0
LINE
  5
107
330
39
100
AcDbEntity
  8
0
  6
Continuous
 62
     3
100
AcDbLine
 10
1231.068359617942
 20
1681.475412387494
 30
0.0
 11
1231.126675234369
 21
1681.048792554375
 31
0.0
  0
LINE
  5
108
330
39
100
AcDbEntity
  8
0
  6
Continuous
 62
     3
100
AcDbLine
 10
1231.126675234369
 20
1681.048792554375
 30
0.0
 11
1231.309410452508
 21
1680.685497688789
 31
0.0
  0
LINE
  5
109
330
39
100
AcDbEntity
  8
0
  6
Continuous
 62
     3
100
AcDbLine
 10
1231.309410452508
 20
1680.685497688789
 30
0.0
 11
1231.468514835863
 21
1680.617374281595
 31
0.0
  0
LINE
  5
10A
330
39
100
AcDbEntity
  8
0
  6
Continuous
 62
     3
100
AcDbLine
 10
1229.503272149157
 20
1681.866605777236
 30
0.0
 11
1229.561587765584
 21
1681.439985944117
 31
0.0
  0
LINE
  5
10B
330
39
100
AcDbEntity
  8
0
  6
Continuous
 62
     3
100
AcDbLine
 10
1229.561587765584
 20
1681.439985944117
 30
0.0
 11
1229.744375412338
 21
1681.076725854402
 31
0.0
  0
LINE
  5
10C
330
39
100
AcDbEntity
  8
0
  6
Continuous
 62
     3
100
AcDbLine
 10
1229.501507278715
 20
1681.958295809448
 30
0.0
 11
1229.503272149157
 21
1681.866605777236
 31
0.0
  0
LINE
  5
10D
330
39
100
AcDbEntity
  8
0
  6
Continuous
 62
     3
100
AcDbLine
 10
1229.744375412338
 20
1681.076725854402
 30
0.0
 11
1229.903484894216
 21
1681.008588065424
 31
0.0
  0
LINE
  5
10E
330
39
100
AcDbEntity
  8
0
  6
Continuous
 62
     3
100
AcDbLine
 10
1228.179287943553
 20
1681.467919244145
 30
0.0
 11
1228.338392326909
 21
1681.399795836951
 31
0.0
  0
LINE
  5
10F
330
39
100
AcDbEntity
  8
0
  6
Continuous
 62
     3
100
AcDbLine
 10
1228.166794707089
 20
1681.485214909398
 30
0.0
 11
1228.179287943553
 21
1681.467919244145
 31
0.0
  0
LINE
  5
110
330
39
100
AcDbEntity
  8
0
  6
Continuous
 62
     7
100
AcDbLine
 10
1231.468514835863
 20
1680.617374281595
 30
0.0
 11
1229.903484894216
 21
1681.008588065424
 31
0.0
  0
LINE
  5
111
330
39
100
AcDbEntity
  8
0
  6
Continuous
 62
     7
100
AcDbLine
 10
1229.903484894216
 20
1681.008588065424
 30
0.0
 11
1228.338392326909
 21
1681.399795836951
 31
0.0
  0
LINE
  5
112
330
39
100
AcDbEntity
  8
0
  6
Continuous
 62
     7
100
AcDbLine
 10
1228.338392326909
 20
1681.399795836951
 30
0.0
 11
1228.096438426812
 21
1681.460277555703
 31
0.0
  0
LINE
  5
113
330
39
100
AcDbEntity
  8
0
  6
Continuous
 62
     7
100
AcDbLine
 10
1232.621903910256
 20
1680.309582121787
 30
0.0
 11
1231.468514835863
 21
1680.617374281595
 31
0.0
  0
LINE
  5
114
330
39
100
AcDbEntity
  8
0
  6
Continuous
 62
     7
100
AcDbLine
 10
741.5613063994239
 20
1508.006440748249
 30
0.0
 11
742.806089703981
 21
1508.447650997854
 31
0.0
  0
LINE
  5
115
330
39
100
AcDbEntity
  8
0
  6
Continuous
 62
     7
100
AcDbLine
 10
742.806089703981
 20
1508.447650997854
 30
0.0
 11
742.0669423662579
 21
1508.63242182193
 31
0.0
  0
LINE
  5
116
330
39
100
AcDbEntity
  8
0
  6
Continuous
 62
     7
100
AcDbLine
 10
742.0669423662579
 20
1508.63242182193
 30
0.0
 11
741.1443806361659
 21
1508.863026243758
 31
0.0
  0
LINE
  5
117
330
39
100
AcDbEntity
  8
0
  6
Continuous
 62
     7
100
AcDbLine
 10
741.1904331318809
 20
1506.179815070879
 30
0.0
 11
740.458394895153
 21
1506.362800153801
 31
0.0
  0
LINE
  5
118
330
39
100
AcDbEntity
  8
0
  6
Continuous
 62
     7
100
AcDbLine
 10
741.528319192492
 20
1506.095356012322
 30
0.0
 11
741.5613063994239
 21
1508.006440748249
 31
0.0
  0
LINE
  5
119
330
39
100
AcDbEntity
  8
0
  6
Continuous
 62
     7
100
AcDbLine
 10
741.5613063994239
 20
1508.006440748249
 30
0.0
 11
741.2234152402908
 21
1508.09091418859
 31
0.0
  0
LINE
  5
11A
330
39
100
AcDbEntity
  8
0
  6
Continuous
 62
     3
100
AcDbLine
 10
741.1904331318809
 20
1506.179815070879
 30
0.0
 11
741.2234152402908
 21
1508.09091418859
 31
0.0
  0
LINE
  5
11B
330
39
100
AcDbEntity
  8
0
  6
Continuous
 62
     7
100
AcDbLine
 10
741.2234152402908
 20
1508.09091418859
 30
0.0
 11
740.4913880689809
 21
1508.273892407929
 31
0.0
  0
LINE
  5
11C
330
39
100
AcDbEntity
  8
0
  6
Continuous
 62
     7
100
AcDbLine
 10
741.528319192492
 20
1506.095356012322
 30
0.0
 11
741.1904331318809
 21
1506.179815070879
 31
0.0
  0
LINE
  5
11D
330
39
100
AcDbEntity
  8
0
  6
Continuous
 62
     7
100
AcDbLine
 10
13.79971703386627
 20
1689.760360280892
 30
0.0
 11
15.04451472020799
 21
1690.201575629018
 31
0.0
  0
LINE
  5
11E
330
39
100
AcDbEntity
  8
0
  6
Continuous
 62
     7
100
AcDbLine
 10
15.04451472020799
 20
1690.201575629018
 30
0.0
 11
14.30534946493287
 21
1690.386145829813
 31
0.0
  0
LINE
  5
11F
330
39
100
AcDbEntity
  8
0
  6
Continuous
 62
     7
100
AcDbLine
 10
14.30534946493287
 20
1690.386145829813
 30
0.0
 11
13.3845324754011
 21
1690.616093330244
 31
0.0
  0
LINE
  5
120
330
39
100
AcDbEntity
  8
0
  6
Continuous
 62
     7
100
AcDbLine
 10
13.42916054974285
 20
1687.933571689537
 30
0.0
 11
12.69703737473185
 21
1688.116392216929
 31
0.0
  0
LINE
  5
121
330
39
100
AcDbEntity
  8
0
  6
Continuous
 62
     7
100
AcDbLine
 10
13.76705707220572
 20
1687.849197286206
 30
0.0
 11
13.79971703386627
 21
1689.760360280892
 31
0.0
  0
LINE
  5
122
330
39
100
AcDbEntity
  8
0
  6
Continuous
 62
     7
100
AcDbLine
 10
13.79971703386627
 20
1689.760360280892
 30
0.0
 11
13.4618205114034
 21
1689.844734684222
 31
0.0
  0
LINE
  5
123
330
39
100
AcDbEntity
  8
0
  6
Continuous
 62
     3
100
AcDbLine
 10
13.42916054974285
 20
1687.933571689537
 30
0.0
 11
13.4618205114034
 21
1689.844734684222
 31
0.0
  0
LINE
  5
124
330
39
100
AcDbEntity
  8
0
  6
Continuous
 62
     7
100
AcDbLine
 10
13.4618205114034
 20
1689.844734684222
 30
0.0
 11
12.72972098448247
 21
1690.027549306384
 31
0.0
  0
LINE
  5
125
330
39
100
AcDbEntity
  8
0
  6
Continuous
 62
     7
100
AcDbLine
 10
13.76705707220572
 20
1687.849197286206
 30
0.0
 11
13.42916054974285
 21
1687.933571689537
 31
0.0
  0
LINE
  5
126
330
39
100
AcDbEntity
  8
0
  6
Continuous
 62
     7
100
AcDbLine
 10
1596.586537319654
 20
1559.046121585108
 30
0.0
 11
1596.554360182023
 21
1558.805064701932
 31
0.0
  0
LINE
  5
127
330
39
100
AcDbEntity
  8
0
  6
Continuous
 62
     3
100
AcDbLine
 10
1597.138732984543
 20
1558.393849853026
 30
0.0
 11
1597.142370504329
 21
1558.927837990036
 31
0.0
  0
LINE
  5
128
330
39
100
AcDbEntity
  8
0
  6
Continuous
 62
     7
100
AcDbLine
 10
1630.296465833467
 20
1560.376470639731
 30
0.0
 11
1630.293917376371
 21
1560.357378726349
 31
0.0
  0
LINE
  5
129
330
39
100
AcDbEntity
  8
0
  6
Continuous
 62
     3
100
AcDbLine
 10
1630.293917376371
 20
1560.357378726349
 30
0.0
 11
1630.040587095637
 21
1560.141038328344
 31
0.0
  0
LINE
  5
12A
330
39
100
AcDbEntity
  8
0
  6
Continuous
 62
     3
100
AcDbLine
 10
1630.040587095637
 20
1560.141038328344
 30
0.0
 11
1630.041244838136
 21
1560.237594969306
 31
0.0
  0
LINE
  5
12B
330
39
100
AcDbEntity
  8
0
  6
Continuous
 62
     3
100
AcDbLine
 10
1630.040587095637
 20
1560.141038328344
 30
0.0
 11
1616.831590063799
 21
1552.953485190662
 31
0.0
  0
LINE
  5
12C
330
39
100
AcDbEntity
  8
0
  6
Continuous
 62
     3
100
AcDbLine
 10
1597.138732984543
 20
1558.393849853026
 30
0.0
 11
1614.731461822878
 21
1552.84196711748
 31
0.0
  0
LINE
  5
12D
330
39
100
AcDbEntity
  8
0
  6
Continuous
 62
     3
100
AcDbLine
 10
1614.731461822878
 20
1552.84196711748
 30
0.0
 11
1614.735200468613
 21
1553.391820290902
 31
0.0
  0
LINE
  5
12E
330
39
100
AcDbEntity
  8
0
  6
Continuous
 62
     3
100
AcDbLine
 10
1616.831590063799
 20
1552.953485190662
 30
0.0
 11
1616.834088970777
 21
1553.321116090532
 31
0.0
  0
LINE
  5
12F
330
39
100
AcDbEntity
  8
0
  6
Continuous
 62
     7
100
AcDbLine
 10
1597.433587407292
 20
1557.768436720528
 30
0.0
 11
1597.223120599353
 21
1557.895454072911
 31
0.0
  0
LINE
  5
130
330
39
100
AcDbEntity
  8
0
  6
Continuous
 62
     7
100
AcDbLine
 10
1597.223120599353
 20
1557.895454072911
 30
0.0
 11
1597.046999116825
 21
1557.982601649943
 31
0.0
  0
LINE
  5
131
330
39
100
AcDbEntity
  8
0
  6
Continuous
 62
     7
100
AcDbLine
 10
1597.046999116825
 20
1557.982601649943
 30
0.0
 11
1596.989576825934
 21
1558.030272396766
 31
0.0
  0
LINE
  5
132
330
39
100
AcDbEntity
  8
0
  6
Continuous
 62
     7
100
AcDbLine
 10
1596.989576825934
 20
1558.030272396766
 30
0.0
 11
1596.887275433227
 21
1558.107545970222
 31
0.0
  0
LINE
  5
133
330
39
100
AcDbEntity
  8
0
  6
Continuous
 62
     7
100
AcDbLine
 10
1596.887275433227
 20
1558.107545970222
 30
0.0
 11
1596.778240414669
 21
1558.275972191736
 31
0.0
  0
LINE
  5
134
330
39
100
AcDbEntity
  8
0
  6
Continuous
 62
     7
100
AcDbLine
 10
1596.778240414669
 20
1558.275972191736
 30
0.0
 11
1596.612609758331
 21
1558.537026548023
 31
0.0
  0
LINE
  5
135
330
39
100
AcDbEntity
  8
0
  6
Continuous
 62
     7
100
AcDbLine
 10
1596.612609758331
 20
1558.537026548023
 30
0.0
 11
1596.595326290544
 21
1558.585382803379
 31
0.0
  0
LINE
  5
136
330
39
100
AcDbEntity
  8
0
  6
Continuous
 62
     7
100
AcDbLine
 10
1596.595326290544
 20
1558.585382803379
 30
0.0
 11
1596.582534219055
 21
1558.618463805411
 31
0.0
  0
LINE
  5
137
330
39
100
AcDbEntity
  8
0
  6
Continuous
 62
     7
100
AcDbLine
 10
1596.582534219055
 20
1558.618463805411
 30
0.0
 11
1596.571114967578
 21
1558.813349319316
 31
0.0
  0
LINE
  5
138
330
39
100
AcDbEntity
  8
0
  6
Continuous
 62
     7
100
AcDbLine
 10
1596.571114967578
 20
1558.813349319316
 30
0.0
 11
1596.554360182023
 21
1558.805064701932
 31
0.0
  0
LINE
  5
139
330
39
100
AcDbEntity
  8
0
  6
Continuous
 62
     7
100
AcDbLine
 10
1596.586537319654
 20
1559.046121585108
 30
0.0
 11
1596.586412756987
 21
1559.103290281325
 31
0.0
  0
LINE
  5
13A
330
39
100
AcDbEntity
  8
0
  6
Continuous
 62
     7
100
AcDbLine
 10
1629.750161886492
 20
1559.533457542576
 30
0.0
 11
1629.799249967234
 21
1559.604906156231
 31
0.0
  0
LINE
  5
13B
330
39
100
AcDbEntity
  8
0
  6
Continuous
 62
     7
100
AcDbLine
 10
1629.799249967234
 20
1559.604906156231
 30
0.0
 11
1629.981806836818
 21
1559.727590172115
 31
0.0
  0
LINE
  5
13C
330
39
100
AcDbEntity
  8
0
  6
Continuous
 62
     7
100
AcDbLine
 10
1629.981806836818
 20
1559.727590172115
 30
0.0
 11
1630.028672328949
 21
1559.776947835814
 31
0.0
  0
LINE
  5
13D
330
39
100
AcDbEntity
  8
0
  6
Continuous
 62
     7
100
AcDbLine
 10
1630.028672328949
 20
1559.776947835814
 30
0.0
 11
1630.055226109628
 21
1559.822130605993
 31
0.0
  0
LINE
  5
13E
330
39
100
AcDbEntity
  8
0
  6
Continuous
 62
     7
100
AcDbLine
 10
1630.055226109628
 20
1559.822130605993
 30
0.0
 11
1630.151220453264
 21
1559.950012172748
 31
0.0
  0
LINE
  5
13F
330
39
100
AcDbEntity
  8
0
  6
Continuous
 62
     7
100
AcDbLine
 10
1630.151220453264
 20
1559.950012172748
 30
0.0
 11
1630.277646302715
 21
1560.23444046139
 31
0.0
  0
LINE
  5
140
330
39
100
AcDbEntity
  8
0
  6
Continuous
 62
     7
100
AcDbLine
 10
1630.277646302715
 20
1560.23444046139
 30
0.0
 11
1630.295295458636
 21
1560.367231738706
 31
0.0
  0
LINE
  5
141
330
39
100
AcDbEntity
  8
0
  6
Continuous
 62
     7
100
AcDbLine
 10
1630.295295458636
 20
1560.367231738706
 30
0.0
 11
1630.29653090419
 21
1560.376506042446
 31
0.0
  0
LINE
  5
142
330
39
100
AcDbEntity
  8
0
  6
Continuous
 62
     7
100
AcDbLine
 10
1630.293917376371
 20
1560.357378726349
 30
0.0
 11
1630.294179010872
 21
1560.375226285836
 31
0.0
  0
LINE
  5
143
330
39
100
AcDbEntity
  8
0
  6
Continuous
 62
     7
100
AcDbLine
 10
1616.541164854654
 20
1552.345904404893
 30
0.0
 11
1629.750161886492
 21
1559.533457542576
 31
0.0
  0
LINE
  5
144
330
39
100
AcDbEntity
  8
0
  6
Continuous
 62
     7
100
AcDbLine
 10
1597.433587407292
 20
1557.768436720528
 30
0.0
 11
1615.02626992966
 21
1552.216511406206
 31
0.0
  0
LINE
  5
145
330
39
100
AcDbEntity
  8
0
  6
Continuous
 62
     7
100
AcDbLine
 10
1615.02626992966
 20
1552.216511406206
 30
0.0
 11
1615.128713531402
 21
1552.209967839242
 31
0.0
  0
LINE
  5
146
330
39
100
AcDbEntity
  8
0
  6
Continuous
 62
     7
100
AcDbLine
 10
1615.128713531402
 20
1552.209967839242
 30
0.0
 11
1615.397512833505
 21
1552.145584582384
 31
0.0
  0
LINE
  5
147
330
39
100
AcDbEntity
  8
0
  6
Continuous
 62
     7
100
AcDbLine
 10
1615.397512833505
 20
1552.145584582384
 30
0.0
 11
1615.755267185219
 21
1552.133661177979
 31
0.0
  0
LINE
  5
148
330
39
100
AcDbEntity
  8
0
  6
Continuous
 62
     7
100
AcDbLine
 10
1615.755267185219
 20
1552.133661177979
 30
0.0
 11
1616.115048833744
 21
1552.195005082866
 31
0.0
  0
LINE
  5
149
330
39
100
AcDbEntity
  8
0
  6
Continuous
 62
     7
100
AcDbLine
 10
1616.115048833744
 20
1552.195005082866
 30
0.0
 11
1616.319870107466
 21
1552.277290020763
 31
0.0
  0
LINE
  5
14A
330
39
100
AcDbEntity
  8
0
  6
Continuous
 62
     7
100
AcDbLine
 10
1616.319870107466
 20
1552.277290020763
 30
0.0
 11
1616.541164854654
 21
1552.345904404893
 31
0.0
  0
LINE
  5
14B
330
39
100
AcDbEntity
  8
0
  6
Continuous
 62
     3
100
AcDbLine
 10
2340.815590913789
 20
1323.704076639399
 30
0.0
 11
2340.819140017538
 21
1324.225491211782
 31
0.0
  0
LINE
  5
14C
330
39
100
AcDbEntity
  8
0
  6
Continuous
 62
     7
100
AcDbLine
 10
2340.263358392001
 20
1324.356328312798
 30
0.0
 11
2340.231197445607
 21
1324.115280517367
 31
0.0
  0
LINE
  5
14D
330
39
100
AcDbEntity
  8
0
  6
Continuous
 62
     3
100
AcDbLine
 10
2373.717428271747
 20
1325.451255997135
 30
0.0
 11
2373.717976745706
 21
1325.531840162843
 31
0.0
  0
LINE
  5
14E
330
39
100
AcDbEntity
  8
0
  6
Continuous
 62
     7
100
AcDbLine
 10
2373.971042900208
 20
1325.669543297182
 30
0.0
 11
2373.970782599683
 21
1325.667592110214
 31
0.0
  0
LINE
  5
14F
330
39
100
AcDbEntity
  8
0
  6
Continuous
 62
     3
100
AcDbLine
 10
2373.970782599683
 20
1325.667592110214
 30
0.0
 11
2373.717428271747
 21
1325.451255997135
 31
0.0
  0
LINE
  5
150
330
39
100
AcDbEntity
  8
0
  6
Continuous
 62
     3
100
AcDbLine
 10
2373.717428271747
 20
1325.451255997135
 30
0.0
 11
2360.508415079586
 21
1318.263676692326
 31
0.0
  0
LINE
  5
151
330
39
100
AcDbEntity
  8
0
  6
Continuous
 62
     3
100
AcDbLine
 10
2340.815590913789
 20
1323.704076639399
 30
0.0
 11
2358.408286245853
 21
1318.152175668686
 31
0.0
  0
LINE
  5
152
330
39
100
AcDbEntity
  8
0
  6
Continuous
 62
     3
100
AcDbLine
 10
2358.408286245853
 20
1318.152175668686
 30
0.0
 11
2358.411917282391
 21
1318.685627350481
 31
0.0
  0
LINE
  5
153
330
39
100
AcDbEntity
  8
0
  6
Continuous
 62
     3
100
AcDbLine
 10
2360.508415079586
 20
1318.263676692326
 30
0.0
 11
2360.510805036419
 21
1318.615005109781
 31
0.0
  0
LINE
  5
154
330
39
100
AcDbEntity
  8
0
  6
Continuous
 62
     7
100
AcDbLine
 10
2341.110421882147
 20
1323.078650742285
 30
0.0
 11
2340.899962368275
 21
1323.205654692159
 31
0.0
  0
LINE
  5
155
330
39
100
AcDbEntity
  8
0
  6
Continuous
 62
     7
100
AcDbLine
 10
2340.899962368275
 20
1323.205654692159
 30
0.0
 11
2340.72385310263
 21
1323.292843662342
 31
0.0
  0
LINE
  5
156
330
39
100
AcDbEntity
  8
0
  6
Continuous
 62
     7
100
AcDbLine
 10
2340.72385310263
 20
1323.292843662342
 30
0.0
 11
2340.666411300789
 21
1323.340486418523
 31
0.0
  0
LINE
  5
157
330
39
100
AcDbEntity
  8
0
  6
Continuous
 62
     7
100
AcDbLine
 10
2340.666411300789
 20
1323.340486418523
 30
0.0
 11
2340.564127254031
 21
1323.417752060021
 31
0.0
  0
LINE
  5
158
330
39
100
AcDbEntity
  8
0
  6
Continuous
 62
     7
100
AcDbLine
 10
2340.564127254031
 20
1323.417752060021
 30
0.0
 11
2340.455058136389
 21
1323.586177095909
 31
0.0
  0
LINE
  5
159
330
39
100
AcDbEntity
  8
0
  6
Continuous
 62
     7
100
AcDbLine
 10
2340.455058136389
 20
1323.586177095909
 30
0.0
 11
2340.289437531932
 21
1323.847236922746
 31
0.0
  0
LINE
  5
15A
330
39
100
AcDbEntity
  8
0
  6
Continuous
 62
     7
100
AcDbLine
 10
2340.289437531932
 20
1323.847236922746
 30
0.0
 11
2340.272176925722
 21
1323.895622992261
 31
0.0
  0
LINE
  5
15B
330
39
100
AcDbEntity
  8
0
  6
Continuous
 62
     7
100
AcDbLine
 10
2340.272176925722
 20
1323.895622992261
 30
0.0
 11
2340.2593921483
 21
1323.928690591784
 31
0.0
  0
LINE
  5
15C
330
39
100
AcDbEntity
  8
0
  6
Continuous
 62
     7
100
AcDbLine
 10
2340.2593921483
 20
1323.928690591784
 30
0.0
 11
2340.247946091806
 21
1324.123561517556
 31
0.0
  0
LINE
  5
15D
330
39
100
AcDbEntity
  8
0
  6
Continuous
 62
     7
100
AcDbLine
 10
2340.247946091806
 20
1324.123561517556
 30
0.0
 11
2340.231197445607
 21
1324.115280517367
 31
0.0
  0
LINE
  5
15E
330
39
100
AcDbEntity
  8
0
  6
Continuous
 62
     7
100
AcDbLine
 10
2340.263358392001
 20
1324.356328312798
 30
0.0
 11
2340.263261630376
 21
1324.401044459793
 31
0.0
  0
LINE
  5
15F
330
39
100
AcDbEntity
  8
0
  6
Continuous
 62
     7
100
AcDbLine
 10
2373.427023166364
 20
1324.843686152466
 30
0.0
 11
2373.476105138665
 21
1324.915114069546
 31
0.0
  0
LINE
  5
160
330
39
100
AcDbEntity
  8
0
  6
Continuous
 62
     7
100
AcDbLine
 10
2373.476105138665
 20
1324.915114069546
 30
0.0
 11
2373.658654714182
 21
1325.037811487938
 31
0.0
  0
LINE
  5
161
330
39
100
AcDbEntity
  8
0
  6
Continuous
 62
     7
100
AcDbLine
 10
2373.658654714182
 20
1325.037811487938
 30
0.0
 11
2373.705493994108
 21
1325.087137513962
 31
0.0
  0
LINE
  5
162
330
39
100
AcDbEntity
  8
0
  6
Continuous
 62
     7
100
AcDbLine
 10
2373.705493994108
 20
1325.087137513962
 30
0.0
 11
2373.732080688246
 21
1325.13235556885
 31
0.0
  0
LINE
  5
163
330
39
100
AcDbEntity
  8
0
  6
Continuous
 62
     7
100
AcDbLine
 10
2373.732080688246
 20
1325.13235556885
 30
0.0
 11
2373.828068330628
 21
1325.260233488571
 31
0.0
  0
LINE
  5
164
330
39
100
AcDbEntity
  8
0
  6
Continuous
 62
     7
100
AcDbLine
 10
2373.828068330628
 20
1325.260233488571
 30
0.0
 11
2373.954467375062
 21
1325.54464718908
 31
0.0
  0
LINE
  5
165
330
39
100
AcDbEntity
  8
0
  6
Continuous
 62
     7
100
AcDbLine
 10
2373.954467375062
 20
1325.54464718908
 30
0.0
 11
2373.971094049819
 21
1325.66957112726
 31
0.0
  0
LINE
  5
166
330
39
100
AcDbEntity
  8
0
  6
Continuous
 62
     7
100
AcDbLine
 10
2373.970782599683
 20
1325.667592110214
 30
0.0
 11
2373.970809339411
 21
1325.669416204357
 31
0.0
  0
LINE
  5
167
330
39
100
AcDbEntity
  8
0
  6
Continuous
 62
     7
100
AcDbLine
 10
2360.21801332483
 20
1317.656108671175
 30
0.0
 11
2373.427023166364
 21
1324.843686152466
 31
0.0
  0
LINE
  5
168
330
39
100
AcDbEntity
  8
0
  6
Continuous
 62
     7
100
AcDbLine
 10
2341.110421882147
 20
1323.078650742285
 30
0.0
 11
2358.703135152973
 21
1317.526724790071
 31
0.0
  0
LINE
  5
169
330
39
100
AcDbEntity
  8
0
  6
Continuous
 62
     7
100
AcDbLine
 10
2358.703135152973
 20
1317.526724790071
 30
0.0
 11
2358.805575404087
 21
1317.520179399591
 31
0.0
  0
LINE
  5
16A
330
39
100
AcDbEntity
  8
0
  6
Continuous
 62
     7
100
AcDbLine
 10
2358.805575404087
 20
1317.520179399591
 30
0.0
 11
2359.074350658988
 21
1317.455800427657
 31
0.0
  0
LINE
  5
16B
330
39
100
AcDbEntity
  8
0
  6
Continuous
 62
     7
100
AcDbLine
 10
2359.074350658988
 20
1317.455800427657
 30
0.0
 11
2359.43211841321
 21
1317.443884317319
 31
0.0
  0
LINE
  5
16C
330
39
100
AcDbEntity
  8
0
  6
Continuous
 62
     7
100
AcDbLine
 10
2359.43211841321
 20
1317.443884317319
 30
0.0
 11
2359.791866555464
 21
1317.505209987039
 31
0.0
  0
LINE
  5
16D
330
39
100
AcDbEntity
  8
0
  6
Continuous
 62
     7
100
AcDbLine
 10
2359.791866555464
 20
1317.505209987039
 30
0.0
 11
2359.996684478559
 21
1317.587493101419
 31
0.0
  0
LINE
  5
16E
330
39
100
AcDbEntity
  8
0
  6
Continuous
 62
     7
100
AcDbLine
 10
2359.996684478559
 20
1317.587493101419
 30
0.0
 11
2360.21801332483
 21
1317.656108671175
 31
0.0
  0
LINE
  5
16F
330
39
100
AcDbEntity
  8
0
  6
Continuous
 62
     7
100
AcDbLine
 10
2832.60191106333
 20
1592.257744575691
 30
0.0
 11
2832.569760730716
 21
1592.016702280649
 31
0.0
  0
LINE
  5
170
330
39
100
AcDbEntity
  8
0
  6
Continuous
 62
     3
100
AcDbLine
 10
2833.154160338253
 20
1591.605502019876
 30
0.0
 11
2833.157719430246
 21
1592.128384009408
 31
0.0
  0
LINE
  5
171
330
39
100
AcDbEntity
  8
0
  6
Continuous
 62
     7
100
AcDbLine
 10
2866.309680471306
 20
1593.571798824066
 30
0.0
 11
2866.309310630997
 21
1593.569029707574
 31
0.0
  0
LINE
  5
172
330
39
100
AcDbEntity
  8
0
  6
Continuous
 62
     3
100
AcDbLine
 10
2866.309310630997
 20
1593.569029707574
 30
0.0
 11
2866.055987644329
 21
1593.352675907061
 31
0.0
  0
LINE
  5
173
330
39
100
AcDbEntity
  8
0
  6
Continuous
 62
     3
100
AcDbLine
 10
2866.055987644329
 20
1593.352675907061
 30
0.0
 11
2866.056542168318
 21
1593.434055846565
 31
0.0
  0
LINE
  5
174
330
39
100
AcDbEntity
  8
0
  6
Continuous
 62
     3
100
AcDbLine
 10
2866.055987644329
 20
1593.352675907061
 30
0.0
 11
2852.846997906559
 21
1586.16510936687
 31
0.0
  0
LINE
  5
175
330
39
100
AcDbEntity
  8
0
  6
Continuous
 62
     3
100
AcDbLine
 10
2833.154160338253
 20
1591.605502019876
 30
0.0
 11
2850.746835566554
 21
1586.053590108063
 31
0.0
  0
LINE
  5
176
330
39
100
AcDbEntity
  8
0
  6
Continuous
 62
     3
100
AcDbLine
 10
2850.746835566554
 20
1586.053590108063
 30
0.0
 11
2850.750477421288
 21
1586.588631138895
 31
0.0
  0
LINE
  5
177
330
39
100
AcDbEntity
  8
0
  6
Continuous
 62
     3
100
AcDbLine
 10
2852.846997906559
 20
1586.16510936687
 30
0.0
 11
2852.849392863815
 21
1586.517552633528
 31
0.0
  0
LINE
  5
178
330
39
100
AcDbEntity
  8
0
  6
Continuous
 62
     7
100
AcDbLine
 10
2833.448987955985
 20
1590.980074299245
 30
0.0
 11
2833.238513853979
 21
1591.107105054136
 31
0.0
  0
LINE
  5
179
330
39
100
AcDbEntity
  8
0
  6
Continuous
 62
     7
100
AcDbLine
 10
2833.238513853979
 20
1591.107105054136
 30
0.0
 11
2833.062419176467
 21
1591.194267219302
 31
0.0
  0
LINE
  5
17A
330
39
100
AcDbEntity
  8
0
  6
Continuous
 62
     7
100
AcDbLine
 10
2833.062419176467
 20
1591.194267219302
 30
0.0
 11
2833.004977374627
 21
1591.241909975483
 31
0.0
  0
LINE
  5
17B
330
39
100
AcDbEntity
  8
0
  6
Continuous
 62
     7
100
AcDbLine
 10
2833.004977374627
 20
1591.241909975483
 30
0.0
 11
2832.902683275987
 21
1591.319170146431
 31
0.0
  0
LINE
  5
17C
330
39
100
AcDbEntity
  8
0
  6
Continuous
 62
     7
100
AcDbLine
 10
2832.902683275987
 20
1591.319170146431
 30
0.0
 11
2832.793614158346
 21
1591.487595182319
 31
0.0
  0
LINE
  5
17D
330
39
100
AcDbEntity
  8
0
  6
Continuous
 62
     7
100
AcDbLine
 10
2832.793614158346
 20
1591.487595182319
 30
0.0
 11
2832.628010307024
 21
1591.74866412674
 31
0.0
  0
LINE
  5
17E
330
39
100
AcDbEntity
  8
0
  6
Continuous
 62
     7
100
AcDbLine
 10
2832.628010307024
 20
1591.74866412674
 30
0.0
 11
2832.610746350187
 21
1591.797048372738
 31
0.0
  0
LINE
  5
17F
330
39
100
AcDbEntity
  8
0
  6
Continuous
 62
     7
100
AcDbLine
 10
2832.610746350187
 20
1591.797048372738
 30
0.0
 11
2832.597961572765
 21
1591.830115972261
 31
0.0
  0
LINE
  5
180
330
39
100
AcDbEntity
  8
0
  6
Continuous
 62
     7
100
AcDbLine
 10
2832.597961572765
 20
1591.830115972261
 30
0.0
 11
2832.586515516271
 21
1592.024986898033
 31
0.0
  0
LINE
  5
181
330
39
100
AcDbEntity
  8
0
  6
Continuous
 62
     7
100
AcDbLine
 10
2832.586515516271
 20
1592.024986898033
 30
0.0
 11
2832.569760730716
 21
1592.016702280649
 31
0.0
  0
LINE
  5
182
330
39
100
AcDbEntity
  8
0
  6
Continuous
 62
     7
100
AcDbLine
 10
2832.60191106333
 20
1592.257744575691
 30
0.0
 11
2832.601811237662
 21
1592.30393984725
 31
0.0
  0
LINE
  5
183
330
39
100
AcDbEntity
  8
0
  6
Continuous
 62
     7
100
AcDbLine
 10
2865.765562435185
 20
1592.745095121293
 30
0.0
 11
2865.814657809994
 21
1592.81653033244
 31
0.0
  0
LINE
  5
184
330
39
100
AcDbEntity
  8
0
  6
Continuous
 62
     7
100
AcDbLine
 10
2865.814657809994
 20
1592.81653033244
 30
0.0
 11
2865.997207385511
 21
1592.939227750832
 31
0.0
  0
LINE
  5
185
330
39
100
AcDbEntity
  8
0
  6
Continuous
 62
     7
100
AcDbLine
 10
2865.997207385511
 20
1592.939227750832
 30
0.0
 11
2866.044080171708
 21
1592.988572012023
 31
0.0
  0
LINE
  5
186
330
39
100
AcDbEntity
  8
0
  6
Continuous
 62
     7
100
AcDbLine
 10
2866.044080171708
 20
1592.988572012023
 30
0.0
 11
2866.07062665832
 21
1593.03376818471
 31
0.0
  0
LINE
  5
187
330
39
100
AcDbEntity
  8
0
  6
Continuous
 62
     7
100
AcDbLine
 10
2866.07062665832
 20
1593.03376818471
 30
0.0
 11
2866.166621001957
 21
1593.161649751465
 31
0.0
  0
LINE
  5
188
330
39
100
AcDbEntity
  8
0
  6
Continuous
 62
     7
100
AcDbLine
 10
2866.166621001957
 20
1593.161649751465
 30
0.0
 11
2866.293046851408
 21
1593.446078040107
 31
0.0
  0
LINE
  5
189
330
39
100
AcDbEntity
  8
0
  6
Continuous
 62
     7
100
AcDbLine
 10
2866.293046851408
 20
1593.446078040107
 30
0.0
 11
2866.30977145128
 21
1593.571848329692
 31
0.0
  0
LINE
  5
18A
330
39
100
AcDbEntity
  8
0
  6
Continuous
 62
     7
100
AcDbLine
 10
2866.309310630997
 20
1593.569029707574
 30
0.0
 11
2866.309348582199
 21
1593.571618231852
 31
0.0
  0
LINE
  5
18B
330
39
100
AcDbEntity
  8
0
  6
Continuous
 62
     7
100
AcDbLine
 10
2852.556572697414
 20
1585.557528581102
 30
0.0
 11
2865.765562435185
 21
1592.745095121293
 31
0.0
  0
LINE
  5
18C
330
39
100
AcDbEntity
  8
0
  6
Continuous
 62
     7
100
AcDbLine
 10
2833.448987955985
 20
1590.980074299245
 30
0.0
 11
2851.041704849829
 21
1585.428151019342
 31
0.0
  0
LINE
  5
18D
330
39
100
AcDbEntity
  8
0
  6
Continuous
 62
     7
100
AcDbLine
 10
2851.041704849829
 20
1585.428151019342
 30
0.0
 11
2851.144148179179
 21
1585.421606603585
 31
0.0
  0
LINE
  5
18E
330
39
100
AcDbEntity
  8
0
  6
Continuous
 62
     7
100
AcDbLine
 10
2851.144148179179
 20
1585.421606603585
 30
0.0
 11
2851.412913382198
 21
1585.357222161101
 31
0.0
  0
LINE
  5
18F
330
39
100
AcDbEntity
  8
0
  6
Continuous
 62
     7
100
AcDbLine
 10
2851.412913382198
 20
1585.357222161101
 30
0.0
 11
2851.770667733912
 21
1585.345298756696
 31
0.0
  0
LINE
  5
190
330
39
100
AcDbEntity
  8
0
  6
Continuous
 62
     7
100
AcDbLine
 10
2851.770667733912
 20
1585.345298756696
 30
0.0
 11
2851.800145526082
 21
1585.350570753878
 31
0.0
  0
LINE
  5
191
330
39
100
AcDbEntity
  8
0
  6
Continuous
 62
     7
100
AcDbLine
 10
2851.800145526082
 20
1585.350570753878
 30
0.0
 11
2852.13042257742
 21
1585.406628073449
 31
0.0
  0
LINE
  5
192
330
39
100
AcDbEntity
  8
0
  6
Continuous
 62
     7
100
AcDbLine
 10
2852.13042257742
 20
1585.406628073449
 30
0.0
 11
2852.335243851142
 21
1585.488913011347
 31
0.0
  0
LINE
  5
193
330
39
100
AcDbEntity
  8
0
  6
Continuous
 62
     7
100
AcDbLine
 10
2852.335243851142
 20
1585.488913011347
 30
0.0
 11
2852.556572697414
 21
1585.557528581102
 31
0.0
  0
LINE
  5
194
330
39
100
AcDbEntity
  8
0
  6
Continuous
 62
     3
100
AcDbLine
 10
2869.905419926387
 20
1729.357271448979
 30
0.0
 11
2869.90541282168
 21
1729.356253372802
 31
0.0
  0
LINE
  5
195
330
39
100
AcDbEntity
  8
0
  6
Continuous
 62
     3
100
AcDbLine
 10
2869.90541282168
 20
1729.356253372802
 30
0.0
 11
2869.905411694732
 21
1729.356091885517
 31
0.0
  0
LINE
  5
196
330
39
100
AcDbEntity
  8
0
  6
Continuous
 62
     3
100
AcDbLine
 10
2869.905411694732
 20
1729.356091885517
 30
0.0
 11
2868.967927003575
 21
1595.018260263881
 31
0.0
  0
LINE
  5
197
330
39
100
AcDbEntity
  8
0
  6
Continuous
 62
     3
100
AcDbLine
 10
2831.104073996944
 20
1684.432656556434
 30
0.0
 11
2830.465805263692
 21
1592.978490696395
 31
0.0
  0
LINE
  5
198
330
39
100
AcDbEntity
  8
0
  6
Continuous
 62
     7
100
AcDbLine
 10
2854.736273815321
 20
1698.420467084006
 30
0.0
 11
2854.377179093112
 21
1697.791079652024
 31
0.0
  0
LINE
  5
199
330
39
100
AcDbEntity
  8
0
  6
Continuous
 62
     7
100
AcDbLine
 10
2854.377179093112
 20
1697.791079652024
 30
0.0
 11
2853.946413684707
 21
1697.216774445455
 31
0.0
  0
LINE
  5
19A
330
39
100
AcDbEntity
  8
0
  6
Continuous
 62
     7
100
AcDbLine
 10
2853.946413684707
 20
1697.216774445455
 30
0.0
 11
2853.46282336473
 21
1696.722678504624
 31
0.0
  0
LINE
  5
19B
330
39
100
AcDbEntity
  8
0
  6
Continuous
 62
     7
100
AcDbLine
 10
2853.46282336473
 20
1696.722678504624
 30
0.0
 11
2852.947466922251
 21
1696.330363287613
 31
0.0
  0
LINE
  5
19C
330
39
100
AcDbEntity
  8
0
  6
Continuous
 62
     7
100
AcDbLine
 10
2852.947466922251
 20
1696.330363287613
 30
0.0
 11
2852.423045420416
 21
1696.056978145973
 31
0.0
  0
LINE
  5
19D
330
39
100
AcDbEntity
  8
0
  6
Continuous
 62
     7
100
AcDbLine
 10
2852.423045420416
 20
1696.056978145973
 30
0.0
 11
2851.91216734473
 21
1695.914479885531
 31
0.0
  0
LINE
  5
19E
330
39
100
AcDbEntity
  8
0
  6
Continuous
 62
     7
100
AcDbLine
 10
2851.91216734473
 20
1695.914479885531
 30
0.0
 11
2851.437421183093
 21
1695.909116357309
 31
0.0
  0
LINE
  5
19F
330
39
100
AcDbEntity
  8
0
  6
Continuous
 62
     7
100
AcDbLine
 10
2851.437421183093
 20
1695.909116357309
 30
0.0
 11
2851.220195195011
 21
1695.958154383796
 31
0.0
  0
LINE
  5
1A0
330
39
100
AcDbEntity
  8
0
  6
Continuous
 62
     7
100
AcDbLine
 10
2869.423156378343
 20
1733.082294548749
 30
0.0
 11
2869.623822601206
 21
1732.999332486426
 31
0.0
  0
LINE
  5
1A1
330
39
100
AcDbEntity
  8
0
  6
Continuous
 62
     7
100
AcDbLine
 10
2870.219527200115
 20
1732.352151464313
 30
0.0
 11
2870.228477819444
 21
1732.323428478759
 31
0.0
  0
LINE
  5
1A2
330
39
100
AcDbEntity
  8
0
  6
Continuous
 62
     7
100
AcDbLine
 10
2870.363390464719
 20
1731.89048704547
 30
0.0
 11
2870.371264237626
 21
1731.865219713998
 31
0.0
  0
LINE
  5
1A3
330
39
100
AcDbEntity
  8
0
  6
Continuous
 62
     7
100
AcDbLine
 10
2869.623822601206
 20
1732.999332486426
 30
0.0
 11
2869.651400868707
 21
1732.978138294979
 31
0.0
  0
LINE
  5
1A4
330
39
100
AcDbEntity
  8
0
  6
Continuous
 62
     7
100
AcDbLine
 10
2869.940134503905
 20
1732.756243430069
 30
0.0
 11
2869.966755455915
 21
1732.735784945744
 31
0.0
  0
LINE
  5
1A5
330
39
100
AcDbEntity
  8
0
  6
Continuous
 62
     7
100
AcDbLine
 10
2869.966755455915
 20
1732.735784945744
 30
0.0
 11
2869.985142030148
 21
1732.707879510716
 31
0.0
  0
LINE
  5
1A6
330
39
100
AcDbEntity
  8
0
  6
Continuous
 62
     7
100
AcDbLine
 10
2870.202946554441
 20
1732.377316028669
 30
0.0
 11
2870.219527200115
 21
1732.352151464313
 31
0.0
  0
LINE
  5
1A7
330
39
100
AcDbEntity
  8
0
  6
Continuous
 62
     7
100
AcDbLine
 10
2870.415259578991
 20
1731.296251230634
 30
0.0
 11
2870.413314489764
 21
1731.277719644551
 31
0.0
  0
LINE
  5
1A8
330
39
100
AcDbEntity
  8
0
  6
Continuous
 62
     7
100
AcDbLine
 10
2870.350720976389
 20
1730.68136804014
 30
0.0
 11
2870.349546881825
 21
1730.670182006011
 31
0.0
  0
LINE
  5
1A9
330
39
100
AcDbEntity
  8
0
  6
Continuous
 62
     7
100
AcDbLine
 10
2870.371264237626
 20
1731.865219713998
 30
0.0
 11
2870.373211842612
 21
1731.840032368691
 31
0.0
  0
LINE
  5
1AA
330
39
100
AcDbEntity
  8
0
  6
Continuous
 62
     7
100
AcDbLine
 10
2870.413583904367
 20
1731.317921844386
 30
0.0
 11
2870.415259578991
 21
1731.296251230634
 31
0.0
  0
LINE
  5
1AB
330
39
100
AcDbEntity
  8
0
  6
Continuous
 62
     7
100
AcDbLine
 10
2870.349546881825
 20
1730.670182006011
 30
0.0
 11
2870.348065134557
 21
1730.664547254905
 31
0.0
  0
LINE
  5
1AC
330
39
100
AcDbEntity
  8
0
  6
Continuous
 62
     7
100
AcDbLine
 10
2870.348065134557
 20
1730.664547254905
 30
0.0
 11
2870.177069684021
 21
1730.01429007205
 31
0.0
  0
LINE
  5
1AD
330
39
100
AcDbEntity
  8
0
  6
Continuous
 62
     7
100
AcDbLine
 10
2870.177069684021
 20
1730.01429007205
 30
0.0
 11
2869.905419926387
 21
1729.357271448979
 31
0.0
  0
LINE
  5
1AE
330
39
100
AcDbEntity
  8
0
  6
Continuous
 62
     7
100
AcDbLine
 10
2869.423156378343
 20
1733.082294548749
 30
0.0
 11
2856.87786956297
 21
1737.044167800233
 31
0.0
  0
LINE
  5
1AF
330
39
100
AcDbEntity
  8
0
  6
Continuous
 62
     7
100
AcDbLine
 10
2854.736273815321
 20
1698.420467084006
 30
0.0
 11
2869.905419926387
 21
1729.357271448979
 31
0.0
  0
LINE
  5
1B0
330
39
100
AcDbEntity
  8
0
  6
Continuous
 62
     7
100
AcDbLine
 10
2850.457489480759
 20
1586.665115302459
 30
0.0
 11
2830.465805263692
 21
1592.978490696395
 31
0.0
  0
LINE
  5
1B1
330
39
100
AcDbEntity
  8
0
  6
Continuous
 62
     7
100
AcDbLine
 10
2868.967927003575
 20
1595.018260263881
 30
0.0
 11
2853.957674409039
 21
1586.850563520421
 31
0.0
  0
LINE
  5
1B2
330
39
100
AcDbEntity
  8
0
  6
Continuous
 62
     3
100
AcDbLine
 10
2853.957674409039
 20
1586.850563520421
 30
0.0
 11
2854.736266529243
 21
1698.419423020744
 31
0.0
  0
LINE
  5
1B3
330
39
100
AcDbEntity
  8
0
  6
Continuous
 62
     3
100
AcDbLine
 10
2854.736266529243
 20
1698.419423020744
 30
0.0
 11
2854.736273815321
 21
1698.420467084006
 31
0.0
  0
LINE
  5
1B4
330
39
100
AcDbEntity
  8
0
  6
Continuous
 62
     3
100
AcDbLine
 10
2850.457489480759
 20
1586.665115302459
 30
0.0
 11
2851.204656328802
 21
1693.731489655732
 31
0.0
  0
LINE
  5
1B5
330
39
100
AcDbEntity
  8
0
  6
Continuous
 62
     7
100
AcDbLine
 10
2869.468432989533
 20
1595.618915878223
 30
0.0
 11
2870.415259578991
 21
1731.296251230634
 31
0.0
  0
LINE
  5
1B6
330
39
100
AcDbEntity
  8
0
  6
Continuous
 62
     7
100
AcDbLine
 10
2829.467261294296
 20
1593.825902253266
 30
0.0
 11
2830.095696531152
 21
1683.88396039735
 31
0.0
  0
LINE
  5
1B7
330
39
100
AcDbEntity
  8
0
  6
Continuous
 62
     3
100
AcDbLine
 10
2377.40693726099
 20
1438.68562757147
 30
0.0
 11
2376.62823558339
 21
1327.115425138248
 31
0.0
  0
LINE
  5
1B8
330
39
100
AcDbEntity
  8
0
  6
Continuous
 62
     3
100
AcDbLine
 10
2339.034785855233
 20
1455.26412400105
 30
0.0
 11
2338.126129977898
 21
1325.075977050649
 31
0.0
  0
LINE
  5
1B9
330
39
100
AcDbEntity
  8
0
  6
Continuous
 62
     3
100
AcDbLine
 10
2361.617971751347
 20
1318.947757023322
 30
0.0
 11
2362.555589317366
 21
1453.287061881374
 31
0.0
  0
LINE
  5
1BA
330
39
100
AcDbEntity
  8
0
  6
Continuous
 62
     3
100
AcDbLine
 10
2358.117771049308
 20
1318.76236970946
 30
0.0
 11
2359.071299060493
 21
1455.378548167343
 31
0.0
  0
LINE
  5
1BB
330
39
100
AcDbEntity
  8
0
  6
Continuous
 62
     7
100
AcDbLine
 10
2377.898087801226
 20
1437.94794716564
 30
0.0
 11
2377.83820354247
 21
1438.146301884161
 31
0.0
  0
LINE
  5
1BC
330
39
100
AcDbEntity
  8
0
  6
Continuous
 62
     7
100
AcDbLine
 10
2377.83820354247
 20
1438.146301884161
 30
0.0
 11
2377.672074138449
 21
1438.395827640667
 31
0.0
  0
LINE
  5
1BD
330
39
100
AcDbEntity
  8
0
  6
Continuous
 62
     7
100
AcDbLine
 10
2377.672074138449
 20
1438.395827640667
 30
0.0
 11
2377.40693726099
 21
1438.68562757147
 31
0.0
  0
LINE
  5
1BE
330
39
100
AcDbEntity
  8
0
  6
Continuous
 62
     7
100
AcDbLine
 10
2346.526037613119
 20
1459.340427026351
 30
0.0
 11
2359.071299060493
 21
1455.378548167343
 31
0.0
  0
LINE
  5
1BF
330
39
100
AcDbEntity
  8
0
  6
Continuous
 62
     7
100
AcDbLine
 10
2362.555589317366
 20
1453.287061881374
 30
0.0
 11
2377.40693726099
 21
1438.68562757147
 31
0.0
  0
LINE
  5
1C0
330
39
100
AcDbEntity
  8
0
  6
Continuous
 62
     7
100
AcDbLine
 10
2362.555589317366
 20
1453.287061881374
 30
0.0
 11
2362.203185960755
 21
1453.604416418958
 31
0.0
  0
LINE
  5
1C1
330
39
100
AcDbEntity
  8
0
  6
Continuous
 62
     7
100
AcDbLine
 10
2362.203185960755
 20
1453.604416418958
 30
0.0
 11
2361.778751592997
 21
1453.935519785273
 31
0.0
  0
LINE
  5
1C2
330
39
100
AcDbEntity
  8
0
  6
Continuous
 62
     7
100
AcDbLine
 10
2361.778751592997
 20
1453.935519785273
 30
0.0
 11
2361.300869475419
 21
1454.26586921221
 31
0.0
  0
LINE
  5
1C3
330
39
100
AcDbEntity
  8
0
  6
Continuous
 62
     7
100
AcDbLine
 10
2361.300869475419
 20
1454.26586921221
 30
0.0
 11
2360.790470680184
 21
1454.581041004525
 31
0.0
  0
LINE
  5
1C4
330
39
100
AcDbEntity
  8
0
  6
Continuous
 62
     7
100
AcDbLine
 10
2360.790470680184
 20
1454.581041004525
 30
0.0
 11
2360.269848515625
 21
1454.867248605746
 31
0.0
  0
LINE
  5
1C5
330
39
100
AcDbEntity
  8
0
  6
Continuous
 62
     7
100
AcDbLine
 10
2360.269848515625
 20
1454.867248605746
 30
0.0
 11
2359.761782929461
 21
1455.111977889676
 31
0.0
  0
LINE
  5
1C6
330
39
100
AcDbEntity
  8
0
  6
Continuous
 62
     7
100
AcDbLine
 10
2359.761782929461
 20
1455.111977889676
 30
0.0
 11
2359.288433615618
 21
1455.304548689628
 31
0.0
  0
LINE
  5
1C7
330
39
100
AcDbEntity
  8
0
  6
Continuous
 62
     7
100
AcDbLine
 10
2359.288433615618
 20
1455.304548689628
 30
0.0
 11
2359.071299060493
 21
1455.378548167343
 31
0.0
  0
LINE
  5
1C8
330
39
100
AcDbEntity
  8
0
  6
Continuous
 62
     7
100
AcDbLine
 10
2358.117771049308
 20
1318.76236970946
 30
0.0
 11
2338.126129977898
 21
1325.075977050649
 31
0.0
  0
LINE
  5
1C9
330
39
100
AcDbEntity
  8
0
  6
Continuous
 62
     7
100
AcDbLine
 10
2376.62823558339
 20
1327.115425138248
 30
0.0
 11
2361.617971751347
 21
1318.947757023322
 31
0.0
  0
LINE
  5
1CA
330
39
100
AcDbEntity
  8
0
  6
Continuous
 62
     7
100
AcDbLine
 10
2377.128652081793
 20
1327.716101539323
 30
0.0
 11
2377.898087801226
 21
1437.94794716564
 31
0.0
  0
LINE
  5
1CB
330
39
100
AcDbEntity
  8
0
  6
Continuous
 62
     7
100
AcDbLine
 10
2337.127467344678
 20
1325.923463004288
 30
0.0
 11
2338.026375125412
 21
1454.715406092192
 31
0.0
  0
LINE
  5
1CC
330
39
100
AcDbEntity
  8
0
  6
Continuous
 62
     7
100
AcDbLine
 10
2869.904501288892
 20
1729.354235160855
 30
0.0
 11
2854.735452912892
 21
1698.417761941086
 31
0.0
  0
LINE
  5
1CD
330
39
100
AcDbEntity
  8
0
  6
Continuous
 62
     7
100
AcDbLine
 10
2852.684137844716
 20
1696.175168754053
 30
0.0
 11
2852.946689784223
 21
1696.327577729643
 31
0.0
  0
LINE
  5
1CE
330
39
100
AcDbEntity
  8
0
  6
Continuous
 62
     7
100
AcDbLine
 10
2852.946689784223
 20
1696.327577729643
 30
0.0
 11
2853.206960960915
 21
1696.50984162509
 31
0.0
  0
LINE
  5
1CF
330
39
100
AcDbEntity
  8
0
  6
Continuous
 62
     7
100
AcDbLine
 10
2853.206960960915
 20
1696.50984162509
 30
0.0
 11
2853.462031638568
 21
1696.719919751671
 31
0.0
  0
LINE
  5
1D0
330
39
100
AcDbEntity
  8
0
  6
Continuous
 62
     7
100
AcDbLine
 10
2853.462031638568
 20
1696.719919751671
 30
0.0
 11
2853.709142550429
 21
1696.955476565478
 31
0.0
  0
LINE
  5
1D1
330
39
100
AcDbEntity
  8
0
  6
Continuous
 62
     7
100
AcDbLine
 10
2853.709142550429
 20
1696.955476565478
 30
0.0
 11
2853.945621958545
 21
1697.214015692502
 31
0.0
  0
LINE
  5
1D2
330
39
100
AcDbEntity
  8
0
  6
Continuous
 62
     7
100
AcDbLine
 10
2853.945621958545
 20
1697.214015692502
 30
0.0
 11
2854.168865962501
 21
1697.492660745993
 31
0.0
  0
LINE
  5
1D3
330
39
100
AcDbEntity
  8
0
  6
Continuous
 62
     7
100
AcDbLine
 10
2854.168865962501
 20
1697.492660745993
 30
0.0
 11
2854.37638736695
 21
1697.788320899071
 31
0.0
  0
LINE
  5
1D4
330
39
100
AcDbEntity
  8
0
  6
Continuous
 62
     7
100
AcDbLine
 10
2854.37638736695
 20
1697.788320899071
 30
0.0
 11
2854.56594733545
 21
1698.097832023552
 31
0.0
  0
LINE
  5
1D5
330
39
100
AcDbEntity
  8
0
  6
Continuous
 62
     7
100
AcDbLine
 10
2854.56594733545
 20
1698.097832023552
 30
0.0
 11
2854.735452912892
 21
1698.417761941086
 31
0.0
  0
LINE
  5
1D6
330
39
100
AcDbEntity
  8
0
  6
Continuous
 62
     3
100
AcDbLine
 10
2869.422237740848
 20
1733.079258260625
 30
0.0
 11
2359.073570657973
 21
1455.377769184973
 31
0.0
  0
LINE
  5
1D7
330
39
100
AcDbEntity
  8
0
  6
Continuous
 62
     3
100
AcDbLine
 10
2359.073570657973
 20
1455.377769184973
 30
0.0
 11
2359.072627662549
 21
1455.377256062768
 31
0.0
  0
LINE
  5
1D8
330
39
100
AcDbEntity
  8
0
  6
Continuous
 62
     3
100
AcDbLine
 10
2854.735452912892
 20
1698.417761941086
 30
0.0
 11
2377.406912620975
 21
1438.685648905937
 31
0.0
  0
LINE
  5
1D9
330
39
100
AcDbEntity
  8
0
  6
Continuous
 62
     3
100
AcDbLine
 10
2869.904501288892
 20
1729.354235160855
 30
0.0
 11
2362.556896140346
 21
1453.28575792394
 31
0.0
  0
LINE
  5
1DA
330
39
100
AcDbEntity
  8
0
  6
Continuous
 62
     7
100
AcDbLine
 10
2856.874001723767
 20
1737.042062886858
 30
0.0
 11
2869.422237740848
 21
1733.079258260625
 31
0.0
  0
LINE
  5
1DB
330
39
100
AcDbEntity
  8
0
  6
Continuous
 62
     7
100
AcDbLine
 10
2869.904501288892
 20
1729.354235160855
 30
0.0
 11
2870.05211517314
 21
1729.681064989282
 31
0.0
  0
LINE
  5
1DC
330
39
100
AcDbEntity
  8
0
  6
Continuous
 62
     7
100
AcDbLine
 10
2870.05211517314
 20
1729.681064989282
 30
0.0
 11
2870.176172928726
 21
1730.011213576401
 31
0.0
  0
LINE
  5
1DD
330
39
100
AcDbEntity
  8
0
  6
Continuous
 62
     7
100
AcDbLine
 10
2870.176172928726
 20
1730.011213576401
 30
0.0
 11
2870.275412015121
 21
1730.341127400022
 31
0.0
  0
LINE
  5
1DE
330
39
100
AcDbEntity
  8
0
  6
Continuous
 62
     7
100
AcDbLine
 10
2870.275412015121
 20
1730.341127400022
 30
0.0
 11
2870.348642832464
 21
1730.66711891287
 31
0.0
  0
LINE
  5
1DF
330
39
100
AcDbEntity
  8
0
  6
Continuous
 62
     7
100
AcDbLine
 10
2870.348642832464
 20
1730.66711891287
 30
0.0
 11
2870.395094815528
 21
1730.985624386491
 31
0.0
  0
LINE
  5
1E0
330
39
100
AcDbEntity
  8
0
  6
Continuous
 62
     7
100
AcDbLine
 10
2870.395094815528
 20
1730.985624386491
 30
0.0
 11
2870.414280037395
 21
1731.293199168751
 31
0.0
  0
LINE
  5
1E1
330
39
100
AcDbEntity
  8
0
  6
Continuous
 62
     7
100
AcDbLine
 10
2869.622896669644
 20
1732.996309600811
 30
0.0
 11
2869.422237740848
 21
1733.079258260625
 31
0.0
  0
LINE
  5
1E2
330
39
100
AcDbEntity
  8
0
  6
Continuous
 62
     7
100
AcDbLine
 10
2870.406022385713
 20
1731.5864640738
 30
0.0
 11
2870.373211842179
 21
1731.840032371973
 31
0.0
  0
LINE
  5
1E3
330
39
100
AcDbEntity
  8
0
  6
Continuous
 62
     7
100
AcDbLine
 10
2870.373211842179
 20
1731.840032371973
 30
0.0
 11
2870.370345600131
 21
1731.862183425874
 31
0.0
  0
LINE
  5
1E4
330
39
100
AcDbEntity
  8
0
  6
Continuous
 62
     7
100
AcDbLine
 10
2870.414280037395
 20
1731.293199168751
 30
0.0
 11
2870.413583905144
 21
1731.317921834032
 31
0.0
  0
LINE
  5
1E5
330
39
100
AcDbEntity
  8
0
  6
Continuous
 62
     7
100
AcDbLine
 10
2870.413583905144
 20
1731.317921834032
 30
0.0
 11
2870.406022385713
 21
1731.5864640738
 31
0.0
  0
LINE
  5
1E6
330
39
100
AcDbEntity
  8
0
  6
Continuous
 62
     7
100
AcDbLine
 10
2870.104262804172
 20
1732.555006674841
 30
0.0
 11
2869.985142029249
 21
1732.707879511866
 31
0.0
  0
LINE
  5
1E7
330
39
100
AcDbEntity
  8
0
  6
Continuous
 62
     7
100
AcDbLine
 10
2869.985142029249
 20
1732.707879511866
 30
0.0
 11
2869.965775914319
 21
1732.732732883861
 31
0.0
  0
LINE
  5
1E8
330
39
100
AcDbEntity
  8
0
  6
Continuous
 62
     7
100
AcDbLine
 10
2870.307648690537
 20
1732.117325783083
 30
0.0
 11
2870.228477820887
 21
1732.323428475158
 31
0.0
  0
LINE
  5
1E9
330
39
100
AcDbEntity
  8
0
  6
Continuous
 62
     7
100
AcDbLine
 10
2870.228477820887
 20
1732.323428475158
 30
0.0
 11
2870.218615856687
 21
1732.34910177368
 31
0.0
  0
LINE
  5
1EA
330
39
100
AcDbEntity
  8
0
  6
Continuous
 62
     7
100
AcDbLine
 10
2870.370345600131
 20
1731.862183425874
 30
0.0
 11
2870.363390467785
 21
1731.890487035619
 31
0.0
  0
LINE
  5
1EB
330
39
100
AcDbEntity
  8
0
  6
Continuous
 62
     7
100
AcDbLine
 10
2870.363390467785
 20
1731.890487035619
 30
0.0
 11
2870.307648690537
 21
1732.117325783083
 31
0.0
  0
LINE
  5
1EC
330
39
100
AcDbEntity
  8
0
  6
Continuous
 62
     7
100
AcDbLine
 10
2870.218615856687
 20
1732.34910177368
 30
0.0
 11
2870.202946553139
 21
1732.377316030557
 31
0.0
  0
LINE
  5
1ED
330
39
100
AcDbEntity
  8
0
  6
Continuous
 62
     7
100
AcDbLine
 10
2870.202946553139
 20
1732.377316030557
 30
0.0
 11
2870.104262804172
 21
1732.555006674841
 31
0.0
  0
LINE
  5
1EE
330
39
100
AcDbEntity
  8
0
  6
Continuous
 62
     7
100
AcDbLine
 10
2869.804743824022
 20
1732.880382812035
 30
0.0
 11
2869.651400868495
 21
1732.978138295074
 31
0.0
  0
LINE
  5
1EF
330
39
100
AcDbEntity
  8
0
  6
Continuous
 62
     7
100
AcDbLine
 10
2869.651400868495
 20
1732.978138295074
 30
0.0
 11
2869.622896669644
 21
1732.996309600811
 31
0.0
  0
LINE
  5
1F0
330
39
100
AcDbEntity
  8
0
  6
Continuous
 62
     7
100
AcDbLine
 10
2869.965775914319
 20
1732.732732883861
 30
0.0
 11
2869.940134504425
 21
1732.75624342963
 31
0.0
  0
LINE
  5
1F1
330
39
100
AcDbEntity
  8
0
  6
Continuous
 62
     7
100
AcDbLine
 10
2869.940134504425
 20
1732.75624342963
 30
0.0
 11
2869.804743824022
 21
1732.880382812035
 31
0.0
  0
LINE
  5
1F2
330
39
100
AcDbEntity
  8
0
  6
Continuous
 62
     7
100
AcDbLine
 10
2359.072627662549
 20
1455.377256062768
 30
0.0
 11
2359.28972811859
 21
1455.303255399428
 31
0.0
  0
LINE
  5
1F3
330
39
100
AcDbEntity
  8
0
  6
Continuous
 62
     7
100
AcDbLine
 10
2360.531329339151
 20
1454.727274321399
 30
0.0
 11
2360.758726071218
 21
1454.598492333086
 31
0.0
  0
LINE
  5
1F4
330
39
100
AcDbEntity
  8
0
  6
Continuous
 62
     7
100
AcDbLine
 10
2360.758726071218
 20
1454.598492333086
 30
0.0
 11
2360.791811009434
 21
1454.579755282259
 31
0.0
  0
LINE
  5
1F5
330
39
100
AcDbEntity
  8
0
  6
Continuous
 62
     7
100
AcDbLine
 10
2359.520742968043
 20
1455.214069845248
 30
0.0
 11
2359.723708252386
 21
1455.12746765747
 31
0.0
  0
LINE
  5
1F6
330
39
100
AcDbEntity
  8
0
  6
Continuous
 62
     7
100
AcDbLine
 10
2359.723708252386
 20
1455.12746765747
 30
0.0
 11
2359.76307970056
 21
1455.110668461692
 31
0.0
  0
LINE
  5
1F7
330
39
100
AcDbEntity
  8
0
  6
Continuous
 62
     7
100
AcDbLine
 10
2359.28972811859
 20
1455.303255399428
 30
0.0
 11
2359.326646503381
 21
1455.289002693964
 31
0.0
  0
LINE
  5
1F8
330
39
100
AcDbEntity
  8
0
  6
Continuous
 62
     7
100
AcDbLine
 10
2359.326646503381
 20
1455.289002693964
 30
0.0
 11
2359.520742968043
 21
1455.214069845248
 31
0.0
  0
LINE
  5
1F9
330
39
100
AcDbEntity
  8
0
  6
Continuous
 62
     7
100
AcDbLine
 10
2360.014161063932
 20
1454.994219708044
 30
0.0
 11
2360.232448119431
 21
1454.885263941689
 31
0.0
  0
LINE
  5
1FA
330
39
100
AcDbEntity
  8
0
  6
Continuous
 62
     7
100
AcDbLine
 10
2360.232448119431
 20
1454.885263941689
 30
0.0
 11
2360.271171009239
 21
1454.865935804595
 31
0.0
  0
LINE
  5
1FB
330
39
100
AcDbEntity
  8
0
  6
Continuous
 62
     7
100
AcDbLine
 10
2359.76307970056
 20
1455.110668461692
 30
0.0
 11
2359.801337208814
 21
1455.092925053363
 31
0.0
  0
LINE
  5
1FC
330
39
100
AcDbEntity
  8
0
  6
Continuous
 62
     7
100
AcDbLine
 10
2359.801337208814
 20
1455.092925053363
 30
0.0
 11
2360.014161063932
 21
1454.994219708044
 31
0.0
  0
LINE
  5
1FD
330
39
100
AcDbEntity
  8
0
  6
Continuous
 62
     7
100
AcDbLine
 10
2360.271171009239
 20
1454.865935804595
 30
0.0
 11
2360.306136900045
 21
1454.847299375456
 31
0.0
  0
LINE
  5
1FE
330
39
100
AcDbEntity
  8
0
  6
Continuous
 62
     7
100
AcDbLine
 10
2360.306136900045
 20
1454.847299375456
 30
0.0
 11
2360.531329339151
 21
1454.727274321399
 31
0.0
  0
LINE
  5
1FF
330
39
100
AcDbEntity
  8
0
  6
Continuous
 62
     7
100
AcDbLine
 10
2361.546529626196
 20
1454.100416443715
 30
0.0
 11
2361.760700953018
 21
1453.947997796749
 31
0.0
  0
LINE
  5
200
330
39
100
AcDbEntity
  8
0
  6
Continuous
 62
     7
100
AcDbLine
 10
2361.760700953018
 20
1453.947997796749
 30
0.0
 11
2361.780035451275
 21
1453.934238074064
 31
0.0
  0
LINE
  5
201
330
39
100
AcDbEntity
  8
0
  6
Continuous
 62
     7
100
AcDbLine
 10
2361.049676848286
 20
1454.424940832177
 30
0.0
 11
2361.274862278931
 21
1454.281928683371
 31
0.0
  0
LINE
  5
202
330
39
100
AcDbEntity
  8
0
  6
Continuous
 62
     7
100
AcDbLine
 10
2361.274862278931
 20
1454.281928683371
 30
0.0
 11
2361.302175705586
 21
1454.264582304318
 31
0.0
  0
LINE
  5
203
330
39
100
AcDbEntity
  8
0
  6
Continuous
 62
     7
100
AcDbLine
 10
2360.791811009434
 20
1454.579755282259
 30
0.0
 11
2360.818547225418
 21
1454.563703708335
 31
0.0
  0
LINE
  5
204
330
39
100
AcDbEntity
  8
0
  6
Continuous
 62
     7
100
AcDbLine
 10
2360.818547225418
 20
1454.563703708335
 30
0.0
 11
2361.049676848286
 21
1454.424940832177
 31
0.0
  0
LINE
  5
205
330
39
100
AcDbEntity
  8
0
  6
Continuous
 62
     7
100
AcDbLine
 10
2346.525014859933
 20
1459.339870543725
 30
0.0
 11
2359.072627662549
 21
1455.377256062768
 31
0.0
  0
LINE
  5
206
330
39
100
AcDbEntity
  8
0
  6
Continuous
 62
     7
100
AcDbLine
 10
2361.302175705586
 20
1454.264582304318
 30
0.0
 11
2361.321924002072
 21
1454.251314679719
 31
0.0
  0
LINE
  5
207
330
39
100
AcDbEntity
  8
0
  6
Continuous
 62
     7
100
AcDbLine
 10
2361.321924002072
 20
1454.251314679719
 30
0.0
 11
2361.546529626196
 21
1454.100416443715
 31
0.0
  0
LINE
  5
208
330
39
100
AcDbEntity
  8
0
  6
Continuous
 62
     7
100
AcDbLine
 10
2362.000134794887
 20
1453.767851320359
 30
0.0
 11
2362.193943983506
 21
1453.611626131479
 31
0.0
  0
LINE
  5
209
330
39
100
AcDbEntity
  8
0
  6
Continuous
 62
     7
100
AcDbLine
 10
2362.193943983506
 20
1453.611626131479
 30
0.0
 11
2362.204474844974
 21
1453.603137443025
 31
0.0
  0
LINE
  5
20A
330
39
100
AcDbEntity
  8
0
  6
Continuous
 62
     7
100
AcDbLine
 10
2361.780035451275
 20
1453.934238074064
 30
0.0
 11
2361.791639968263
 21
1453.92546549947
 31
0.0
  0
LINE
  5
20B
330
39
100
AcDbEntity
  8
0
  6
Continuous
 62
     7
100
AcDbLine
 10
2361.791639968263
 20
1453.92546549947
 30
0.0
 11
2362.000134794887
 21
1453.767851320359
 31
0.0
  0
LINE
  5
20C
330
39
100
AcDbEntity
  8
0
  6
Continuous
 62
     7
100
AcDbLine
 10
2362.204474844974
 20
1453.603137443025
 30
0.0
 11
2362.207903819586
 21
1453.600167782045
 31
0.0
  0
LINE
  5
20D
330
39
100
AcDbEntity
  8
0
  6
Continuous
 62
     7
100
AcDbLine
 10
2362.207903819586
 20
1453.600167782045
 30
0.0
 11
2362.390726553239
 21
1453.441834285954
 31
0.0
  0
LINE
  5
20E
330
39
100
AcDbEntity
  8
0
  6
Continuous
 62
     7
100
AcDbLine
 10
2362.390726553239
 20
1453.441834285954
 30
0.0
 11
2362.553613092717
 21
1453.288841557589
 31
0.0
  0
LINE
  5
20F
330
39
100
AcDbEntity
  8
0
  6
Continuous
 62
     7
100
AcDbLine
 10
2362.553613092717
 20
1453.288841557589
 30
0.0
 11
2362.556896140346
 21
1453.28575792394
 31
0.0
  0
LINE
  5
210
330
39
100
AcDbEntity
  8
0
  6
Continuous
 62
     7
100
AcDbLine
 10
2377.406912620975
 20
1438.685648905937
 30
0.0
 11
2362.556896140346
 21
1453.28575792394
 31
0.0
  0
LINE
  5
211
330
39
100
AcDbEntity
  8
0
  6
Continuous
 62
     7
100
AcDbLine
 10
2377.406912620975
 20
1438.685648905937
 30
0.0
 11
2377.551222938659
 21
1438.536472728684
 31
0.0
  0
LINE
  5
212
330
39
100
AcDbEntity
  8
0
  6
Continuous
 62
     7
100
AcDbLine
 10
2377.551222938659
 20
1438.536472728684
 30
0.0
 11
2377.672034910301
 21
1438.395875780151
 31
0.0
  0
LINE
  5
213
330
39
100
AcDbEntity
  8
0
  6
Continuous
 62
     7
100
AcDbLine
 10
2377.672034910301
 20
1438.395875780151
 30
0.0
 11
2377.768029083542
 21
1438.265328866159
 31
0.0
  0
LINE
  5
214
330
39
100
AcDbEntity
  8
0
  6
Continuous
 62
     7
100
AcDbLine
 10
2377.768029083542
 20
1438.265328866159
 30
0.0
 11
2377.838134158678
 21
1438.146333611994
 31
0.0
  0
LINE
  5
215
330
39
100
AcDbEntity
  8
0
  6
Continuous
 62
     7
100
AcDbLine
 10
2377.838134158678
 20
1438.146333611994
 30
0.0
 11
2377.881649415604
 21
1438.040141647625
 31
0.0
  0
LINE
  5
216
330
39
100
AcDbEntity
  8
0
  6
Continuous
 62
     7
100
AcDbLine
 10
2377.881649415604
 20
1438.040141647625
 30
0.0
 11
2377.898059810584
 21
1437.94796667659
 31
0.0
  0
LINE
  5
217
330
39
100
AcDbEntity
  8
0
  6
Continuous
 62
     7
100
AcDbLine
 10
2852.684137844716
 20
1696.175168754053
 30
0.0
 11
2377.897240080793
 21
1437.826043685102
 31
0.0
  0
LINE
  5
218
330
39
100
AcDbEntity
  8
0
  6
Continuous
 62
     3
100
AcDbLine
 10
1633.677316941396
 20
1668.308586048761
 30
0.0
 11
1632.952613820805
 21
1561.821784019594
 31
0.0
  0
LINE
  5
219
330
39
100
AcDbEntity
  8
0
  6
Continuous
 62
     3
100
AcDbLine
 10
1595.271568647645
 20
1680.428707470689
 30
0.0
 11
1594.450448731446
 21
1559.777369862969
 31
0.0
  0
LINE
  5
21A
330
39
100
AcDbEntity
  8
0
  6
Continuous
 62
     3
100
AcDbLine
 10
1617.942346638135
 20
1553.654114081151
 30
0.0
 11
1618.754726631833
 21
1673.017870927969
 31
0.0
  0
LINE
  5
21B
330
39
100
AcDbEntity
  8
0
  6
Continuous
 62
     3
100
AcDbLine
 10
1614.442168643291
 20
1553.468270076692
 30
0.0
 11
1615.263303723154
 21
1674.119696699804
 31
0.0
  0
LINE
  5
21C
330
39
100
AcDbEntity
  8
0
  6
Continuous
 62
     7
100
AcDbLine
 10
1614.442168643291
 20
1553.468270076692
 30
0.0
 11
1594.450448731446
 21
1559.777369862969
 31
0.0
  0
LINE
  5
21D
330
39
100
AcDbEntity
  8
0
  6
Continuous
 62
     7
100
AcDbLine
 10
1632.952613820805
 20
1561.821784019594
 30
0.0
 11
1617.942346638135
 21
1553.654114081151
 31
0.0
  0
LINE
  5
21E
330
39
100
AcDbEntity
  8
0
  6
Continuous
 62
     7
100
AcDbLine
 10
1633.453012586695
 20
1562.4223812814
 30
0.0
 11
1634.172615175038
 21
1668.152279306053
 31
0.0
  0
LINE
  5
21F
330
39
100
AcDbEntity
  8
0
  6
Continuous
 62
     7
100
AcDbLine
 10
1593.451792438849
 20
1560.624477079653
 30
0.0
 11
1594.269320000109
 21
1680.744996859005
 31
0.0
  0
LINE
  5
220
330
39
100
AcDbEntity
  8
0
  6
Continuous
 62
     3
100
AcDbLine
 10
7.56766302110816
 20
1573.005941539703
 30
0.0
 11
7.29972703313717
 21
1572.856987948284
 31
0.0
  0
LINE
  5
221
330
39
100
AcDbEntity
  8
0
  6
Continuous
 62
     3
100
AcDbLine
 10
7.29972703313717
 20
1572.856987948284
 30
0.0
 11
7.31207646585631
 21
1573.57900768385
 31
0.0
  0
LINE
  5
222
330
39
100
AcDbEntity
  8
0
  6
Continuous
 62
     3
100
AcDbLine
 10
7.29972703313717
 20
1572.856987948284
 30
0.0
 11
-6.39285454112269
 21
1568.003622774013
 31
0.0
  0
LINE
  5
223
330
39
100
AcDbEntity
  8
0
  6
Continuous
 62
     3
100
AcDbLine
 10
-25.71603035942417
 20
1572.26496988938
 30
0.0
 11
-8.5002498176276
 21
1567.965825535944
 31
0.0
  0
LINE
  5
224
330
39
100
AcDbEntity
  8
0
  6
Continuous
 62
     3
100
AcDbLine
 10
-25.71603035942417
 20
1572.26496988938
 30
0.0
 11
-25.69935103180319
 21
1573.240140489693
 31
0.0
  0
LINE
  5
225
330
39
100
AcDbEntity
  8
0
  6
Continuous
 62
     3
100
AcDbLine
 10
-8.5002498176276
 20
1567.965825535944
 30
0.0
 11
-8.48325623649077
 21
1568.95936922639
 31
0.0
  0
LINE
  5
226
330
39
100
AcDbEntity
  8
0
  6
Continuous
 62
     3
100
AcDbLine
 10
-6.39285454112269
 20
1568.003622774013
 30
0.0
 11
-6.3777047677886
 21
1568.889366725597
 31
0.0
  0
LINE
  5
227
330
39
100
AcDbEntity
  8
0
  6
Continuous
 62
     7
100
AcDbLine
 10
-6.6848903645232
 20
1567.34140869041
 30
0.0
 11
-6.88044710118913
 21
1567.244203460424
 31
0.0
  0
LINE
  5
228
330
39
100
AcDbEntity
  8
0
  6
Continuous
 62
     7
100
AcDbLine
 10
-26.27263032905921
 20
1572.569143397558
 30
0.0
 11
-26.25876413427238
 21
1573.379841874239
 31
0.0
  0
LINE
  5
229
330
39
100
AcDbEntity
  8
0
  6
Continuous
 62
     7
100
AcDbLine
 10
7.61606817938184
 20
1573.176827021032
 30
0.0
 11
7.58633739667528
 21
1573.028888721224
 31
0.0
  0
LINE
  5
22A
330
39
100
AcDbEntity
  8
0
  6
Continuous
 62
     7
100
AcDbLine
 10
7.58633739667528
 20
1573.028888721224
 30
0.0
 11
7.56216777333805
 21
1572.873483575096
 31
0.0
  0
LINE
  5
22B
330
39
100
AcDbEntity
  8
0
  6
Continuous
 62
     7
100
AcDbLine
 10
7.56216777333805
 20
1572.873483575096
 30
0.0
 11
7.33359346526026
 21
1572.418778410683
 31
0.0
  0
LINE
  5
22C
330
39
100
AcDbEntity
  8
0
  6
Continuous
 62
     7
100
AcDbLine
 10
7.33359346526026
 20
1572.418778410683
 30
0.0
 11
7.31378660054224
 21
1572.402496365658
 31
0.0
  0
LINE
  5
22D
330
39
100
AcDbEntity
  8
0
  6
Continuous
 62
     7
100
AcDbLine
 10
7.31378660054224
 20
1572.402496365658
 30
0.0
 11
7.02427755411429
 21
1572.226168226007
 31
0.0
  0
LINE
  5
22E
330
39
100
AcDbEntity
  8
0
  6
Continuous
 62
     7
100
AcDbLine
 10
7.02427755411429
 20
1572.226168226007
 30
0.0
 11
6.99063826633835
 21
1572.190816800026
 31
0.0
  0
LINE
  5
22F
330
39
100
AcDbEntity
  8
0
  6
Continuous
 62
     7
100
AcDbLine
 10
6.99063826633835
 20
1572.190816800026
 30
0.0
 11
6.81213447307061
 21
1572.097568634696
 31
0.0
  0
LINE
  5
230
330
39
100
AcDbEntity
  8
0
  6
Continuous
 62
     7
100
AcDbLine
 10
7.61606817938184
 20
1573.176827021032
 30
0.0
 11
7.62484323554668
 21
1573.68986789309
 31
0.0
  0
LINE
  5
231
330
39
100
AcDbEntity
  8
0
  6
Continuous
 62
     7
100
AcDbLine
 10
6.81213447307061
 20
1572.097568634696
 30
0.0
 11
-6.88044710118913
 21
1567.244203460424
 31
0.0
  0
LINE
  5
232
330
39
100
AcDbEntity
  8
0
  6
Continuous
 62
     7
100
AcDbLine
 10
-8.13935417225741
 20
1567.221635171131
 30
0.0
 11
-25.35518714266937
 21
1571.520744748695
 31
0.0
  0
LINE
  5
233
330
39
100
AcDbEntity
  8
0
  6
Continuous
 62
     7
100
AcDbLine
 10
-25.35518714266937
 20
1571.520744748695
 30
0.0
 11
-25.41004177485627
 21
1571.540670411792
 31
0.0
  0
LINE
  5
234
330
39
100
AcDbEntity
  8
0
  6
Continuous
 62
     7
100
AcDbLine
 10
-25.41004177485627
 20
1571.540670411792
 30
0.0
 11
-25.68777427383566
 21
1571.674899211754
 31
0.0
  0
LINE
  5
235
330
39
100
AcDbEntity
  8
0
  6
Continuous
 62
     7
100
AcDbLine
 10
-25.68777427383566
 20
1571.674899211754
 30
0.0
 11
-25.80907839383508
 21
1571.768646185159
 31
0.0
  0
LINE
  5
236
330
39
100
AcDbEntity
  8
0
  6
Continuous
 62
     7
100
AcDbLine
 10
-25.80907839383508
 20
1571.768646185159
 30
0.0
 11
-25.99379679576009
 21
1571.905915674553
 31
0.0
  0
LINE
  5
237
330
39
100
AcDbEntity
  8
0
  6
Continuous
 62
     7
100
AcDbLine
 10
-25.99379679576009
 20
1571.905915674553
 30
0.0
 11
-26.05567580061177
 21
1572.006483030981
 31
0.0
  0
LINE
  5
238
330
39
100
AcDbEntity
  8
0
  6
Continuous
 62
     7
100
AcDbLine
 10
-26.05567580061177
 20
1572.006483030981
 30
0.0
 11
-26.19171712637694
 21
1572.235690270631
 31
0.0
  0
LINE
  5
239
330
39
100
AcDbEntity
  8
0
  6
Continuous
 62
     7
100
AcDbLine
 10
-26.19171712637694
 20
1572.235690270631
 30
0.0
 11
-26.22608425873113
 21
1572.325142954822
 31
0.0
  0
LINE
  5
23A
330
39
100
AcDbEntity
  8
0
  6
Continuous
 62
     7
100
AcDbLine
 10
-26.22608425873113
 20
1572.325142954822
 30
0.0
 11
-26.24408224937849
 21
1572.368787298875
 31
0.0
  0
LINE
  5
23B
330
39
100
AcDbEntity
  8
0
  6
Continuous
 62
     7
100
AcDbLine
 10
-26.24408224937849
 20
1572.368787298875
 30
0.0
 11
-26.2541495420262
 21
1572.555555610285
 31
0.0
  0
LINE
  5
23C
330
39
100
AcDbEntity
  8
0
  6
Continuous
 62
     7
100
AcDbLine
 10
-26.2541495420262
 20
1572.555555610285
 30
0.0
 11
-26.27263032905921
 21
1572.569143397558
 31
0.0
  0
LINE
  5
23D
330
39
100
AcDbEntity
  8
0
  6
Continuous
 62
     7
100
AcDbLine
 10
-6.88658829291751
 20
1567.251845125978
 30
0.0
 11
-6.98061875021256
 21
1567.22080093915
 31
0.0
  0
LINE
  5
23E
330
39
100
AcDbEntity
  8
0
  6
Continuous
 62
     7
100
AcDbLine
 10
-6.98061875021256
 20
1567.22080093915
 30
0.0
 11
-7.04718296844999
 21
1567.205257257872
 31
0.0
  0
LINE
  5
23F
330
39
100
AcDbEntity
  8
0
  6
Continuous
 62
     7
100
AcDbLine
 10
-7.04718296844999
 20
1567.205257257872
 30
0.0
 11
-7.15475326988906
 21
1567.192312755337
 31
0.0
  0
LINE
  5
240
330
39
100
AcDbEntity
  8
0
  6
Continuous
 62
     7
100
AcDbLine
 10
-7.15475326988906
 20
1567.192312755337
 30
0.0
 11
-7.17998824386245
 21
1567.18641022602
 31
0.0
  0
LINE
  5
241
330
39
100
AcDbEntity
  8
0
  6
Continuous
 62
     7
100
AcDbLine
 10
-7.17998824386245
 20
1567.18641022602
 30
0.0
 11
-7.2114270929759
 21
1567.183942212927
 31
0.0
  0
LINE
  5
242
330
39
100
AcDbEntity
  8
0
  6
Continuous
 62
     7
100
AcDbLine
 10
-7.2114270929759
 20
1567.183942212927
 30
0.0
 11
-7.49240103556247
 21
1567.1658383473
 31
0.0
  0
LINE
  5
243
330
39
100
AcDbEntity
  8
0
  6
Continuous
 62
     7
100
AcDbLine
 10
-7.49240103556247
 20
1567.1658383473
 30
0.0
 11
-7.80243638373543
 21
1567.177467925302
 31
0.0
  0
LINE
  5
244
330
39
100
AcDbEntity
  8
0
  6
Continuous
 62
     7
100
AcDbLine
 10
-7.80243638373543
 20
1567.177467925302
 30
0.0
 11
-7.8444965108082
 21
1567.184501646676
 31
0.0
  0
LINE
  5
245
330
39
100
AcDbEntity
  8
0
  6
Continuous
 62
     7
100
AcDbLine
 10
-7.8444965108082
 20
1567.184501646676
 30
0.0
 11
-7.89299088808878
 21
1567.183563816415
 31
0.0
  0
LINE
  5
246
330
39
100
AcDbEntity
  8
0
  6
Continuous
 62
     7
100
AcDbLine
 10
-7.89299088808878
 20
1567.183563816415
 30
0.0
 11
-8.13935417225741
 21
1567.221635171131
 31
0.0
  0
LINE
  5
247
330
39
100
AcDbEntity
  8
0
  6
Continuous
 62
     7
100
AcDbLine
 10
-6.88044710118913
 20
1567.244203460424
 30
0.0
 11
-6.88658829291751
 21
1567.251845125978
 31
0.0
  0
LINE
  5
248
330
39
100
AcDbEntity
  8
0
  6
Continuous
 62
     3
100
AcDbLine
 10
735.312076408915
 20
1391.2735113368
 30
0.0
 11
735.0441627451579
 21
1391.124557564957
 31
0.0
  0
LINE
  5
249
330
39
100
AcDbEntity
  8
0
  6
Continuous
 62
     3
100
AcDbLine
 10
735.0441627451579
 20
1391.124557564957
 30
0.0
 11
735.0562179632119
 21
1391.829625964139
 31
0.0
  0
LINE
  5
24A
330
39
100
AcDbEntity
  8
0
  6
Continuous
 62
     3
100
AcDbLine
 10
735.0441627451579
 20
1391.124557564957
 30
0.0
 11
721.3515679826229
 21
1386.271203904551
 31
0.0
  0
LINE
  5
24B
330
39
100
AcDbEntity
  8
0
  6
Continuous
 62
     3
100
AcDbLine
 10
702.0283833304899
 20
1390.532531698941
 30
0.0
 11
719.244174798488
 21
1386.233423597528
 31
0.0
  0
LINE
  5
24C
330
39
100
AcDbEntity
  8
0
  6
Continuous
 62
     3
100
AcDbLine
 10
702.0283833304899
 20
1390.532531698941
 30
0.0
 11
702.044833317089
 21
1391.49462683252
 31
0.0
  0
LINE
  5
24D
330
39
100
AcDbEntity
  8
0
  6
Continuous
 62
     3
100
AcDbLine
 10
719.244174798488
 20
1386.233423597528
 30
0.0
 11
719.2608717611698
 21
1387.209798699993
 31
0.0
  0
LINE
  5
24E
330
39
100
AcDbEntity
  8
0
  6
Continuous
 62
     3
100
AcDbLine
 10
721.3515679826229
 20
1386.271203904551
 30
0.0
 11
721.366421502118
 21
1387.139781435449
 31
0.0
  0
LINE
  5
24F
330
39
100
AcDbEntity
  8
0
  6
Continuous
 62
     7
100
AcDbLine
 10
721.059522124422
 20
1385.60897816885
 30
0.0
 11
720.8639770729559
 21
1385.511777081413
 31
0.0
  0
LINE
  5
250
330
39
100
AcDbEntity
  8
0
  6
Continuous
 62
     7
100
AcDbLine
 10
701.4718155664608
 20
1390.836732737585
 30
0.0
 11
701.4854570487479
 21
1391.634453594146
 31
0.0
  0
LINE
  5
251
330
39
100
AcDbEntity
  8
0
  6
Continuous
 62
     7
100
AcDbLine
 10
735.3605033529969
 20
1391.444412916497
 30
0.0
 11
735.3307736979908
 21
1391.296490925357
 31
0.0
  0
LINE
  5
252
330
39
100
AcDbEntity
  8
0
  6
Continuous
 62
     7
100
AcDbLine
 10
735.3307736979908
 20
1391.296490925357
 30
0.0
 11
735.306583710406
 21
1391.141046181302
 31
0.0
  0
LINE
  5
253
330
39
100
AcDbEntity
  8
0
  6
Continuous
 62
     7
100
AcDbLine
 10
735.306583710406
 20
1391.141046181302
 30
0.0
 11
735.078007147714
 21
1390.68636450151
 31
0.0
  0
LINE
  5
254
330
39
100
AcDbEntity
  8
0
  6
Continuous
 62
     7
100
AcDbLine
 10
735.078007147714
 20
1390.68636450151
 30
0.0
 11
735.0582146647809
 21
1390.670087555007
 31
0.0
  0
LINE
  5
255
330
39
100
AcDbEntity
  8
0
  6
Continuous
 62
     7
100
AcDbLine
 10
735.0582146647809
 20
1390.670087555007
 30
0.0
 11
734.7686876411218
 21
1390.493753042204
 31
0.0
  0
LINE
  5
256
330
39
100
AcDbEntity
  8
0
  6
Continuous
 62
     7
100
AcDbLine
 10
734.7686876411218
 20
1390.493753042204
 30
0.0
 11
734.7350876086058
 21
1390.458399343429
 31
0.0
  0
LINE
  5
257
330
39
100
AcDbEntity
  8
0
  6
Continuous
 62
     7
100
AcDbLine
 10
734.7350876086058
 20
1390.458399343429
 30
0.0
 11
734.556560739586
 21
1390.36515918673
 31
0.0
  0
LINE
  5
258
330
39
100
AcDbEntity
  8
0
  6
Continuous
 62
     7
100
AcDbLine
 10
735.3605033529969
 20
1391.444412916497
 30
0.0
 11
735.368987409477
 21
1391.940486469526
 31
0.0
  0
LINE
  5
259
330
39
100
AcDbEntity
  8
0
  6
Continuous
 62
     7
100
AcDbLine
 10
734.556560739586
 20
1390.36515918673
 30
0.0
 11
720.8639770729559
 21
1385.511777081413
 31
0.0
  0
LINE
  5
25A
330
39
100
AcDbEntity
  8
0
  6
Continuous
 62
     7
100
AcDbLine
 10
719.6050476776728
 20
1385.489208972545
 30
0.0
 11
702.3892457879159
 21
1389.788345757862
 31
0.0
  0
LINE
  5
25B
330
39
100
AcDbEntity
  8
0
  6
Continuous
 62
     7
100
AcDbLine
 10
702.3892457879159
 20
1389.788345757862
 30
0.0
 11
702.334397223044
 21
1389.808273571897
 31
0.0
  0
LINE
  5
25C
330
39
100
AcDbEntity
  8
0
  6
Continuous
 62
     7
100
AcDbLine
 10
702.334397223044
 20
1389.808273571897
 30
0.0
 11
702.0566293738178
 21
1389.942473650483
 31
0.0
  0
LINE
  5
25D
330
39
100
AcDbEntity
  8
0
  6
Continuous
 62
     7
100
AcDbLine
 10
702.0566293738178
 20
1389.942473650483
 30
0.0
 11
701.9353723741168
 21
1390.036221139346
 31
0.0
  0
LINE
  5
25E
330
39
100
AcDbEntity
  8
0
  6
Continuous
 62
     7
100
AcDbLine
 10
701.9353723741168
 20
1390.036221139346
 30
0.0
 11
701.750597259064
 21
1390.173502901778
 31
0.0
  0
LINE
  5
25F
330
39
100
AcDbEntity
  8
0
  6
Continuous
 62
     7
100
AcDbLine
 10
701.750597259064
 20
1390.173502901778
 30
0.0
 11
701.6887705429639
 21
1390.274072605946
 31
0.0
  0
LINE
  5
260
330
39
100
AcDbEntity
  8
0
  6
Continuous
 62
     7
100
AcDbLine
 10
701.6887705429639
 20
1390.274072605946
 30
0.0
 11
701.552723079952
 21
1390.503261480591
 31
0.0
  0
LINE
  5
261
330
39
100
AcDbEntity
  8
0
  6
Continuous
 62
     7
100
AcDbLine
 10
701.552723079952
 20
1390.503261480591
 30
0.0
 11
701.51833136877
 21
1390.592737829829
 31
0.0
  0
LINE
  5
262
330
39
100
AcDbEntity
  8
0
  6
Continuous
 62
     7
100
AcDbLine
 10
701.51833136877
 20
1390.592737829829
 30
0.0
 11
701.50035584966
 21
1390.636390140323
 31
0.0
  0
LINE
  5
263
330
39
100
AcDbEntity
  8
0
  6
Continuous
 62
     7
100
AcDbLine
 10
701.50035584966
 20
1390.636390140323
 30
0.0
 11
701.4902496113199
 21
1390.823128455726
 31
0.0
  0
LINE
  5
264
330
39
100
AcDbEntity
  8
0
  6
Continuous
 62
     7
100
AcDbLine
 10
701.4902496113199
 20
1390.823128455726
 30
0.0
 11
701.4718155664608
 21
1390.836732737585
 31
0.0
  0
LINE
  5
265
330
39
100
AcDbEntity
  8
0
  6
Continuous
 62
     7
100
AcDbLine
 10
720.8578102562138
 20
1385.519433946491
 30
0.0
 11
720.7637865478408
 21
1385.488367868329
 31
0.0
  0
LINE
  5
266
330
39
100
AcDbEntity
  8
0
  6
Continuous
 62
     7
100
AcDbLine
 10
720.7637865478408
 20
1385.488367868329
 30
0.0
 11
720.6972458473259
 21
1385.472840619014
 31
0.0
  0
LINE
  5
267
330
39
100
AcDbEntity
  8
0
  6
Continuous
 62
     7
100
AcDbLine
 10
720.6972458473259
 20
1385.472840619014
 30
0.0
 11
720.5896422880109
 21
1385.459884326147
 31
0.0
  0
LINE
  5
268
330
39
100
AcDbEntity
  8
0
  6
Continuous
 62
     7
100
AcDbLine
 10
720.5896422880109
 20
1385.459884326147
 30
0.0
 11
720.5644459650829
 21
1385.453995499107
 31
0.0
  0
LINE
  5
269
330
39
100
AcDbEntity
  8
0
  6
Continuous
 62
     7
100
AcDbLine
 10
720.5644459650829
 20
1385.453995499107
 30
0.0
 11
720.5330017227999
 21
1385.451525574069
 31
0.0
  0
LINE
  5
26A
330
39
100
AcDbEntity
  8
0
  6
Continuous
 62
     7
100
AcDbLine
 10
720.5330017227999
 20
1385.451525574069
 30
0.0
 11
720.2520303294749
 21
1385.433414517549
 31
0.0
  0
LINE
  5
26B
330
39
100
AcDbEntity
  8
0
  6
Continuous
 62
     7
100
AcDbLine
 10
720.2520303294749
 20
1385.433414517549
 30
0.0
 11
719.9419897354559
 21
1385.445050330471
 31
0.0
  0
LINE
  5
26C
330
39
100
AcDbEntity
  8
0
  6
Continuous
 62
     7
100
AcDbLine
 10
719.9419897354559
 20
1385.445050330471
 30
0.0
 11
719.8999288568449
 21
1385.452091880052
 31
0.0
  0
LINE
  5
26D
330
39
100
AcDbEntity
  8
0
  6
Continuous
 62
     7
100
AcDbLine
 10
719.8999288568449
 20
1385.452091880052
 30
0.0
 11
719.8514066148579
 21
1385.451144171406
 31
0.0
  0
LINE
  5
26E
330
39
100
AcDbEntity
  8
0
  6
Continuous
 62
     7
100
AcDbLine
 10
719.8514066148579
 20
1385.451144171406
 30
0.0
 11
719.6050476776728
 21
1385.489208972545
 31
0.0
  0
LINE
  5
26F
330
39
100
AcDbEntity
  8
0
  6
Continuous
 62
     7
100
AcDbLine
 10
720.8639770729559
 20
1385.511777081413
 30
0.0
 11
720.8578102562138
 21
1385.519433946491
 31
0.0
  0
LINE
  5
270
330
39
100
AcDbEntity
  8
0
  6
Continuous
 62
     3
100
AcDbLine
 10
1245.674679496234
 20
1572.172655477571
 30
0.0
 11
1245.40673586048
 21
1572.023723458829
 31
0.0
  0
LINE
  5
271
330
39
100
AcDbEntity
  8
0
  6
Continuous
 62
     3
100
AcDbLine
 10
1245.40673586048
 20
1572.023723458829
 30
0.0
 11
1245.418812902028
 21
1572.72981762068
 31
0.0
  0
LINE
  5
272
330
39
100
AcDbEntity
  8
0
  6
Continuous
 62
     3
100
AcDbLine
 10
1245.40673586048
 20
1572.023723458829
 30
0.0
 11
1231.714159384742
 21
1567.170343902773
 31
0.0
  0
LINE
  5
273
330
39
100
AcDbEntity
  8
0
  6
Continuous
 62
     3
100
AcDbLine
 10
1212.390978467919
 20
1571.431705399925
 30
0.0
 11
1229.606759009715
 21
1567.132561046489
 31
0.0
  0
LINE
  5
274
330
39
100
AcDbEntity
  8
0
  6
Continuous
 62
     3
100
AcDbLine
 10
1212.390978467919
 20
1571.431705399925
 30
0.0
 11
1212.407458146903
 21
1572.395203378593
 31
0.0
  0
LINE
  5
275
330
39
100
AcDbEntity
  8
0
  6
Continuous
 62
     3
100
AcDbLine
 10
1229.606759009715
 20
1567.132561046489
 30
0.0
 11
1229.623485732162
 21
1568.110502624293
 31
0.0
  0
LINE
  5
276
330
39
100
AcDbEntity
  8
0
  6
Continuous
 62
     3
100
AcDbLine
 10
1231.714159384742
 20
1567.170343902773
 30
0.0
 11
1231.729036913035
 21
1568.040170824253
 31
0.0
  0
LINE
  5
277
330
39
100
AcDbEntity
  8
0
  6
Continuous
 62
     7
100
AcDbLine
 10
1231.422115913559
 20
1566.508151391847
 30
0.0
 11
1231.226569373936
 21
1566.410917398293
 31
0.0
  0
LINE
  5
278
330
39
100
AcDbEntity
  8
0
  6
Continuous
 62
     7
100
AcDbLine
 10
1211.834441123942
 20
1571.735884920406
 30
0.0
 11
1211.848097569853
 21
1572.535019173384
 31
0.0
  0
LINE
  5
279
330
39
100
AcDbEntity
  8
0
  6
Continuous
 62
     7
100
AcDbLine
 10
1245.723082105246
 20
1572.343548149793
 30
0.0
 11
1245.693403751155
 21
1572.195644625856
 31
0.0
  0
LINE
  5
27A
330
39
100
AcDbEntity
  8
0
  6
Continuous
 62
     7
100
AcDbLine
 10
1245.693403751155
 20
1572.195644625856
 30
0.0
 11
1245.669176600681
 21
1572.040219085641
 31
0.0
  0
LINE
  5
27B
330
39
100
AcDbEntity
  8
0
  6
Continuous
 62
     7
100
AcDbLine
 10
1245.669176600681
 20
1572.040219085641
 30
0.0
 11
1245.440604841864
 21
1571.585506730335
 31
0.0
  0
LINE
  5
27C
330
39
100
AcDbEntity
  8
0
  6
Continuous
 62
     7
100
AcDbLine
 10
1245.440604841864
 20
1571.585506730335
 30
0.0
 11
1245.420797977146
 21
1571.569224685311
 31
0.0
  0
LINE
  5
27D
330
39
100
AcDbEntity
  8
0
  6
Continuous
 62
     7
100
AcDbLine
 10
1245.420797977146
 20
1571.569224685311
 30
0.0
 11
1245.131288930718
 21
1571.392896545659
 31
0.0
  0
LINE
  5
27E
330
39
100
AcDbEntity
  8
0
  6
Continuous
 62
     7
100
AcDbLine
 10
1245.131288930718
 20
1571.392896545659
 30
0.0
 11
1245.097702071557
 21
1571.357579895551
 31
0.0
  0
LINE
  5
27F
330
39
100
AcDbEntity
  8
0
  6
Continuous
 62
     7
100
AcDbLine
 10
1245.097702071557
 20
1571.357579895551
 30
0.0
 11
1244.919145849674
 21
1571.264296954348
 31
0.0
  0
LINE
  5
280
330
39
100
AcDbEntity
  8
0
  6
Continuous
 62
     7
100
AcDbLine
 10
1245.723082105246
 20
1572.343548149793
 30
0.0
 11
1245.731585070294
 21
1572.840680991015
 31
0.0
  0
LINE
  5
281
330
39
100
AcDbEntity
  8
0
  6
Continuous
 62
     7
100
AcDbLine
 10
1244.919145849674
 20
1571.264296954348
 30
0.0
 11
1231.226569373936
 21
1566.410917398293
 31
0.0
  0
LINE
  5
282
330
39
100
AcDbEntity
  8
0
  6
Continuous
 62
     7
100
AcDbLine
 10
1229.967659756935
 20
1566.38835631217
 30
0.0
 11
1212.751821684673
 21
1570.68748025924
 31
0.0
  0
LINE
  5
283
330
39
100
AcDbEntity
  8
0
  6
Continuous
 62
     7
100
AcDbLine
 10
1212.751821684673
 20
1570.68748025924
 30
0.0
 11
1212.697024579623
 21
1570.707426316424
 31
0.0
  0
LINE
  5
284
330
39
100
AcDbEntity
  8
0
  6
Continuous
 62
     7
100
AcDbLine
 10
1212.697024579623
 20
1570.707426316424
 30
0.0
 11
1212.419229454985
 21
1570.841649104083
 31
0.0
  0
LINE
  5
285
330
39
100
AcDbEntity
  8
0
  6
Continuous
 62
     7
100
AcDbLine
 10
1212.419229454985
 20
1570.841649104083
 30
0.0
 11
1212.297987960645
 21
1570.93540208979
 31
0.0
  0
LINE
  5
286
330
39
100
AcDbEntity
  8
0
  6
Continuous
 62
     7
100
AcDbLine
 10
1212.297987960645
 20
1570.93540208979
 30
0.0
 11
1212.113212031583
 21
1571.072651185098
 31
0.0
  0
LINE
  5
287
330
39
100
AcDbEntity
  8
0
  6
Continuous
 62
     7
100
AcDbLine
 10
1212.113212031583
 20
1571.072651185098
 30
0.0
 11
1212.05139565239
 21
1571.173224553829
 31
0.0
  0
LINE
  5
288
330
39
100
AcDbEntity
  8
0
  6
Continuous
 62
     7
100
AcDbLine
 10
1212.05139565239
 20
1571.173224553829
 30
0.0
 11
1211.915291700966
 21
1571.402425781176
 31
0.0
  0
LINE
  5
289
330
39
100
AcDbEntity
  8
0
  6
Continuous
 62
     7
100
AcDbLine
 10
1211.915291700966
 20
1571.402425781176
 30
0.0
 11
1211.880924568611
 21
1571.491878465366
 31
0.0
  0
LINE
  5
28A
330
39
100
AcDbEntity
  8
0
  6
Continuous
 62
     7
100
AcDbLine
 10
1211.880924568611
 20
1571.491878465366
 30
0.0
 11
1211.862984105101
 21
1571.535543203507
 31
0.0
  0
LINE
  5
28B
330
39
100
AcDbEntity
  8
0
  6
Continuous
 62
     7
100
AcDbLine
 10
1211.862984105101
 20
1571.535543203507
 30
0.0
 11
1211.852864383838
 21
1571.722276739046
 31
0.0
  0
LINE
  5
28C
330
39
100
AcDbEntity
  8
0
  6
Continuous
 62
     7
100
AcDbLine
 10
1211.852864383838
 20
1571.722276739046
 30
0.0
 11
1211.834441123942
 21
1571.735884920406
 31
0.0
  0
LINE
  5
28D
330
39
100
AcDbEntity
  8
0
  6
Continuous
 62
     7
100
AcDbLine
 10
1231.220420534425
 20
1566.418580636523
 30
0.0
 11
1231.126387527869
 21
1566.387543640587
 31
0.0
  0
LINE
  5
28E
330
39
100
AcDbEntity
  8
0
  6
Continuous
 62
     7
100
AcDbLine
 10
1231.126387527869
 20
1566.387543640587
 30
0.0
 11
1231.059830957414
 21
1566.371978386633
 31
0.0
  0
LINE
  5
28F
330
39
100
AcDbEntity
  8
0
  6
Continuous
 62
     7
100
AcDbLine
 10
1231.059830957414
 20
1566.371978386633
 30
0.0
 11
1230.952260655975
 21
1566.359033884098
 31
0.0
  0
LINE
  5
290
330
39
100
AcDbEntity
  8
0
  6
Continuous
 62
     7
100
AcDbLine
 10
1230.952260655975
 20
1566.359033884098
 30
0.0
 11
1230.927025682002
 21
1566.35313135478
 31
0.0
  0
LINE
  5
291
330
39
100
AcDbEntity
  8
0
  6
Continuous
 62
     7
100
AcDbLine
 10
1230.927025682002
 20
1566.35313135478
 30
0.0
 11
1230.895586832889
 21
1566.350663341687
 31
0.0
  0
LINE
  5
292
330
39
100
AcDbEntity
  8
0
  6
Continuous
 62
     7
100
AcDbLine
 10
1230.895586832889
 20
1566.350663341687
 30
0.0
 11
1230.614605242519
 21
1566.332581048737
 31
0.0
  0
LINE
  5
293
330
39
100
AcDbEntity
  8
0
  6
Continuous
 62
     7
100
AcDbLine
 10
1230.614605242519
 20
1566.332581048737
 30
0.0
 11
1230.304577542129
 21
1566.344189054063
 31
0.0
  0
LINE
  5
294
330
39
100
AcDbEntity
  8
0
  6
Continuous
 62
     7
100
AcDbLine
 10
1230.304577542129
 20
1566.344189054063
 30
0.0
 11
1230.262514865795
 21
1566.351229966329
 31
0.0
  0
LINE
  5
295
330
39
100
AcDbEntity
  8
0
  6
Continuous
 62
     7
100
AcDbLine
 10
1230.262514865795
 20
1566.351229966329
 30
0.0
 11
1230.214020488515
 21
1566.350292136068
 31
0.0
  0
LINE
  5
296
330
39
100
AcDbEntity
  8
0
  6
Continuous
 62
     7
100
AcDbLine
 10
1230.214020488515
 20
1566.350292136068
 30
0.0
 11
1229.967659756935
 21
1566.38835631217
 31
0.0
  0
LINE
  5
297
330
39
100
AcDbEntity
  8
0
  6
Continuous
 62
     7
100
AcDbLine
 10
1231.226569373936
 20
1566.410917398293
 30
0.0
 11
1231.220420534425
 21
1566.418580636523
 31
0.0
  0
LINE
  5
298
330
39
100
AcDbEntity
  8
0
  6
Continuous
 62
     7
100
AcDbLine
 10
-6.04850324764163
 20
1700.887345042018
 30
0.0
 11
682.5830104796158
 21
1528.921917280987
 31
0.0
  0
LINE
  5
299
330
39
100
AcDbEntity
  8
0
  6
Continuous
 62
     7
100
AcDbLine
 10
-6.04850324764163
 20
1700.887345042018
 30
0.0
 11
-5.98774490037579
 21
1704.440571855392
 31
0.0
  0
LINE
  5
29A
330
39
100
AcDbEntity
  8
0
  6
Continuous
 62
     7
100
AcDbLine
 10
682.5830104796158
 20
1528.921917280987
 30
0.0
 11
688.7520852510148
 21
1531.10856848601
 31
0.0
  0
LINE
  5
29B
330
39
100
AcDbEntity
  8
0
  6
Continuous
 62
     7
100
AcDbLine
 10
682.6437691499829
 20
1532.475132406267
 30
0.0
 11
682.5830104796158
 21
1528.921917280987
 31
0.0
  0
LINE
  5
29C
330
39
100
AcDbEntity
  8
0
  6
Continuous
 62
     3
100
AcDbLine
 10
1250.762018028806
 20
1714.70644543197
 30
0.0
 11
1250.762000031311
 21
1714.705402862689
 31
0.0
  0
LINE
  5
29D
330
39
100
AcDbEntity
  8
0
  6
Continuous
 62
     3
100
AcDbLine
 10
1250.762000031311
 20
1714.705402862689
 30
0.0
 11
1248.328933646368
 21
1573.761322121816
 31
0.0
  0
LINE
  5
29E
330
39
100
AcDbEntity
  8
0
  6
Continuous
 62
     3
100
AcDbLine
 10
1211.462825268062
 20
1675.564592235618
 30
0.0
 11
1209.693565836413
 21
1573.07355841989
 31
0.0
  0
LINE
  5
29F
330
39
100
AcDbEntity
  8
0
  6
Continuous
 62
     7
100
AcDbLine
 10
1234.78986649287
 20
1685.302483849095
 30
0.0
 11
1234.415004258697
 21
1684.701833826884
 31
0.0
  0
LINE
  5
2A0
330
39
100
AcDbEntity
  8
0
  6
Continuous
 62
     7
100
AcDbLine
 10
1234.415004258697
 20
1684.701833826884
 30
0.0
 11
1233.971066335973
 21
1684.148802637676
 31
0.0
  0
LINE
  5
2A1
330
39
100
AcDbEntity
  8
0
  6
Continuous
 62
     7
100
AcDbLine
 10
1233.971066335973
 20
1684.148802637676
 30
0.0
 11
1233.477386403985
 21
1683.667583023994
 31
0.0
  0
LINE
  5
2A2
330
39
100
AcDbEntity
  8
0
  6
Continuous
 62
     7
100
AcDbLine
 10
1233.477386403985
 20
1683.667583023994
 30
0.0
 11
1232.955540536754
 21
1683.279147745333
 31
0.0
  0
LINE
  5
2A3
330
39
100
AcDbEntity
  8
0
  6
Continuous
 62
     7
100
AcDbLine
 10
1232.955540536754
 20
1683.279147745333
 30
0.0
 11
1232.428501803267
 21
1683.000528952299
 31
0.0
  0
LINE
  5
2A4
330
39
100
AcDbEntity
  8
0
  6
Continuous
 62
     7
100
AcDbLine
 10
1232.428501803267
 20
1683.000528952299
 30
0.0
 11
1231.919016423802
 21
1682.843918728298
 31
0.0
  0
LINE
  5
2A5
330
39
100
AcDbEntity
  8
0
  6
Continuous
 62
     7
100
AcDbLine
 10
1231.919016423802
 20
1682.843918728298
 30
0.0
 11
1231.449541912593
 21
1682.816112914317
 31
0.0
  0
LINE
  5
2A6
330
39
100
AcDbEntity
  8
0
  6
Continuous
 62
     7
100
AcDbLine
 10
1231.449541912593
 20
1682.816112914317
 30
0.0
 11
1231.236327356526
 21
1682.851098436855
 31
0.0
  0
LINE
  5
2A7
330
39
100
AcDbEntity
  8
0
  6
Continuous
 62
     7
100
AcDbLine
 10
1250.402862158234
 20
1718.135838897392
 30
0.0
 11
1250.598623132673
 21
1718.068617321079
 31
0.0
  0
LINE
  5
2A8
330
39
100
AcDbEntity
  8
0
  6
Continuous
 62
     7
100
AcDbLine
 10
1251.167066527781
 20
1717.497407361509
 30
0.0
 11
1251.174992007078
 21
1717.471265886946
 31
0.0
  0
LINE
  5
2A9
330
39
100
AcDbEntity
  8
0
  6
Continuous
 62
     7
100
AcDbLine
 10
1251.294728240237
 20
1717.076326782827
 30
0.0
 11
1251.301684574551
 21
1717.053381945082
 31
0.0
  0
LINE
  5
2AA
330
39
100
AcDbEntity
  8
0
  6
Continuous
 62
     7
100
AcDbLine
 10
1250.598623132673
 20
1718.068617321079
 30
0.0
 11
1250.625235052473
 21
1718.050283222383
 31
0.0
  0
LINE
  5
2AB
330
39
100
AcDbEntity
  8
0
  6
Continuous
 62
     7
100
AcDbLine
 10
1250.904116569614
 20
1717.858149723624
 30
0.0
 11
1250.929280051112
 21
1717.840813516511
 31
0.0
  0
LINE
  5
2AC
330
39
100
AcDbEntity
  8
0
  6
Continuous
 62
     7
100
AcDbLine
 10
1250.929280051112
 20
1717.840813516511
 30
0.0
 11
1250.946190858733
 21
1717.816391289039
 31
0.0
  0
LINE
  5
2AD
330
39
100
AcDbEntity
  8
0
  6
Continuous
 62
     7
100
AcDbLine
 10
1251.151494102262
 20
1717.519896726112
 30
0.0
 11
1251.167066527781
 21
1717.497407361509
 31
0.0
  0
LINE
  5
2AE
330
39
100
AcDbEntity
  8
0
  6
Continuous
 62
     7
100
AcDbLine
 10
1251.327226261557
 20
1716.528142188073
 30
0.0
 11
1251.324751521368
 21
1716.511107653503
 31
0.0
  0
LINE
  5
2AF
330
39
100
AcDbEntity
  8
0
  6
Continuous
 62
     7
100
AcDbLine
 10
1251.243941531898
 20
1715.954863177824
 30
0.0
 11
1251.242464332938
 21
1715.944695081451
 31
0.0
  0
LINE
  5
2B0
330
39
100
AcDbEntity
  8
0
  6
Continuous
 62
     7
100
AcDbLine
 10
1251.301684574551
 20
1717.053381945082
 30
0.0
 11
1251.302808934097
 21
1717.030260593121
 31
0.0
  0
LINE
  5
2B1
330
39
100
AcDbEntity
  8
0
  6
Continuous
 62
     7
100
AcDbLine
 10
1251.3262587515
 20
1716.548038084041
 30
0.0
 11
1251.327226261557
 21
1716.528142188073
 31
0.0
  0
LINE
  5
2B2
330
39
100
AcDbEntity
  8
0
  6
Continuous
 62
     7
100
AcDbLine
 10
1251.242464332938
 20
1715.944695081451
 30
0.0
 11
1251.240896346229
 21
1715.939641408728
 31
0.0
  0
LINE
  5
2B3
330
39
100
AcDbEntity
  8
0
  6
Continuous
 62
     7
100
AcDbLine
 10
1251.240896346229
 20
1715.939641408728
 30
0.0
 11
1251.051270285623
 21
1715.328470380006
 31
0.0
  0
LINE
  5
2B4
330
39
100
AcDbEntity
  8
0
  6
Continuous
 62
     7
100
AcDbLine
 10
1251.051270285623
 20
1715.328470380006
 30
0.0
 11
1250.762018028806
 21
1714.70644543197
 31
0.0
  0
LINE
  5
2B5
330
39
100
AcDbEntity
  8
0
  6
Continuous
 62
     7
100
AcDbLine
 10
1250.402862158234
 20
1718.135838897392
 30
0.0
 11
1231.112721785872
 21
1722.957659936874
 31
0.0
  0
LINE
  5
2B6
330
39
100
AcDbEntity
  8
0
  6
Continuous
 62
     7
100
AcDbLine
 10
1234.78986649287
 20
1685.302483849095
 30
0.0
 11
1250.762018028806
 21
1714.70644543197
 31
0.0
  0
LINE
  5
2B7
330
39
100
AcDbEntity
  8
0
  6
Continuous
 62
     7
100
AcDbLine
 10
1229.256890127066
 20
1568.183578038291
 30
0.0
 11
1209.693565836413
 21
1573.07355841989
 31
0.0
  0
LINE
  5
2B8
330
39
100
AcDbEntity
  8
0
  6
Continuous
 62
     7
100
AcDbLine
 10
1248.328933646368
 20
1573.761322121816
 30
0.0
 11
1232.7691682889
 21
1568.246097970893
 31
0.0
  0
LINE
  5
2B9
330
39
100
AcDbEntity
  8
0
  6
Continuous
 62
     3
100
AcDbLine
 10
1232.7691682889
 20
1568.246097970893
 30
0.0
 11
1234.78986649287
 21
1685.302483849095
 31
0.0
  0
LINE
  5
2BA
330
39
100
AcDbEntity
  8
0
  6
Continuous
 62
     3
100
AcDbLine
 10
1229.256890127066
 20
1568.183578038291
 30
0.0
 11
1231.198931139914
 21
1680.684759758671
 31
0.0
  0
LINE
  5
2BB
330
39
100
AcDbEntity
  8
0
  6
Continuous
 62
     7
100
AcDbLine
 10
1248.869975928086
 20
1574.178903966519
 30
0.0
 11
1251.327226261557
 21
1716.528142188073
 31
0.0
  0
LINE
  5
2BC
330
39
100
AcDbEntity
  8
0
  6
Continuous
 62
     7
100
AcDbLine
 10
1208.752304783635
 20
1573.696493834312
 30
0.0
 11
1210.504859332275
 21
1675.225050290757
 31
0.0
  0
LINE
  5
2BD
330
39
100
AcDbEntity
  8
0
  6
Continuous
 62
     3
100
AcDbLine
 10
739.9859956354729
 20
1509.917339571143
 30
0.0
 11
737.9652091081049
 21
1392.860711920636
 31
0.0
  0
LINE
  5
2BE
330
39
100
AcDbEntity
  8
0
  6
Continuous
 62
     3
100
AcDbLine
 10
701.8013941190799
 20
1535.341326755831
 30
0.0
 11
699.3298190168229
 21
1392.173296483726
 31
0.0
  0
LINE
  5
2BF
330
39
100
AcDbEntity
  8
0
  6
Continuous
 62
     3
100
AcDbLine
 10
722.4054185526749
 20
1387.345575972365
 30
0.0
 11
724.8386197274318
 21
1528.290934958138
 31
0.0
  0
LINE
  5
2C0
330
39
100
AcDbEntity
  8
0
  6
Continuous
 62
     3
100
AcDbLine
 10
718.8931113177049
 20
1387.283078111521
 30
0.0
 11
721.3675599840489
 21
1530.617297797067
 31
0.0
  0
LINE
  5
2C1
330
39
100
AcDbEntity
  8
0
  6
Continuous
 62
     7
100
AcDbLine
 10
740.5027281483139
 20
1508.93075551923
 30
0.0
 11
740.433000767022
 21
1509.212288786081
 31
0.0
  0
LINE
  5
2C2
330
39
100
AcDbEntity
  8
0
  6
Continuous
 62
     7
100
AcDbLine
 10
740.433000767022
 20
1509.212288786081
 30
0.0
 11
740.2582241326139
 21
1509.546010331908
 31
0.0
  0
LINE
  5
2C3
330
39
100
AcDbEntity
  8
0
  6
Continuous
 62
     7
100
AcDbLine
 10
740.2582241326139
 20
1509.546010331908
 30
0.0
 11
739.9859956354729
 21
1509.917339571143
 31
0.0
  0
LINE
  5
2C4
330
39
100
AcDbEntity
  8
0
  6
Continuous
 62
     7
100
AcDbLine
 10
702.0773467797709
 20
1535.439139184852
 30
0.0
 11
721.3675599840489
 21
1530.617297797067
 31
0.0
  0
LINE
  5
2C5
330
39
100
AcDbEntity
  8
0
  6
Continuous
 62
     7
100
AcDbLine
 10
724.8386197274318
 20
1528.290934958138
 30
0.0
 11
739.9859956354729
 21
1509.917339571143
 31
0.0
  0
LINE
  5
2C6
330
39
100
AcDbEntity
  8
0
  6
Continuous
 62
     7
100
AcDbLine
 10
724.8386197274318
 20
1528.290934958138
 30
0.0
 11
724.4809916163698
 21
1528.683616564015
 31
0.0
  0
LINE
  5
2C7
330
39
100
AcDbEntity
  8
0
  6
Continuous
 62
     7
100
AcDbLine
 10
724.4809916163698
 20
1528.683616564015
 30
0.0
 11
724.0534423429839
 21
1529.080521425036
 31
0.0
  0
LINE
  5
2C8
330
39
100
AcDbEntity
  8
0
  6
Continuous
 62
     7
100
AcDbLine
 10
724.0534423429839
 20
1529.080521425036
 30
0.0
 11
723.574680990267
 21
1529.464289640526
 31
0.0
  0
LINE
  5
2C9
330
39
100
AcDbEntity
  8
0
  6
Continuous
 62
     7
100
AcDbLine
 10
723.574680990267
 20
1529.464289640526
 30
0.0
 11
723.065672548653
 21
1529.818150596554
 31
0.0
  0
LINE
  5
2CA
330
39
100
AcDbEntity
  8
0
  6
Continuous
 62
     7
100
AcDbLine
 10
723.065672548653
 20
1529.818150596554
 30
0.0
 11
722.5486593318079
 21
1530.126628348434
 31
0.0
  0
LINE
  5
2CB
330
39
100
AcDbEntity
  8
0
  6
Continuous
 62
     7
100
AcDbLine
 10
722.5486593318079
 20
1530.126628348434
 30
0.0
 11
722.0462609029399
 21
1530.376242457631
 31
0.0
  0
LINE
  5
2CC
330
39
100
AcDbEntity
  8
0
  6
Continuous
 62
     7
100
AcDbLine
 10
722.0462609029399
 20
1530.376242457631
 30
0.0
 11
721.5803828531758
 21
1530.5561086858
 31
0.0
  0
LINE
  5
2CD
330
39
100
AcDbEntity
  8
0
  6
Continuous
 62
     7
100
AcDbLine
 10
721.5803828531758
 20
1530.5561086858
 30
0.0
 11
721.3675599840489
 21
1530.617297797067
 31
0.0
  0
LINE
  5
2CE
330
39
100
AcDbEntity
  8
0
  6
Continuous
 62
     7
100
AcDbLine
 10
718.8931113177049
 20
1387.283078111521
 30
0.0
 11
699.3298190168229
 21
1392.173296483726
 31
0.0
  0
LINE
  5
2CF
330
39
100
AcDbEntity
  8
0
  6
Continuous
 62
     7
100
AcDbLine
 10
737.9652091081049
 20
1392.860711920636
 30
0.0
 11
722.4054185526749
 21
1387.345575972365
 31
0.0
  0
LINE
  5
2D0
330
39
100
AcDbEntity
  8
0
  6
Continuous
 62
     7
100
AcDbLine
 10
738.506101559677
 20
1393.278305405781
 30
0.0
 11
740.5027281483139
 21
1508.93075551923
 31
0.0
  0
LINE
  5
2D1
330
39
100
AcDbEntity
  8
0
  6
Continuous
 62
     7
100
AcDbLine
 10
698.3884710542048
 20
1392.796265844622
 30
0.0
 11
700.8434241077379
 21
1535.001768589854
 31
0.0
  0
LINE
  5
2D2
330
39
100
AcDbEntity
  8
0
  6
Continuous
 62
     7
100
AcDbLine
 10
1250.761019859908
 20
1714.703598420489
 30
0.0
 11
1234.788964427557
 21
1685.29991374664
 31
0.0
  0
LINE
  5
2D3
330
39
100
AcDbEntity
  8
0
  6
Continuous
 62
     7
100
AcDbLine
 10
1232.169230255952
 20
1682.903854310815
 30
0.0
 11
1232.427594639432
 21
1682.997973231628
 31
0.0
  0
LINE
  5
2D4
330
39
100
AcDbEntity
  8
0
  6
Continuous
 62
     7
100
AcDbLine
 10
1232.427594639432
 20
1682.997973231628
 30
0.0
 11
1232.690398876252
 21
1683.122677314446
 31
0.0
  0
LINE
  5
2D5
330
39
100
AcDbEntity
  8
0
  6
Continuous
 62
     7
100
AcDbLine
 10
1232.690398876252
 20
1683.122677314446
 30
0.0
 11
1232.954706195621
 21
1683.276569273397
 31
0.0
  0
LINE
  5
2D6
330
39
100
AcDbEntity
  8
0
  6
Continuous
 62
     7
100
AcDbLine
 10
1232.954706195621
 20
1683.276569273397
 30
0.0
 11
1233.217729127279
 21
1683.458013344579
 31
0.0
  0
LINE
  5
2D7
330
39
100
AcDbEntity
  8
0
  6
Continuous
 62
     7
100
AcDbLine
 10
1233.217729127279
 20
1683.458013344579
 30
0.0
 11
1233.476557161374
 21
1683.664990170272
 31
0.0
  0
LINE
  5
2D8
330
39
100
AcDbEntity
  8
0
  6
Continuous
 62
     7
100
AcDbLine
 10
1233.476557161374
 20
1683.664990170272
 30
0.0
 11
1233.728241211607
 21
1683.895223877818
 31
0.0
  0
LINE
  5
2D9
330
39
100
AcDbEntity
  8
0
  6
Continuous
 62
     7
100
AcDbLine
 10
1233.728241211607
 20
1683.895223877818
 30
0.0
 11
1233.970174467704
 21
1684.146203771652
 31
0.0
  0
LINE
  5
2DA
330
39
100
AcDbEntity
  8
0
  6
Continuous
 62
     7
100
AcDbLine
 10
1233.970174467704
 20
1684.146203771652
 30
0.0
 11
1234.199633621722
 21
1684.415199774321
 31
0.0
  0
LINE
  5
2DB
330
39
100
AcDbEntity
  8
0
  6
Continuous
 62
     7
100
AcDbLine
 10
1234.199633621722
 20
1684.415199774321
 30
0.0
 11
1234.414169917565
 21
1684.699255354947
 31
0.0
  0
LINE
  5
2DC
330
39
100
AcDbEntity
  8
0
  6
Continuous
 62
     7
100
AcDbLine
 10
1234.414169917565
 20
1684.699255354947
 30
0.0
 11
1234.611275628601
 21
1684.995214994851
 31
0.0
  0
LINE
  5
2DD
330
39
100
AcDbEntity
  8
0
  6
Continuous
 62
     7
100
AcDbLine
 10
1234.611275628601
 20
1684.995214994851
 30
0.0
 11
1234.788964427557
 21
1685.29991374664
 31
0.0
  0
LINE
  5
2DE
330
39
100
AcDbEntity
  8
0
  6
Continuous
 62
     3
100
AcDbLine
 10
1250.401869087858
 20
1718.132977504127
 30
0.0
 11
721.370840215065
 21
1530.616355959823
 31
0.0
  0
LINE
  5
2DF
330
39
100
AcDbEntity
  8
0
  6
Continuous
 62
     3
100
AcDbLine
 10
721.370840215065
 20
1530.616355959823
 30
0.0
 11
721.368916712972
 21
1530.615674168786
 31
0.0
  0
LINE
  5
2E0
330
39
100
AcDbEntity
  8
0
  6
Continuous
 62
     3
100
AcDbLine
 10
1234.788964427557
 20
1685.29991374664
 30
0.0
 11
739.9859659581229
 21
1509.917377617974
 31
0.0
  0
LINE
  5
2E1
330
39
100
AcDbEntity
  8
0
  6
Continuous
 62
     3
100
AcDbLine
 10
1250.761019859908
 20
1714.703598420489
 30
0.0
 11
724.839951288233
 21
1528.289302407443
 31
0.0
  0
LINE
  5
2E2
330
39
100
AcDbEntity
  8
0
  6
Continuous
 62
     7
100
AcDbLine
 10
1231.10757732833
 20
1722.95583623673
 30
0.0
 11
1250.401869087858
 21
1718.132977504127
 31
0.0
  0
LINE
  5
2E3
330
39
100
AcDbEntity
  8
0
  6
Continuous
 62
     7
100
AcDbLine
 10
1250.761019859908
 20
1714.703598420489
 30
0.0
 11
1250.917209315927
 21
1715.013594427743
 31
0.0
  0
LINE
  5
2E4
330
39
100
AcDbEntity
  8
0
  6
Continuous
 62
     7
100
AcDbLine
 10
1250.917209315927
 20
1715.013594427743
 30
0.0
 11
1251.050344939428
 21
1715.325600617259
 31
0.0
  0
LINE
  5
2E5
330
39
100
AcDbEntity
  8
0
  6
Continuous
 62
     7
100
AcDbLine
 10
1251.050344939428
 20
1715.325600617259
 30
0.0
 11
1251.158813270298
 21
1715.636130928032
 31
0.0
  0
LINE
  5
2E6
330
39
100
AcDbEntity
  8
0
  6
Continuous
 62
     7
100
AcDbLine
 10
1251.158813270298
 20
1715.636130928032
 30
0.0
 11
1251.241481459606
 21
1715.941804924617
 31
0.0
  0
LINE
  5
2E7
330
39
100
AcDbEntity
  8
0
  6
Continuous
 62
     7
100
AcDbLine
 10
1251.241481459606
 20
1715.941804924617
 30
0.0
 11
1251.297524688194
 21
1716.239286614866
 31
0.0
  0
LINE
  5
2E8
330
39
100
AcDbEntity
  8
0
  6
Continuous
 62
     7
100
AcDbLine
 10
1251.297524688194
 20
1716.239286614866
 30
0.0
 11
1251.326170565522
 21
1716.525274782504
 31
0.0
  0
LINE
  5
2E9
330
39
100
AcDbEntity
  8
0
  6
Continuous
 62
     7
100
AcDbLine
 10
1250.597630062297
 20
1718.065755927814
 30
0.0
 11
1250.401869087858
 21
1718.132977504127
 31
0.0
  0
LINE
  5
2EA
330
39
100
AcDbEntity
  8
0
  6
Continuous
 62
     7
100
AcDbLine
 10
1251.327221972419
 20
1716.796672152128
 30
0.0
 11
1251.302808934672
 21
1717.03026058738
 31
0.0
  0
LINE
  5
2EB
330
39
100
AcDbEntity
  8
0
  6
Continuous
 62
     7
100
AcDbLine
 10
1251.302808934672
 20
1717.03026058738
 30
0.0
 11
1251.300691504175
 21
1717.050520551817
 31
0.0
  0
LINE
  5
2EC
330
39
100
AcDbEntity
  8
0
  6
Continuous
 62
     7
100
AcDbLine
 10
1251.326170565522
 20
1716.525274782504
 30
0.0
 11
1251.326258751673
 21
1716.548038081312
 31
0.0
  0
LINE
  5
2ED
330
39
100
AcDbEntity
  8
0
  6
Continuous
 62
     7
100
AcDbLine
 10
1251.326258751673
 20
1716.548038081312
 30
0.0
 11
1251.327221972419
 21
1716.796672152128
 31
0.0
  0
LINE
  5
2EE
330
39
100
AcDbEntity
  8
0
  6
Continuous
 62
     7
100
AcDbLine
 10
1251.059511105219
 20
1717.679872668552
 30
0.0
 11
1250.946190854206
 21
1717.816391294685
 31
0.0
  0
LINE
  5
2EF
330
39
100
AcDbEntity
  8
0
  6
Continuous
 62
     7
100
AcDbLine
 10
1250.946190854206
 20
1717.816391294685
 30
0.0
 11
1250.928281882214
 21
1717.83796650503
 31
0.0
  0
LINE
  5
2F0
330
39
100
AcDbEntity
  8
0
  6
Continuous
 62
     7
100
AcDbLine
 10
1251.246743943407
 20
1717.283980519052
 30
0.0
 11
1251.174992007353
 21
1717.471265886376
 31
0.0
  0
LINE
  5
2F1
330
39
100
AcDbEntity
  8
0
  6
Continuous
 62
     7
100
AcDbLine
 10
1251.174992007353
 20
1717.471265886376
 30
0.0
 11
1251.166078555926
 21
1717.494531586459
 31
0.0
  0
LINE
  5
2F2
330
39
100
AcDbEntity
  8
0
  6
Continuous
 62
     7
100
AcDbLine
 10
1251.300691504175
 20
1717.050520551817
 30
0.0
 11
1251.294728243565
 21
1717.076326771909
 31
0.0
  0
LINE
  5
2F3
330
39
100
AcDbEntity
  8
0
  6
Continuous
 62
     7
100
AcDbLine
 10
1251.294728243565
 20
1717.076326771909
 30
0.0
 11
1251.246743943407
 21
1717.283980519052
 31
0.0
  0
LINE
  5
2F4
330
39
100
AcDbEntity
  8
0
  6
Continuous
 62
     7
100
AcDbLine
 10
1251.166078555926
 20
1717.494531586459
 30
0.0
 11
1251.151494106412
 21
1717.519896720343
 31
0.0
  0
LINE
  5
2F5
330
39
100
AcDbEntity
  8
0
  6
Continuous
 62
     7
100
AcDbLine
 10
1251.151494106412
 20
1717.519896720343
 30
0.0
 11
1251.059511105219
 21
1717.679872668552
 31
0.0
  0
LINE
  5
2F6
330
39
100
AcDbEntity
  8
0
  6
Continuous
 62
     7
100
AcDbLine
 10
1250.773727281426
 20
1717.96705274462
 30
0.0
 11
1250.625235047882
 21
1718.050283224936
 31
0.0
  0
LINE
  5
2F7
330
39
100
AcDbEntity
  8
0
  6
Continuous
 62
     7
100
AcDbLine
 10
1250.625235047882
 20
1718.050283224936
 30
0.0
 11
1250.597630062297
 21
1718.065755927814
 31
0.0
  0
LINE
  5
2F8
330
39
100
AcDbEntity
  8
0
  6
Continuous
 62
     7
100
AcDbLine
 10
1250.928281882214
 20
1717.83796650503
 30
0.0
 11
1250.904116572297
 21
1717.858149721639
 31
0.0
  0
LINE
  5
2F9
330
39
100
AcDbEntity
  8
0
  6
Continuous
 62
     7
100
AcDbLine
 10
1250.904116572297
 20
1717.858149721639
 30
0.0
 11
1250.773727281426
 21
1717.96705274462
 31
0.0
  0
LINE
  5
2FA
330
39
100
AcDbEntity
  8
0
  6
Continuous
 62
     7
100
AcDbLine
 10
721.368916712972
 20
1530.615674168786
 30
0.0
 11
721.5817021245629
 21
1530.554487967629
 31
0.0
  0
LINE
  5
2FB
330
39
100
AcDbEntity
  8
0
  6
Continuous
 62
     7
100
AcDbLine
 10
722.808094549899
 20
1529.977316429956
 30
0.0
 11
723.0335172238268
 21
1529.837336184204
 31
0.0
  0
LINE
  5
2FC
330
39
100
AcDbEntity
  8
0
  6
Continuous
 62
     7
100
AcDbLine
 10
723.0335172238268
 20
1529.837336184204
 30
0.0
 11
723.0670451624359
 21
1529.816516410379
 31
0.0
  0
LINE
  5
2FD
330
39
100
AcDbEntity
  8
0
  6
Continuous
 62
     7
100
AcDbLine
 10
721.8087698902849
 20
1530.473838289206
 30
0.0
 11
722.0096755686419
 21
1530.390367326024
 31
0.0
  0
LINE
  5
2FE
330
39
100
AcDbEntity
  8
0
  6
Continuous
 62
     7
100
AcDbLine
 10
722.0096755686419
 20
1530.390367326024
 30
0.0
 11
722.0475765788809
 21
1530.37462046483
 31
0.0
  0
LINE
  5
2FF
330
39
100
AcDbEntity
  8
0
  6
Continuous
 62
     7
100
AcDbLine
 10
721.5817021245629
 20
1530.554487967629
 30
0.0
 11
721.617667553876
 21
1530.541713806139
 31
0.0
  0
LINE
  5
300
330
39
100
AcDbEntity
  8
0
  6
Continuous
 62
     7
100
AcDbLine
 10
721.617667553876
 20
1530.541713806139
 30
0.0
 11
721.8087698902849
 21
1530.473838289206
 31
0.0
  0
LINE
  5
301
330
39
100
AcDbEntity
  8
0
  6
Continuous
 62
     7
100
AcDbLine
 10
722.29559098883
 20
1530.257912243416
 30
0.0
 11
722.5120252047699
 21
1530.14482982841
 31
0.0
  0
LINE
  5
302
330
39
100
AcDbEntity
  8
0
  6
Continuous
 62
     7
100
AcDbLine
 10
722.5120252047699
 20
1530.14482982841
 30
0.0
 11
722.550006777468
 21
1530.124985239846
 31
0.0
  0
LINE
  5
303
330
39
100
AcDbEntity
  8
0
  6
Continuous
 62
     7
100
AcDbLine
 10
722.0475765788809
 20
1530.37462046483
 30
0.0
 11
722.0844298859948
 21
1530.357278392136
 31
0.0
  0
LINE
  5
304
330
39
100
AcDbEntity
  8
0
  6
Continuous
 62
     7
100
AcDbLine
 10
722.0844298859948
 20
1530.357278392136
 30
0.0
 11
722.29559098883
 21
1530.257912243416
 31
0.0
  0
LINE
  5
305
330
39
100
AcDbEntity
  8
0
  6
Continuous
 62
     7
100
AcDbLine
 10
722.550006777468
 20
1530.124985239846
 30
0.0
 11
722.584273987574
 21
1530.105378738976
 31
0.0
  0
LINE
  5
306
330
39
100
AcDbEntity
  8
0
  6
Continuous
 62
     7
100
AcDbLine
 10
722.584273987574
 20
1530.105378738976
 30
0.0
 11
722.808094549899
 21
1529.977316429956
 31
0.0
  0
LINE
  5
307
330
39
100
AcDbEntity
  8
0
  6
Continuous
 62
     7
100
AcDbLine
 10
723.8205250012519
 20
1529.273490764564
 30
0.0
 11
724.0351764912399
 21
1529.095163069317
 31
0.0
  0
LINE
  5
308
330
39
100
AcDbEntity
  8
0
  6
Continuous
 62
     7
100
AcDbLine
 10
724.0351764912399
 20
1529.095163069317
 30
0.0
 11
724.0547544234788
 21
1529.078898157603
 31
0.0
  0
LINE
  5
309
330
39
100
AcDbEntity
  8
0
  6
Continuous
 62
     7
100
AcDbLine
 10
723.3239250741818
 20
1529.644329759399
 30
0.0
 11
723.5482672082429
 21
1529.48265241273
 31
0.0
  0
LINE
  5
30A
330
39
100
AcDbEntity
  8
0
  6
Continuous
 62
     7
100
AcDbLine
 10
723.5482672082429
 20
1529.48265241273
 30
0.0
 11
723.576012551068
 21
1529.462657089831
 31
0.0
  0
LINE
  5
30B
330
39
100
AcDbEntity
  8
0
  6
Continuous
 62
     7
100
AcDbLine
 10
723.0670451624359
 20
1529.816516410379
 30
0.0
 11
723.094356265574
 21
1529.798209773041
 31
0.0
  0
LINE
  5
30C
330
39
100
AcDbEntity
  8
0
  6
Continuous
 62
     7
100
AcDbLine
 10
723.094356265574
 20
1529.798209773041
 30
0.0
 11
723.3239250741818
 21
1529.644329759399
 31
0.0
  0
LINE
  5
30D
330
39
100
AcDbEntity
  8
0
  6
Continuous
 62
     7
100
AcDbLine
 10
702.0752074048988
 20
1535.438380879862
 30
0.0
 11
721.368916712972
 21
1530.615674168786
 31
0.0
  0
LINE
  5
30E
330
39
100
AcDbEntity
  8
0
  6
Continuous
 62
     7
100
AcDbLine
 10
701.3640149507329
 20
1534.15743357752
 30
0.0
 11
701.2163790951169
 21
1534.346816873813
 31
0.0
  0
LINE
  5
30F
330
39
100
AcDbEntity
  8
0
  6
Continuous
 62
     7
100
AcDbLine
 10
701.2163790951169
 20
1534.346816873813
 30
0.0
 11
701.0918382929118
 21
1534.528765005167
 31
0.0
  0
LINE
  5
310
330
39
100
AcDbEntity
  8
0
  6
Continuous
 62
     7
100
AcDbLine
 10
701.0918382929118
 20
1534.528765005167
 30
0.0
 11
700.9916585924658
 21
1534.701282221155
 31
0.0
  0
LINE
  5
311
330
39
100
AcDbEntity
  8
0
  6
Continuous
 62
     7
100
AcDbLine
 10
700.9916585924658
 20
1534.701282221155
 30
0.0
 11
700.9170472767199
 21
1534.862481452472
 31
0.0
  0
LINE
  5
312
330
39
100
AcDbEntity
  8
0
  6
Continuous
 62
     7
100
AcDbLine
 10
700.9170472767199
 20
1534.862481452472
 30
0.0
 11
700.8687459288329
 21
1535.010601940367
 31
0.0
  0
LINE
  5
313
330
39
100
AcDbEntity
  8
0
  6
Continuous
 62
     7
100
AcDbLine
 10
723.576012551068
 20
1529.462657089831
 30
0.0
 11
723.596242285489
 21
1529.447006416342
 31
0.0
  0
LINE
  5
314
330
39
100
AcDbEntity
  8
0
  6
Continuous
 62
     7
100
AcDbLine
 10
723.596242285489
 20
1529.447006416342
 30
0.0
 11
723.8205250012519
 21
1529.273490764564
 31
0.0
  0
LINE
  5
315
330
39
100
AcDbEntity
  8
0
  6
Continuous
 62
     7
100
AcDbLine
 10
724.276136634334
 20
1528.880997628172
 30
0.0
 11
724.471575021253
 21
1528.692358228796
 31
0.0
  0
LINE
  5
316
330
39
100
AcDbEntity
  8
0
  6
Continuous
 62
     7
100
AcDbLine
 10
724.471575021253
 20
1528.692358228796
 30
0.0
 11
724.4823108877569
 21
1528.681995845843
 31
0.0
  0
LINE
  5
317
330
39
100
AcDbEntity
  8
0
  6
Continuous
 62
     7
100
AcDbLine
 10
724.0547544234788
 20
1529.078898157603
 30
0.0
 11
724.066536435074
 21
1529.068365846432
 31
0.0
  0
LINE
  5
318
330
39
100
AcDbEntity
  8
0
  6
Continuous
 62
     7
100
AcDbLine
 10
724.066536435074
 20
1529.068365846432
 30
0.0
 11
724.276136634334
 21
1528.880997628172
 31
0.0
  0
LINE
  5
319
330
39
100
AcDbEntity
  8
0
  6
Continuous
 62
     7
100
AcDbLine
 10
724.4823108877569
 20
1528.681995845843
 30
0.0
 11
724.485863205383
 21
1528.678267478368
 31
0.0
  0
LINE
  5
31A
330
39
100
AcDbEntity
  8
0
  6
Continuous
 62
     7
100
AcDbLine
 10
724.485863205383
 20
1528.678267478368
 30
0.0
 11
724.6709224499858
 21
1528.48403685453
 31
0.0
  0
LINE
  5
31B
330
39
100
AcDbEntity
  8
0
  6
Continuous
 62
     7
100
AcDbLine
 10
724.6709224499858
 20
1528.48403685453
 30
0.0
 11
724.8367979440728
 21
1528.292935306644
 31
0.0
  0
LINE
  5
31C
330
39
100
AcDbEntity
  8
0
  6
Continuous
 62
     7
100
AcDbLine
 10
724.8367979440728
 20
1528.292935306644
 30
0.0
 11
724.839951288233
 21
1528.289302407443
 31
0.0
  0
LINE
  5
31D
330
39
100
AcDbEntity
  8
0
  6
Continuous
 62
     7
100
AcDbLine
 10
739.9859659581229
 20
1509.917377617974
 30
0.0
 11
738.389180431671
 21
1511.854258324634
 31
0.0
  0
LINE
  5
31E
330
39
100
AcDbEntity
  8
0
  6
Continuous
 62
     7
100
AcDbLine
 10
738.389180431671
 20
1511.854258324634
 30
0.0
 11
724.839951288233
 21
1528.289302407443
 31
0.0
  0
LINE
  5
31F
330
39
100
AcDbEntity
  8
0
  6
Continuous
 62
     7
100
AcDbLine
 10
739.9859659581229
 20
1509.917377617974
 30
0.0
 11
740.133605409185
 21
1509.727995596311
 31
0.0
  0
LINE
  5
320
330
39
100
AcDbEntity
  8
0
  6
Continuous
 62
     7
100
AcDbLine
 10
740.133605409185
 20
1509.727995596311
 30
0.0
 11
740.2581872643719
 21
1509.546045829478
 31
0.0
  0
LINE
  5
321
330
39
100
AcDbEntity
  8
0
  6
Continuous
 62
     7
100
AcDbLine
 10
740.2581872643719
 20
1509.546045829478
 30
0.0
 11
740.3583223163899
 21
1509.37352897434
 31
0.0
  0
LINE
  5
322
330
39
100
AcDbEntity
  8
0
  6
Continuous
 62
     7
100
AcDbLine
 10
740.3583223163899
 20
1509.37352897434
 30
0.0
 11
740.4329423261039
 21
1509.212316635868
 31
0.0
  0
LINE
  5
323
330
39
100
AcDbEntity
  8
0
  6
Continuous
 62
     7
100
AcDbLine
 10
740.4329423261039
 20
1509.212316635868
 30
0.0
 11
740.4812436739909
 21
1509.064196147973
 31
0.0
  0
LINE
  5
324
330
39
100
AcDbEntity
  8
0
  6
Continuous
 62
     7
100
AcDbLine
 10
740.4812436739909
 20
1509.064196147973
 30
0.0
 11
740.502691280073
 21
1508.9307910168
 31
0.0
  0
LINE
  5
325
330
39
100
AcDbEntity
  8
0
  6
Continuous
 62
     7
100
AcDbLine
 10
1232.169230255952
 20
1682.903854310815
 30
0.0
 11
740.49760154994
 21
1508.63377924617
 31
0.0
  0
LINE
  5
326
330
39
100
AcDbEntity
  8
0
  6
Continuous
 62
     3
100
AcDbLine
 10
12.22401863680852
 20
1691.671850200339
 30
0.0
 11
10.22217853272798
 21
1574.610493476448
 31
0.0
  0
LINE
  5
327
330
39
100
AcDbEntity
  8
0
  6
Continuous
 62
     3
100
AcDbLine
 10
-26.09538780485423
 20
1709.461863606504
 30
0.0
 11
-28.41328577609863
 21
1573.91788735015
 31
0.0
  0
LINE
  5
328
330
39
100
AcDbEntity
  8
0
  6
Continuous
 62
     3
100
AcDbLine
 10
-5.33760721882686
 20
1569.095326852663
 30
0.0
 11
-3.09640280797487
 21
1700.150145876644
 31
0.0
  0
LINE
  5
329
330
39
100
AcDbEntity
  8
0
  6
Continuous
 62
     3
100
AcDbLine
 10
-8.84992030198509
 20
1569.032357429623
 30
0.0
 11
-6.53195228642301
 21
1704.576470372881
 31
0.0
  0
LINE
  5
32A
330
39
100
AcDbEntity
  8
0
  6
Continuous
 62
     7
100
AcDbLine
 10
12.74096634679756
 20
1690.685115788664
 30
0.0
 11
12.67118470932769
 21
1690.966710767392
 31
0.0
  0
LINE
  5
32B
330
39
100
AcDbEntity
  8
0
  6
Continuous
 62
     7
100
AcDbLine
 10
12.67118470932769
 20
1690.966710767392
 30
0.0
 11
12.49632505517388
 21
1691.300483828053
 31
0.0
  0
LINE
  5
32C
330
39
100
AcDbEntity
  8
0
  6
Continuous
 62
     7
100
AcDbLine
 10
12.49632505517388
 20
1691.300483828053
 30
0.0
 11
12.22401863680852
 21
1691.671850200339
 31
0.0
  0
LINE
  5
32D
330
39
100
AcDbEntity
  8
0
  6
Continuous
 62
     7
100
AcDbLine
 10
7.39292795861445
 20
1697.530743967188
 30
0.0
 11
12.22401863680852
 21
1691.671850200339
 31
0.0
  0
LINE
  5
32E
330
39
100
AcDbEntity
  8
0
  6
Continuous
 62
     7
100
AcDbLine
 10
-8.84992030198509
 20
1569.032357429623
 30
0.0
 11
-28.41328577609863
 21
1573.91788735015
 31
0.0
  0
LINE
  5
32F
330
39
100
AcDbEntity
  8
0
  6
Continuous
 62
     7
100
AcDbLine
 10
10.22217853272798
 20
1574.610493476448
 30
0.0
 11
-5.33760721882686
 21
1569.095326852663
 31
0.0
  0
LINE
  5
330
330
39
100
AcDbEntity
  8
0
  6
Continuous
 62
     7
100
AcDbLine
 10
10.76305843007799
 20
1575.027985375322
 30
0.0
 11
12.74096634679756
 21
1690.685115788664
 31
0.0
  0
LINE
  5
331
330
39
100
AcDbEntity
  8
0
  6
Continuous
 62
     7
100
AcDbLine
 10
-29.35468006551207
 20
1574.540467934321
 30
0.0
 11
-27.04331083627358
 21
1709.698578333295
 31
0.0
  0
LINE
  5
332
330
39
100
AcDbEntity
  8
0
  6
Continuous
 62
     3
100
AcDbLine
 10
19.92740912118677
 20
1694.400629200662
 30
0.0
 11
12.22484671580298
 21
1691.67042770164
 31
0.0
  0
LINE
  5
333
330
39
100
AcDbEntity
  8
0
  6
Continuous
 62
     7
100
AcDbLine
 10
12.22484671580298
 20
1691.67042770164
 30
0.0
 11
7.39245579031046
 21
1697.530861731694
 31
0.0
  0
LINE
  5
334
330
39
100
AcDbEntity
  8
0
  6
Continuous
 62
     7
100
AcDbLine
 10
12.49708031146588
 20
1691.29908408062
 30
0.0
 11
12.59729537707801
 21
1691.126547023477
 31
0.0
  0
LINE
  5
335
330
39
100
AcDbEntity
  8
0
  6
Continuous
 62
     7
100
AcDbLine
 10
12.59729537707801
 20
1691.126547023477
 30
0.0
 11
12.67193996561957
 21
1690.965311019959
 31
0.0
  0
LINE
  5
336
330
39
100
AcDbEntity
  8
0
  6
Continuous
 62
     7
100
AcDbLine
 10
12.67193996561957
 20
1690.965311019959
 30
0.0
 11
12.72031413620914
 21
1690.817167780798
 31
0.0
  0
LINE
  5
337
330
39
100
AcDbEntity
  8
0
  6
Continuous
 62
     7
100
AcDbLine
 10
12.72031413620914
 20
1690.817167780798
 30
0.0
 11
12.74178422874854
 21
1690.683722053533
 31
0.0
  0
LINE
  5
338
330
39
100
AcDbEntity
  8
0
  6
Continuous
 62
     7
100
AcDbLine
 10
12.37247897597285
 20
1691.481043130716
 30
0.0
 11
12.49325070972259
 21
1691.304676562376
 31
0.0
  0
LINE
  5
339
330
39
100
AcDbEntity
  8
0
  6
Continuous
 62
     7
100
AcDbLine
 10
12.49325070972259
 20
1691.304676562376
 30
0.0
 11
12.49708031146588
 21
1691.29908408062
 31
0.0
  0
LINE
  5
33A
330
39
100
AcDbEntity
  8
0
  6
Continuous
 62
     7
100
AcDbLine
 10
12.22484671580298
 20
1691.67042770164
 30
0.0
 11
12.22846764196436
 21
1691.665782730773
 31
0.0
  0
LINE
  5
33B
330
39
100
AcDbEntity
  8
0
  6
Continuous
 62
     7
100
AcDbLine
 10
12.22846764196436
 20
1691.665782730773
 30
0.0
 11
12.37247897597285
 21
1691.481043130716
 31
0.0
  0
LINE
  5
33C
330
39
100
AcDbEntity
  8
0
  6
Continuous
 62
     7
100
AcDbLine
 10
12.74178422874854
 20
1690.683722053533
 30
0.0
 11
12.74047606329907
 21
1690.656446717751
 31
0.0
  0
LINE
  5
33D
330
39
100
AcDbEntity
  8
0
  6
Continuous
 62
     7
100
AcDbLine
 10
22.35292410616228
 20
1693.794925209058
 30
0.0
 11
12.73585424160444
 21
1690.386170395622
 31
0.0
  0
LINE
  5
33E
330
39
100
AcDbEntity
  8
0
  6
Continuous
 62
     7
100
AcDbLine
 10
2901.566845331254
 20
1769.995797702835
 30
0.0
 11
2138.68380186356
 21
2010.74713547812
 31
0.0
  0
LINE
  5
33F
330
39
100
AcDbEntity
  8
0
  6
Continuous
 62
     7
100
AcDbLine
 10
2135.883642044424
 20
2010.598450792267
 30
0.0
 11
1563.091828302491
 21
1698.91850923558
 31
0.0
  0
LINE
  5
340
330
39
100
AcDbEntity
  8
0
  6
Continuous
 62
     7
100
AcDbLine
 10
1562.883758472143
 20
1696.52284601752
 30
0.0
 11
2325.76679464577
 21
1455.771521644743
 31
0.0
  0
LINE
  5
341
330
39
100
AcDbEntity
  8
0
  6
Continuous
 62
     7
100
AcDbLine
 10
1563.490364228687
 20
1697.760397840071
 30
0.0
 11
2326.373403263253
 21
1457.009040279968
 31
0.0
  0
LINE
  5
342
330
39
100
AcDbEntity
  8
0
  6
Continuous
 62
     7
100
AcDbLine
 10
1562.754064320268
 20
1698.630037501563
 30
0.0
 11
1563.091828302491
 21
1698.91850923558
 31
0.0
  0
LINE
  5
343
330
39
100
AcDbEntity
  8
0
  6
Continuous
 62
     7
100
AcDbLine
 10
1562.065598835525
 20
1691.422323122401
 30
0.0
 11
1562.846547529471
 21
1691.05798312387
 31
0.0
  0
LINE
  5
344
330
39
100
AcDbEntity
  8
0
  6
Continuous
 62
     3
100
AcDbLine
 10
1562.846547529471
 20
1691.05798312387
 30
0.0
 11
1562.883758472143
 21
1696.52284601752
 31
0.0
  0
LINE
  5
345
330
39
100
AcDbEntity
  8
0
  6
Continuous
 62
     3
100
AcDbLine
 10
1562.846547529471
 20
1691.05798312387
 30
0.0
 11
1563.440782096603
 21
1690.473896902276
 31
0.0
  0
LINE
  5
346
330
39
100
AcDbEntity
  8
0
  6
Continuous
 62
     7
100
AcDbLine
 10
1562.920150135406
 20
1690.716790354211
 30
0.0
 11
1563.440782096603
 21
1690.473896902276
 31
0.0
  0
LINE
  5
347
330
39
100
AcDbEntity
  8
0
  6
Continuous
 62
     3
100
AcDbLine
 10
1563.490364228687
 20
1697.760397840071
 30
0.0
 11
1562.883758472143
 21
1696.52284601752
 31
0.0
  0
LINE
  5
348
330
39
100
AcDbEntity
  8
0
  6
Continuous
 62
     3
100
AcDbLine
 10
2902.721667922192
 20
1762.209626698668
 30
0.0
 11
2901.915799125366
 21
1761.551185369531
 31
0.0
  0
LINE
  5
349
330
39
100
AcDbEntity
  8
0
  6
Continuous
 62
     7
100
AcDbLine
 10
2902.721667922192
 20
1762.209626698668
 30
0.0
 11
2903.228328483659
 21
1762.642307494677
 31
0.0
  0
LINE
  5
34A
330
39
100
AcDbEntity
  8
0
  6
Continuous
 62
     3
100
AcDbLine
 10
2902.721667922192
 20
1762.209626698668
 30
0.0
 11
2902.758871570798
 21
1767.674502994827
 31
0.0
  0
LINE
  5
34B
330
39
100
AcDbEntity
  8
0
  6
Continuous
 62
     7
100
AcDbLine
 10
2902.942035134248
 20
1769.04735790083
 30
0.0
 11
2903.329832797494
 21
1768.58926838092
 31
0.0
  0
LINE
  5
34C
330
39
100
AcDbEntity
  8
0
  6
Continuous
 62
     3
100
AcDbLine
 10
2901.965388551518
 20
1768.837672904817
 30
0.0
 11
2902.758871570798
 21
1767.674502994827
 31
0.0
  0
LINE
  5
34D
330
39
100
AcDbEntity
  8
0
  6
Continuous
 62
     7
100
AcDbLine
 10
2901.566845331254
 20
1769.995797702835
 30
0.0
 11
2902.087477292451
 21
1769.7529042509
 31
0.0
  0
LINE
  5
34E
330
39
100
AcDbEntity
  8
0
  6
Continuous
 62
     7
100
AcDbLine
 10
2329.17355913895
 20
1457.157740191847
 30
0.0
 11
2901.965388551518
 21
1768.837672904817
 31
0.0
  0
LINE
  5
34F
330
39
100
AcDbEntity
  8
0
  6
Continuous
 62
     7
100
AcDbLine
 10
2329.967032106349
 20
1455.994564811307
 30
0.0
 11
2902.758871570798
 21
1767.674502994827
 31
0.0
  0
LINE
  5
350
330
39
100
AcDbEntity
  8
0
  6
Continuous
 62
     7
100
AcDbLine
 10
2329.929847723849
 20
1450.529699000369
 30
0.0
 11
2902.721667922192
 21
1762.209626698668
 31
0.0
  0
LINE
  5
351
330
39
100
AcDbEntity
  8
0
  6
Continuous
 62
     7
100
AcDbLine
 10
2901.915799125366
 20
1761.551185369531
 30
0.0
 11
2329.123984545776
 21
1449.871243356965
 31
0.0
  0
LINE
  5
352
330
39
100
AcDbEntity
  8
0
  6
Continuous
 62
     7
100
AcDbLine
 10
1562.846547529471
 20
1691.05798312387
 30
0.0
 11
2325.72961026327
 21
1450.306655833805
 31
0.0
  0
LINE
  5
353
330
39
100
AcDbEntity
  8
0
  6
Continuous
 62
     7
100
AcDbLine
 10
2326.323822213669
 20
1449.722557303473
 30
0.0
 11
1563.440782096603
 21
1690.473896902276
 31
0.0
  0
LINE
  5
354
330
39
100
AcDbEntity
  8
0
  6
Continuous
 62
     3
100
AcDbLine
 10
2329.967032106349
 20
1455.994564811307
 30
0.0
 11
2329.17355913895
 21
1457.157740191847
 31
0.0
  0
LINE
  5
355
330
39
100
AcDbEntity
  8
0
  6
Continuous
 62
     3
100
AcDbLine
 10
2326.373403263253
 20
1457.009040279968
 30
0.0
 11
2325.76679464577
 21
1455.771521644743
 31
0.0
  0
LINE
  5
356
330
39
100
AcDbEntity
  8
0
  6
Continuous
 62
     3
100
AcDbLine
 10
2325.72961026327
 20
1450.306655833805
 30
0.0
 11
2325.76679464577
 21
1455.771521644743
 31
0.0
  0
LINE
  5
357
330
39
100
AcDbEntity
  8
0
  6
Continuous
 62
     3
100
AcDbLine
 10
2329.929847723849
 20
1450.529699000369
 30
0.0
 11
2329.967032106349
 21
1455.994564811307
 31
0.0
  0
LINE
  5
358
330
39
100
AcDbEntity
  8
0
  6
Continuous
 62
     3
100
AcDbLine
 10
2329.929847723849
 20
1450.529699000369
 30
0.0
 11
2329.123984545776
 21
1449.871243356965
 31
0.0
  0
LINE
  5
359
330
39
100
AcDbEntity
  8
0
  6
Continuous
 62
     3
100
AcDbLine
 10
2326.323822213669
 20
1449.722557303473
 30
0.0
 11
2325.72961026327
 21
1450.306655833805
 31
0.0
  0
LINE
  5
35A
330
39
100
AcDbEntity
  8
0
  6
Continuous
 62
     7
100
AcDbLine
 10
2902.087477292451
 20
1769.7529042509
 30
0.0
 11
2902.942035134248
 21
1769.04735790083
 31
0.0
  0
LINE
  5
35B
330
39
100
AcDbEntity
  8
0
  6
Continuous
 62
     7
100
AcDbLine
 10
2903.228328483659
 20
1762.642307494677
 30
0.0
 11
2901.915799125366
 21
1761.551185369531
 31
0.0
  0
LINE
  5
35C
330
39
100
AcDbEntity
  8
0
  6
Continuous
 62
     7
100
AcDbLine
 10
2903.228328483659
 20
1762.642307494677
 30
0.0
 11
2903.329832797494
 21
1768.58926838092
 31
0.0
  0
LINE
  5
35D
330
39
100
AcDbEntity
  8
0
  6
Continuous
 62
     7
100
AcDbLine
 10
1562.285959505664
 20
1698.260067906443
 30
0.0
 11
1562.754064320268
 21
1698.630037501563
 31
0.0
  0
LINE
  5
35E
330
39
100
AcDbEntity
  8
0
  6
Continuous
 62
     7
100
AcDbLine
 10
1562.065598835525
 20
1691.422323122401
 30
0.0
 11
1562.920150135406
 21
1690.716790354211
 31
0.0
  0
LINE
  5
35F
330
39
100
AcDbEntity
  8
0
  6
Continuous
 62
     7
100
AcDbLine
 10
1561.742102589659
 20
1692.362497411766
 30
0.0
 11
1561.714959257069
 21
1697.345246539065
 31
0.0
  0
LINE
  5
360
330
39
100
AcDbEntity
  8
0
  6
Continuous
 62
     7
100
AcDbLine
 10
-60.68428766292698
 20
1719.013478482286
 30
0.0
 11
-60.58625025080812
 21
1724.74698786043
 31
0.0
  0
LINE
  5
361
330
39
100
AcDbEntity
  8
0
  6
Continuous
 62
     7
100
AcDbLine
 10
-60.32743730659581
 20
1718.679822462612
 30
0.0
 11
-59.70718006797802
 21
1718.075709726213
 31
0.0
  0
LINE
  5
362
330
39
100
AcDbEntity
  8
0
  6
Continuous
 62
     7
100
AcDbLine
 10
-60.48938750564525
 20
1725.08879359896
 30
0.0
 11
-59.51189142898772
 21
1725.948268944771
 31
0.0
  0
LINE
  5
363
330
39
100
AcDbEntity
  8
0
  6
Continuous
 62
     7
100
AcDbLine
 10
1285.576564069249
 20
1743.155004452764
 30
0.0
 11
1285.674601481368
 21
1748.888513830907
 31
0.0
  0
LINE
  5
364
330
39
100
AcDbEntity
  8
0
  6
Continuous
 62
     7
100
AcDbLine
 10
1284.5022055725
 20
1741.953723335912
 30
0.0
 11
1285.479701324086
 21
1742.813198714233
 31
0.0
  0
LINE
  5
365
330
39
100
AcDbEntity
  8
0
  6
Continuous
 62
     7
100
AcDbLine
 10
1285.674601481368
 20
1748.888513830907
 30
0.0
 11
1284.45959024985
 21
1750.048729521285
 31
0.0
  0
LINE
  5
366
330
39
100
AcDbEntity
  8
0
  6
Continuous
 62
     3
100
AcDbLine
 10
687.5740236669209
 20
1531.243946901878
 30
0.0
 11
686.967968434827
 21
1531.978933651887
 31
0.0
  0
LINE
  5
367
330
39
100
AcDbEntity
  8
0
  6
Continuous
 62
     3
100
AcDbLine
 10
691.1827515022968
 20
1532.054509285033
 30
0.0
 11
690.3838727482308
 21
1531.294344614217
 31
0.0
  0
LINE
  5
368
330
39
100
AcDbEntity
  8
0
  6
Continuous
 62
     3
100
AcDbLine
 10
691.1827515022968
 20
1532.054509285033
 30
0.0
 11
691.280792509862
 21
1537.788019937808
 31
0.0
  0
LINE
  5
369
330
39
100
AcDbEntity
  8
0
  6
Continuous
 62
     3
100
AcDbLine
 10
686.967968434827
 20
1531.978933651887
 30
0.0
 11
687.066011240115
 21
1537.712444941976
 31
0.0
  0
LINE
  5
36A
330
39
100
AcDbEntity
  8
0
  6
Continuous
 62
     3
100
AcDbLine
 10
687.7047411103009
 20
1538.888642578905
 30
0.0
 11
687.066011240115
 21
1537.712444941976
 31
0.0
  0
LINE
  5
36B
330
39
100
AcDbEntity
  8
0
  6
Continuous
 62
     3
100
AcDbLine
 10
691.280792509862
 20
1537.788019937808
 30
0.0
 11
690.5145952901329
 21
1538.939025909459
 31
0.0
  0
LINE
  5
36C
330
39
100
AcDbEntity
  8
0
  6
Continuous
 62
     3
100
AcDbLine
 10
1284.94388177676
 20
1742.515326307268
 30
0.0
 11
1284.145011716661
 21
1741.755148529297
 31
0.0
  0
LINE
  5
36D
330
39
100
AcDbEntity
  8
0
  6
Continuous
 62
     7
100
AcDbLine
 10
1284.94388177676
 20
1742.515326307268
 30
0.0
 11
1285.479701324086
 21
1742.813198714233
 31
0.0
  0
LINE
  5
36E
330
39
100
AcDbEntity
  8
0
  6
Continuous
 62
     7
100
AcDbLine
 10
1285.479701324086
 20
1742.813198714233
 30
0.0
 11
1285.576564069249
 21
1743.155004452764
 31
0.0
  0
LINE
  5
36F
330
39
100
AcDbEntity
  8
0
  6
Continuous
 62
     7
100
AcDbLine
 10
1284.145011716661
 20
1741.755148529297
 30
0.0
 11
1284.5022055725
 21
1741.953723335912
 31
0.0
  0
LINE
  5
370
330
39
100
AcDbEntity
  8
0
  6
Continuous
 62
     3
100
AcDbLine
 10
1284.94388177676
 20
1742.515326307268
 30
0.0
 11
1285.041919188879
 21
1748.248835685411
 31
0.0
  0
LINE
  5
371
330
39
100
AcDbEntity
  8
0
  6
Continuous
 62
     3
100
AcDbLine
 10
1284.275761519056
 20
1749.399855677998
 30
0.0
 11
1285.041919188879
 21
1748.248835685411
 31
0.0
  0
LINE
  5
372
330
39
100
AcDbEntity
  8
0
  6
Continuous
 62
     7
100
AcDbLine
 10
1283.95547394834
 20
1750.231892846654
 30
0.0
 11
1284.45959024985
 21
1750.048729521285
 31
0.0
  0
LINE
  5
373
330
39
100
AcDbEntity
  8
0
  6
Continuous
 62
     7
100
AcDbLine
 10
1284.145011716661
 20
1741.755148529297
 30
0.0
 11
690.3838727482308
 21
1531.294344614217
 31
0.0
  0
LINE
  5
374
330
39
100
AcDbEntity
  8
0
  6
Continuous
 62
     7
100
AcDbLine
 10
691.1827515022968
 20
1532.054509285033
 30
0.0
 11
1284.94388177676
 21
1742.515326307268
 31
0.0
  0
LINE
  5
375
330
39
100
AcDbEntity
  8
0
  6
Continuous
 62
     7
100
AcDbLine
 10
691.280792509862
 20
1537.788019937808
 30
0.0
 11
1285.041919188879
 21
1748.248835685411
 31
0.0
  0
LINE
  5
376
330
39
100
AcDbEntity
  8
0
  6
Continuous
 62
     7
100
AcDbLine
 10
690.5145952901329
 20
1538.939025909459
 30
0.0
 11
1284.275761519056
 21
1749.399855677998
 31
0.0
  0
LINE
  5
377
330
39
100
AcDbEntity
  8
0
  6
Continuous
 62
     3
100
AcDbLine
 10
-58.83441032750329
 20
1725.31480661524
 30
0.0
 11
-59.47310783867499
 21
1724.138620449985
 31
0.0
  0
LINE
  5
378
330
39
100
AcDbEntity
  8
0
  6
Continuous
 62
     3
100
AcDbLine
 10
-59.57114525079396
 20
1718.405111071842
 30
0.0
 11
-58.96509750423934
 21
1717.670105478842
 31
0.0
  0
LINE
  5
379
330
39
100
AcDbEntity
  8
0
  6
Continuous
 62
     3
100
AcDbLine
 10
-59.57114525079396
 20
1718.405111071842
 30
0.0
 11
-59.47310783867499
 21
1724.138620449985
 31
0.0
  0
LINE
  5
37A
330
39
100
AcDbEntity
  8
0
  6
Continuous
 62
     7
100
AcDbLine
 10
-60.32743730659581
 20
1718.679822462612
 30
0.0
 11
-59.57114525079396
 21
1718.405111071842
 31
0.0
  0
LINE
  5
37B
330
39
100
AcDbEntity
  8
0
  6
Continuous
 62
     7
100
AcDbLine
 10
-60.68428766292698
 20
1719.013478482286
 30
0.0
 11
-60.32743730659581
 21
1718.679822462612
 31
0.0
  0
LINE
  5
37C
330
39
100
AcDbEntity
  8
0
  6
Continuous
 62
     7
100
AcDbLine
 10
-60.58625025080812
 20
1724.74698786043
 30
0.0
 11
-60.48938750564525
 21
1725.08879359896
 31
0.0
  0
LINE
  5
37D
330
39
100
AcDbEntity
  8
0
  6
Continuous
 62
     7
100
AcDbLine
 10
-59.51189142898772
 20
1725.948268944771
 30
0.0
 11
-59.15469789822009
 21
1726.146843783896
 31
0.0
  0
LINE
  5
37E
330
39
100
AcDbEntity
  8
0
  6
Continuous
 62
     7
100
AcDbLine
 10
-58.83441032750329
 20
1725.31480661524
 30
0.0
 11
687.7047411103009
 21
1538.888642578905
 31
0.0
  0
LINE
  5
37F
330
39
100
AcDbEntity
  8
0
  6
Continuous
 62
     7
100
AcDbLine
 10
-59.47310783867499
 20
1724.138620449985
 30
0.0
 11
687.066011240115
 21
1537.712444941976
 31
0.0
  0
LINE
  5
380
330
39
100
AcDbEntity
  8
0
  6
Continuous
 62
     7
100
AcDbLine
 10
534.6064557466419
 20
1936.607669091228
 30
0.0
 11
-59.15469789822009
 21
1726.146843783896
 31
0.0
  0
LINE
  5
381
330
39
100
AcDbEntity
  8
0
  6
Continuous
 62
     7
100
AcDbLine
 10
1283.95547394834
 20
1750.231892846654
 30
0.0
 11
537.4163099264739
 21
1936.658052421783
 31
0.0
  0
LINE
  5
382
330
39
100
AcDbEntity
  8
0
  6
Continuous
 62
     7
100
AcDbLine
 10
-59.57114525079396
 20
1718.405111071842
 30
0.0
 11
686.967968434827
 21
1531.978933651887
 31
0.0
  0
LINE
  5
383
330
39
100
AcDbEntity
  8
0
  6
Continuous
 62
     7
100
AcDbLine
 10
687.5740236669209
 20
1531.243946901878
 30
0.0
 11
-58.96509750423934
 21
1717.670105478842
 31
0.0
  0
ARC
  5
384
330
39
100
AcDbEntity
  8
TITELHOEK
  6
Continuous
 62
     1
100
AcDbCircle
 10
-11.81760073469399
 20
-94.44873069387802
 30
0.0
 40
1.415564999999995
100
AcDbArc
 50
-56.44268999999997
 51
56.4426899999987
  0
ARC
  5
385
330
39
100
AcDbEntity
  8
TITELHOEK
  6
Continuous
 62
     1
100
AcDbCircle
 10
-11.81760073469399
 20
-94.44873069387802
 30
0.0
 40
3.656874999999968
100
AcDbArc
 50
1.63575299999955
 51
57.00411499999935
  0
ARC
  5
386
330
39
100
AcDbEntity
  8
TITELHOEK
  6
Continuous
 62
     1
100
AcDbCircle
 10
-11.81760073469399
 20
-94.44873069387802
 30
0.0
 40
3.656875000000002
100
AcDbArc
 50
-56.20772799999966
 51
-1.63575300000044
  0
ARC
  5
387
330
39
100
AcDbEntity
  8
TITELHOEK
  6
Continuous
 62
     1
100
AcDbCircle
 10
-19.95709673469399
 20
-95.923276693878
 30
0.0
 40
2.300291999999994
100
AcDbArc
 50
90.76863800000029
 51
154.007592000001
  0
ARC
  5
388
330
39
100
AcDbEntity
  8
TITELHOEK
  6
Continuous
 62
     1
100
AcDbCircle
 10
-28.27353873469399
 20
-97.987641693878
 30
0.0
 40
0.5308369999999911
100
AcDbArc
 50
180.0
 51
0.0
  0
ARC
  5
389
330
39
100
AcDbEntity
  8
TITELHOEK
  6
Continuous
 62
     1
100
AcDbCircle
 10
-28.27353873469399
 20
-97.515786693878
 30
0.0
 40
3.008074999999991
100
AcDbArc
 50
180.0
 51
0.0
  0
ARC
  5
38A
330
39
100
AcDbEntity
  8
TITELHOEK
  6
Continuous
 62
     1
100
AcDbCircle
 10
-19.95709673469399
 20
-95.923276693878
 30
0.0
 40
2.300292000000008
100
AcDbArc
 50
155.0931500000017
 51
88.90766900000003
  0
CIRCLE
  5
38B
330
39
100
AcDbEntity
  8
TITELHOEK
  6
Continuous
 62
     1
100
AcDbCircle
 10
5.58691026530602
 20
-87.024859693878
 30
0.0
 40
2.0
  0
CIRCLE
  5
38C
330
39
100
AcDbEntity
  8
TITELHOEK
  6
Continuous
 62
     1
100
AcDbCircle
 10
5.58691026530602
 20
-87.024859693878
 30
0.0
 40
1.0
  0
CIRCLE
  5
38D
330
39
100
AcDbEntity
  8
TITELHOEK
  6
Continuous
 62
     1
100
AcDbCircle
 10
-19.95709673469399
 20
-95.923276693878
 30
0.0
 40
4.71854900000004
  0
CIRCLE
  5
38E
330
39
100
AcDbEntity
  8
TITELHOEK
  6
Continuous
 62
     1
100
AcDbCircle
 10
-29.786467734694
 20
-96.05394069387802
 30
0.0
 40
0.8275120000000094
  0
SPLINE
  5
38F
330
39
100
AcDbEntity
  8
0
  6
Continuous
 62
     3
100
AcDbSpline
210
0.0
220
0.0
230
1.0
 70
     8
 71
     3
 72
     9
 73
     5
 74
     3
 42
0.0000000001
 43
0.0000000001
 44
0.00000001
 40
0.0
 40
0.0
 40
0.0
 40
0.0
 40
0.6273033442537945
 40
1.127757060444625
 40
1.127757060444625
 40
1.127757060444625
 40
1.127757060444625
 10
2851.9046621474
 20
1695.598710501486
 30
0.0
 10
2851.722688946391
 20
1695.487945939353
 30
0.0
 10
2851.395540105037
 20
1695.288814979606
 30
0.0
 10
2851.20045299199
 20
1694.961175768069
 30
0.0
 10
2851.113881092659
 20
1694.815782520946
 30
0.0
 11
2851.9046621474
 21
1695.598710501486
 31
0.0
 11
2851.399602799392
 21
1695.226656015286
 31
0.0
 11
2851.113881092659
 21
1694.815782520946
 31
0.0
  0
SPLINE
  5
390
330
39
100
AcDbEntity
  8
0
  6
Continuous
 62
     7
100
AcDbSpline
210
0.0
220
0.0
230
1.0
 70
     8
 71
     3
 72
    13
 73
     9
 74
     7
 42
0.0000000001
 43
0.0000000001
 44
0.00000001
 40
0.0
 40
0.0
 40
0.0
 40
0.0
 40
0.3434250032904697
 40
0.6550073748190067
 40
0.9318099235910098
 40
1.176073285509049
 40
1.39697935434143
 40
1.610704793123044
 40
1.610704793123044
 40
1.610704793123044
 40
1.610704793123044
 10
2851.957875586371
 20
1694.549269516365
 30
0.0
 10
2851.961093833078
 20
1694.434640820425
 30
0.0
 10
2851.967231928172
 20
1694.216011889837
 30
0.0
 10
2852.032563181946
 20
1693.910575298127
 30
0.0
 10
2852.138442927247
 20
1693.651591254558
 30
0.0
 10
2852.286291550474
 20
1693.450741282825
 30
0.0
 10
2852.472632116206
 20
1693.31044478108
 30
0.0
 10
2852.616609917534
 20
1693.283167582447
 30
0.0
 10
2852.687409475837
 20
1693.269754309032
 30
0.0
 11
2851.957875586371
 21
1694.549269516365
 31
0.0
 11
2851.978467392874
 21
1694.206462412603
 31
0.0
 11
2852.044414601079
 21
1693.901938948848
 31
0.0
 11
2852.153183112768
 21
1693.64740199304
 31
0.0
 11
2852.30059282199
 21
1693.452632982152
 31
0.0
 11
2852.480979035339
 21
1693.325117080082
 31
0.0
 11
2852.687409475837
 21
1693.269754309032
 31
0.0
  0
SPLINE
  5
391
330
39
100
AcDbEntity
  8
0
  6
Continuous
 62
     3
100
AcDbSpline
210
0.0
220
0.0
230
1.0
 70
     8
 71
     3
 72
     9
 73
     5
 74
     3
 42
0.0000000001
 43
0.0000000001
 44
0.00000001
 40
0.0
 40
0.0
 40
0.0
 40
0.0
 40
0.6272810961989411
 40
1.127720564919031
 40
1.127720564919031
 40
1.127720564919031
 40
1.127720564919031
 10
2378.606185484892
 20
1437.276073571547
 30
0.0
 10
2378.788152595247
 20
1437.386832906382
 30
0.0
 10
2379.115291502713
 20
1437.585955086865
 30
0.0
 10
2379.31038114671
 20
1437.913577896517
 30
0.0
 10
2379.396954506132
 20
1438.058964431003
 30
0.0
 11
2378.606185484892
 21
1437.276073571547
 31
0.0
 11
2379.111230671316
 21
1437.648109770483
 31
0.0
 11
2379.396954506132
 21
1438.058964431003
 31
0.0
  0
SPLINE
  5
392
330
39
100
AcDbEntity
  8
0
  6
Continuous
 62
     7
100
AcDbSpline
210
0.0
220
0.0
230
1.0
 70
     8
 71
     3
 72
    13
 73
     9
 74
     7
 42
0.0000000001
 43
0.0000000001
 44
0.00000001
 40
0.0
 40
0.0
 40
0.0
 40
0.0
 40
0.3876940416889483
 40
0.8348092082197716
 40
1.32807272063006
 40
1.846597973680762
 40
2.365965667951961
 40
2.861644679417481
 40
2.861644679417481
 40
2.861644679417481
 40
2.861644679417481
 10
2378.938766534615
 20
1435.345510457079
 30
0.0
 10
2379.046474201944
 20
1435.418031967374
 30
0.0
 10
2379.278397684932
 20
1435.574190221248
 30
0.0
 10
2379.559591025193
 20
1435.923078014589
 30
0.0
 10
2379.807077848091
 20
1436.342697987375
 30
0.0
 10
2379.995472130015
 20
1436.818861487536
 30
0.0
 10
2380.123083746695
 20
1437.316681075895
 30
0.0
 10
2380.142706582867
 20
1437.655140022563
 30
0.0
 10
2380.15228902669
 20
1437.82042009801
 30
0.0
 11
2378.938766534615
 21
1435.345510457079
 31
0.0
 11
2379.249990850534
 21
1435.576694572324
 31
0.0
 11
2379.540871925957
 21
1435.916253362673
 31
0.0
 11
2379.791586780951
 21
1436.341048553512
 31
0.0
 11
2379.985050815789
 21
1436.822130776501
 31
0.0
 11
2380.108079171694
 21
1437.326716572472
 31
0.0
 11
2380.15228902669
 21
1437.82042009801
 31
0.0
  0
SPLINE
  5
393
330
39
100
AcDbEntity
  8
0
  6
Continuous
 62
     3
100
AcDbSpline
210
0.0
220
0.0
230
1.0
 70
     8
 71
     3
 72
     9
 73
     5
 74
     3
 42
0.0000000001
 43
0.0000000001
 44
0.00000001
 40
0.0
 40
0.0
 40
0.0
 40
0.0
 40
0.588131518847039
 40
1.012923160683616
 40
1.012923160683616
 40
1.012923160683616
 40
1.012923160683616
 10
1231.901588266485
 20
1682.550794709853
 30
0.0
 10
1231.715586252897
 20
1682.479637117875
 30
0.0
 10
1231.395239967314
 20
1682.357084303302
 30
0.0
 10
1231.157705540826
 20
1682.112046961589
 30
0.0
 10
1231.058090246263
 20
1682.009285154239
 30
0.0
 11
1231.901588266485
 21
1682.550794709853
 31
0.0
 11
1231.371500491707
 21
1682.296028867379
 31
0.0
 11
1231.058090246263
 21
1682.009285154239
 31
0.0
  0
SPLINE
  5
394
330
39
100
AcDbEntity
  8
0
  6
Continuous
 62
     7
100
AcDbSpline
210
0.0
220
0.0
230
1.0
 70
     8
 71
     3
 72
    13
 73
     9
 74
     7
 42
0.0000000001
 43
0.0000000001
 44
0.00000001
 40
0.0
 40
0.0
 40
0.0
 40
0.0
 40
0.3647683913264797
 40
0.7043709662948562
 40
1.013942149864268
 40
1.292397278519897
 40
1.543841089881008
 40
1.778518734641449
 40
1.778518734641449
 40
1.778518734641449
 40
1.778518734641449
 10
1231.883994875914
 20
1681.802836696207
 30
0.0
 10
1231.88617432205
 20
1681.681071732799
 30
0.0
 10
1231.890382851675
 20
1681.445942519371
 30
0.0
 10
1231.955178432045
 20
1681.112549730467
 30
0.0
 10
1232.061565686669
 20
1680.820167639801
 30
0.0
 10
1232.210930063305
 20
1680.58188370977
 30
0.0
 10
1232.396624843149
 20
1680.398940512499
 30
0.0
 10
1232.548560113346
 20
1680.338685036963
 30
0.0
 10
1232.621907650092
 20
1680.309596394805
 30
0.0
 11
1231.883994875914
 21
1681.802836696207
 31
0.0
 11
1231.901476166447
 21
1681.43848743548
 31
0.0
 11
1231.96611944912
 21
1681.105094041829
 31
0.0
 11
1232.075440866578
 21
1680.815468170433
 31
0.0
 11
1232.225239264024
 21
1680.580739180325
 31
0.0
 11
1232.409758445729
 21
1680.409927407152
 31
0.0
 11
1232.621907650092
 21
1680.309596394805
 31
0.0
  0
SPLINE
  5
395
330
39
100
AcDbEntity
  8
0
  6
Continuous
 62
     3
100
AcDbSpline
210
0.0
220
0.0
230
1.0
 70
     8
 71
     3
 72
     9
 73
     5
 74
     3
 42
0.0000000001
 43
0.0000000001
 44
0.00000001
 40
0.0
 40
0.0
 40
0.0
 40
0.0
 40
0.5881440591547221
 40
1.012942433085912
 40
1.012942433085912
 40
1.012942433085912
 40
1.012942433085912
 10
741.223427037426
 20
1508.090911362267
 30
0.0
 10
741.4094340560139
 20
1508.162067980943
 30
0.0
 10
741.7297882261307
 20
1508.284618837881
 30
0.0
 10
741.9673293085386
 20
1508.529658869325
 30
0.0
 10
742.0669470777749
 20
1508.632421478043
 30
0.0
 11
741.223427037426
 21
1508.090911362267
 31
0.0
 11
741.7535292848163
 21
1508.345676041198
 31
0.0
 11
742.0669470777749
 21
1508.632421478043
 31
0.0
  0
SPLINE
  5
396
330
39
100
AcDbEntity
  8
0
  6
Continuous
 62
     7
100
AcDbSpline
210
0.0
220
0.0
230
1.0
 70
     8
 71
     3
 72
    13
 73
     9
 74
     7
 42
0.0000000001
 43
0.0000000001
 44
0.00000001
 40
0.0
 40
0.0
 40
0.0
 40
0.0
 40
0.3696942712231049
 40
0.7945764233942253
 40
1.269218056088401
 40
1.778098152531486
 40
2.300138038564148
 40
2.81233843707132
 40
2.81233843707132
 40
2.81233843707132
 40
2.81233843707132
 10
741.5283191528118
 20
1506.095353713511
 30
0.0
 10
741.6400095210005
 20
1506.149410221439
 30
0.0
 10
741.8800633714139
 20
1506.26559278112
 30
0.0
 10
742.1766277080947
 20
1506.577683566792
 30
0.0
 10
742.4364243278494
 20
1506.969962939574
 30
0.0
 10
742.6356870152844
 20
1507.433052997204
 30
0.0
 10
742.7716003785613
 20
1507.93222108168
 30
0.0
 10
742.7946671805929
 20
1508.276934468539
 30
0.0
 10
742.8060908558929
 20
1508.44765140614
 30
0.0
 11
741.5283191528118
 21
1506.095353713511
 31
0.0
 11
741.8516151775644
 21
1506.274667780317
 31
0.0
 11
742.1551275673129
 21
1506.571997685477
 31
0.0
 11
742.4181722155029
 21
1506.967082730177
 31
0.0
 11
742.6228239989043
 21
1507.432997529369
 31
0.0
 11
742.7551353946981
 21
1507.937991922558
 31
0.0
 11
742.8060908558929
 21
1508.44765140614
 31
0.0
  0
SPLINE
  5
397
330
39
100
AcDbEntity
  8
0
  6
Continuous
 62
     3
100
AcDbSpline
210
0.0
220
0.0
230
1.0
 70
     8
 71
     3
 72
     9
 73
     5
 74
     3
 42
0.0000000001
 43
0.0000000001
 44
0.00000001
 40
0.0
 40
0.0
 40
0.0
 40
0.0
 40
0.5881305844974525
 40
1.012882377389903
 40
1.012882377389903
 40
1.012882377389903
 40
1.012882377389903
 10
13.46182573568501
 20
1689.844733433842
 30
0.0
 10
13.64782835551724
 20
1689.915884166883
 30
0.0
 10
13.96816329599207
 20
1690.038420429296
 30
0.0
 10
14.2057241378112
 20
1690.283409908545
 30
0.0
 10
14.30534517549154
 20
1690.386146142164
 30
0.0
 11
13.46182573568501
 21
1689.844733433842
 31
0.0
 11
13.99192590074711
 21
1690.09947133723
 31
0.0
 11
14.30534517549154
 21
1690.386146142164
 31
0.0
  0
SPLINE
  5
398
330
39
100
AcDbEntity
  8
0
  6
Continuous
 62
     7
100
AcDbSpline
210
0.0
220
0.0
230
1.0
 70
     8
 71
     3
 72
    13
 73
     9
 74
     7
 42
0.0000000001
 43
0.0000000001
 44
0.00000001
 40
0.0
 40
0.0
 40
0.0
 40
0.0
 40
0.3696865181232609
 40
0.7945518984497213
 40
1.269175621819922
 40
1.778042821982187
 40
2.300079283660984
 40
2.812288590116943
 40
2.812288590116943
 40
2.812288590116943
 40
2.812288590116943
 10
13.7670569543601
 20
1687.849190390791
 30
0.0
 10
13.8787436822272
 20
1687.903249009387
 30
0.0
 10
14.11878733355897
 20
1688.019434955933
 30
0.0
 10
14.41531880010432
 20
1688.331540079572
 30
0.0
 10
14.67506335243908
 20
1688.723835397172
 30
0.0
 10
14.87425887591397
 20
1689.186942596927
 30
0.0
 10
15.01009490373004
 20
1689.686129592791
 30
0.0
 10
15.03310476411098
 20
1690.030848707126
 30
0.0
 10
15.04450037721426
 20
1690.201570545122
 30
0.0
 11
13.7670569543601
 21
1687.849190390791
 31
0.0
 11
14.09033968151299
 21
1688.028512447456
 31
0.0
 11
14.39381768480229
 21
1688.325853485525
 31
0.0
 11
14.65680940658969
 21
1688.720952249199
 31
0.0
 11
14.86139350908093
 21
1689.186882686506
 31
0.0
 11
14.99362722035344
 21
1689.691893887298
 31
0.0
 11
15.04450037721426
 21
1690.201570545122
 31
0.0
  0
SPLINE
  5
399
330
39
100
AcDbEntity
  8
0
  6
Continuous
 62
     3
100
AcDbSpline
210
0.0
220
0.0
230
1.0
 70
     8
 71
     3
 72
    11
 73
     7
 74
     5
 42
0.0000000001
 43
0.0000000001
 44
0.00000001
 40
0.0
 40
0.0
 40
0.0
 40
0.0
 40
0.1373470939945948
 40
0.3037067399154843
 40
0.5036488521594711
 40
0.7358024600650341
 40
0.7358024600650341
 40
0.7358024600650341
 40
0.7358024600650341
 10
1596.554357202764
 20
1558.805064543718
 30
0.0
 10
1596.575260262185
 20
1558.763832835199
 30
0.0
 10
1596.621481844645
 20
1558.672659826645
 30
0.0
 10
1596.755364286293
 20
1558.565147146477
 30
0.0
 10
1596.929034085881
 20
1558.466783367708
 30
0.0
 10
1597.065458771834
 20
1558.419348147748
 30
0.0
 10
1597.138756149185
 20
1558.393862458023
 30
0.0
 11
1596.554357202764
 21
1558.805064543718
 31
0.0
 11
1596.624124529939
 21
1558.686756706752
 31
0.0
 11
1596.748278611104
 21
1558.576025970635
 31
0.0
 11
1596.922048521296
 21
1558.477127706948
 31
0.0
 11
1597.138756149185
 21
1558.393862458023
 31
0.0
  0
SPLINE
  5
39A
330
39
100
AcDbEntity
  8
0
  6
Continuous
 62
     3
100
AcDbSpline
210
0.0
220
0.0
230
1.0
 70
     8
 71
     3
 72
    11
 73
     7
 74
     5
 42
0.0000000001
 43
0.0000000001
 44
0.00000001
 40
0.0
 40
0.0
 40
0.0
 40
0.0
 40
0.2253908826976317
 40
0.4213526440008844
 40
0.5873391767401607
 40
0.7328038270686199
 40
0.7328038270686199
 40
0.7328038270686199
 40
0.7328038270686199
 10
1597.138748199017
 20
1558.393858132012
 30
0.0
 10
1597.141610171705
 20
1558.318411072978
 30
0.0
 10
1597.146960431417
 20
1558.177368021789
 30
0.0
 10
1597.204445651014
 20
1557.989240998516
 30
0.0
 10
1597.295767833844
 20
1557.839088243009
 30
0.0
 10
1597.389710038408
 20
1557.790926832911
 30
0.0
 10
1597.433586159871
 20
1557.768432833658
 30
0.0
 11
1597.138748199017
 21
1558.393858132012
 31
0.0
 11
1597.15760351537
 21
1558.169257314898
 31
0.0
 11
1597.216090091013
 21
1557.982227016917
 31
0.0
 11
1597.310222774888
 21
1557.845513568869
 31
0.0
 11
1597.433586159871
 21
1557.768432833658
 31
0.0
  0
SPLINE
  5
39B
330
39
100
AcDbEntity
  8
0
  6
Continuous
 62
     7
100
AcDbSpline
210
0.0
220
0.0
230
1.0
 70
     8
 71
     3
 72
     9
 73
     5
 74
     3
 42
0.0000000001
 43
0.0000000001
 44
0.00000001
 40
0.0
 40
0.0
 40
0.0
 40
0.0
 40
0.0317136575155849
 40
0.0636412814224097
 40
0.0636412814224097
 40
0.0636412814224097
 40
0.0636412814224097
 10
1597.433586159871
 20
1557.768432833658
 30
0.0
 10
1597.443718359662
 20
1557.76535378716
 30
0.0
 10
1597.464051119391
 20
1557.759174920388
 30
0.0
 10
1597.485105991944
 20
1557.75629314632
 30
0.0
 10
1597.495668822189
 20
1557.754847414925
 30
0.0
 11
1597.433586159871
 21
1557.768432833658
 31
0.0
 11
1597.464162075596
 21
1557.760014434132
 31
0.0
 11
1597.495668822189
 21
1557.754847414925
 31
0.0
  0
SPLINE
  5
39C
330
39
100
AcDbEntity
  8
0
  6
Continuous
 62
     7
100
AcDbSpline
210
0.0
220
0.0
230
1.0
 70
     8
 71
     3
 72
     9
 73
     5
 74
     3
 42
0.0000000001
 43
0.0000000001
 44
0.00000001
 40
0.0
 40
0.0
 40
0.0
 40
0.0
 40
0.063918018537201
 40
0.128488678285916
 40
0.128488678285916
 40
0.128488678285916
 40
0.128488678285916
 10
1629.750166489965
 20
1559.533449768826
 30
0.0
 10
1629.767827132472
 20
1559.545449536277
 30
0.0
 10
1629.803328743213
 20
1559.569571595982
 30
0.0
 10
1629.834055890812
 20
1559.599541197579
 30
0.0
 10
1629.849497501848
 20
1559.614602111687
 30
0.0
 11
1629.750166489965
 21
1559.533449768826
 31
0.0
 11
1629.801966896532
 21
1559.570896143459
 31
0.0
 11
1629.849497501848
 21
1559.614602111687
 31
0.0
  0
SPLINE
  5
39D
330
39
100
AcDbEntity
  8
0
  6
Continuous
 62
     3
100
AcDbSpline
210
0.0
220
0.0
230
1.0
 70
     8
 71
     3
 72
    11
 73
     7
 74
     5
 42
0.0000000001
 43
0.0000000001
 44
0.00000001
 40
0.0
 40
0.0
 40
0.0
 40
0.0
 40
0.1323768233274733
 40
0.2712588905258893
 40
0.4180083259207657
 40
0.5729084410421946
 40
0.5729084410421946
 40
0.5729084410421946
 40
0.5729084410421946
 10
1629.849497501848
 20
1559.614602111687
 30
0.0
 10
1629.878103987294
 20
1559.648444168115
 30
0.0
 10
1629.936722734207
 20
1559.717791342712
 30
0.0
 10
1629.994863860895
 20
1559.845984470639
 30
0.0
 10
1630.033091952775
 20
1559.988625836977
 30
0.0
 10
1630.03804497418
 20
1560.089326896907
 30
0.0
 10
1630.040588401095
 20
1560.141037916364
 30
0.0
 11
1629.849497501848
 21
1559.614602111687
 31
0.0
 11
1629.930342152458
 21
1559.719424656123
 31
0.0
 11
1629.990236926585
 21
1559.844727667346
 31
0.0
 11
1630.027361697228
 21
1559.986703539217
 31
0.0
 11
1630.040588401095
 21
1560.141037916364
 31
0.0
  0
SPLINE
  5
39E
330
39
100
AcDbEntity
  8
0
  6
Continuous
 62
     3
100
AcDbSpline
210
0.0
220
0.0
230
1.0
 70
     8
 71
     3
 72
    11
 73
     7
 74
     5
 42
0.0000000001
 43
0.0000000001
 44
0.00000001
 40
0.0
 40
0.0
 40
0.0
 40
0.0
 40
0.2253900292297589
 40
0.4213519498474367
 40
0.5873390125474117
 40
0.7328031733242155
 40
0.7328031733242155
 40
0.7328031733242155
 40
0.7328031733242155
 10
1614.731451769189
 20
1552.841961646991
 30
0.0
 10
1614.734312849605
 20
1552.766514857761
 30
0.0
 10
1614.739661452718
 20
1552.625472009235
 30
0.0
 10
1614.797143107728
 20
1552.437344052059
 30
0.0
 10
1614.888460354206
 20
1552.28718877483
 30
0.0
 10
1614.982400002341
 20
1552.239022636589
 30
0.0
 10
1615.026274776462
 20
1552.216526507664
 30
0.0
 11
1614.731451769189
 21
1552.841961646991
 31
0.0
 11
1614.750304090949
 21
1552.617361434969
 31
0.0
 11
1614.808786929261
 21
1552.430329801401
 31
0.0
 11
1614.902915482248
 21
1552.293612865741
 31
0.0
 11
1615.026274776462
 21
1552.216526507664
 31
0.0
  0
SPLINE
  5
39F
330
39
100
AcDbEntity
  8
0
  6
Continuous
 62
     7
100
AcDbSpline
210
0.0
220
0.0
230
1.0
 70
     8
 71
     3
 72
     9
 73
     5
 74
     3
 42
0.0000000001
 43
0.0000000001
 44
0.00000001
 40
0.0
 40
0.0
 40
0.0
 40
0.0
 40
0.031713035350675
 40
0.0636399010607337
 40
0.0636399010607337
 40
0.0636399010607337
 40
0.0636399010607337
 10
1615.026274776462
 20
1552.216526507664
 30
0.0
 10
1615.036406612619
 20
1552.213446980403
 30
0.0
 10
1615.056738600506
 20
1552.207267161662
 30
0.0
 10
1615.077792856294
 20
1552.204384287608
 30
0.0
 10
1615.088355355386
 20
1552.202938007346
 30
0.0
 11
1615.026274776462
 21
1552.216526507664
 31
0.0
 11
1615.056849640535
 21
1552.208106632484
 31
0.0
 11
1615.088355355386
 21
1552.202938007346
 31
0.0
  0
SPLINE
  5
3A0
330
39
100
AcDbEntity
  8
0
  6
Continuous
 62
     3
100
AcDbSpline
210
0.0
220
0.0
230
1.0
 70
     8
 71
     3
 72
    13
 73
     9
 74
     7
 42
0.0000000001
 43
0.0000000001
 44
0.00000001
 40
0.0
 40
0.0
 40
0.0
 40
0.0
 40
0.3506954561926437
 40
0.7323271327858796
 40
1.123884125586399
 40
1.503295741606025
 40
1.849793166601218
 40
2.146511280195256
 40
2.146511280195256
 40
2.146511280195256
 40
2.146511280195256
 10
1614.731442470452
 20
1552.841956587208
 30
0.0
 10
1614.844582446442
 20
1552.811915707755
 30
0.0
 10
1615.080842919046
 20
1552.749183925157
 30
0.0
 10
1615.454984793844
 20
1552.712108486377
 30
0.0
 10
1615.839816199846
 20
1552.710209767775
 30
0.0
 10
1616.21039189045
 20
1552.751257680858
 30
0.0
 10
1616.545740850955
 20
1552.82334911615
 30
0.0
 10
1616.741351921356
 20
1552.912404266423
 30
0.0
 10
1616.831588155286
 20
1552.953485792925
 30
0.0
 11
1614.731442470452
 21
1552.841956587208
 31
0.0
 11
1615.072589619176
 21
1552.76067973988
 31
0.0
 11
1615.451865305075
 21
1552.718339561971
 31
0.0
 11
1615.843421956058
 21
1552.717822182181
 31
0.0
 11
1616.220574677102
 21
1552.759162227898
 31
0.0
 11
1616.55761978492
 21
1552.839542952107
 31
0.0
 11
1616.831588155286
 21
1552.953485792925
 31
0.0
  0
SPLINE
  5
3A1
330
39
100
AcDbEntity
  8
0
  6
Continuous
 62
     3
100
AcDbSpline
210
0.0
220
0.0
230
1.0
 70
     8
 71
     3
 72
    11
 73
     7
 74
     5
 42
0.0000000001
 43
0.0000000001
 44
0.00000001
 40
0.0
 40
0.0
 40
0.0
 40
0.0
 40
0.1606643235393843
 40
0.3287747687983873
 40
0.5082799820245669
 40
0.7005134551326552
 40
0.7005134551326552
 40
0.7005134551326552
 40
0.7005134551326552
 10
1616.541168164298
 20
1552.345898816309
 30
0.0
 10
1616.58396083497
 20
1552.37876320066
 30
0.0
 10
1616.671529438231
 20
1552.446015096591
 30
0.0
 10
1616.761606321968
 20
1552.59315161001
 30
0.0
 10
1616.820375987747
 20
1552.765009885356
 30
0.0
 10
1616.827753977673
 20
1552.889246514637
 30
0.0
 10
1616.831569283103
 20
1552.953491748217
 30
0.0
 11
1616.541168164298
 21
1552.345898816309
 31
0.0
 11
1616.662548387671
 21
1552.451159759836
 31
0.0
 11
1616.75402962395
 21
1552.59219984355
 31
0.0
 11
1616.811274497928
 21
1552.762332574025
 31
0.0
 11
1616.831569283103
 21
1552.953491748217
 31
0.0
  0
SPLINE
  5
3A2
330
39
100
AcDbEntity
  8
0
  6
Continuous
 62
     7
100
AcDbSpline
210
0.0
220
0.0
230
1.0
 70
     8
 71
     3
 72
     9
 73
     5
 74
     3
 42
0.0000000001
 43
0.0000000001
 44
0.00000001
 40
0.0
 40
0.0
 40
0.0
 40
0.0
 40
0.107379718776601
 40
0.213484879140547
 40
0.213484879140547
 40
0.213484879140547
 40
0.213484879140547
 10
1616.342914047141
 20
1552.269554248052
 30
0.0
 10
1616.378054191449
 20
1552.277427662161
 30
0.0
 10
1616.447917379266
 20
1552.293081035804
 30
0.0
 10
1616.510208533906
 20
1552.328363103747
 30
0.0
 10
1616.541168164298
 20
1552.345898816309
 30
0.0
 11
1616.342914047141
 21
1552.269554248052
 31
0.0
 11
1616.446418800826
 21
1552.298140432987
 31
0.0
 11
1616.541168164298
 21
1552.345898816309
 31
0.0
  0
SPLINE
  5
3A3
330
39
100
AcDbEntity
  8
0
  6
Continuous
 62
     3
100
AcDbSpline
210
0.0
220
0.0
230
1.0
 70
     8
 71
     3
 72
    11
 73
     7
 74
     5
 42
0.0000000001
 43
0.0000000001
 44
0.00000001
 40
0.0
 40
0.0
 40
0.0
 40
0.0
 40
0.1373464485276396
 40
0.3037052259621543
 40
0.5036464996681608
 40
0.7357994403644295
 40
0.7357994403644295
 40
0.7357994403644295
 40
0.7357994403644295
 10
2340.231197445607
 20
1324.115280517367
 30
0.0
 10
2340.252099881694
 20
1324.07404872312
 30
0.0
 10
2340.298320072627
 20
1323.982875551021
 30
0.0
 10
2340.43220117504
 20
1323.875362326279
 30
0.0
 10
2340.605869779363
 20
1323.776998046875
 30
0.0
 10
2340.742293831958
 20
1323.729562513227
 30
0.0
 10
2340.815590913789
 20
1323.704076639399
 30
0.0
 11
2340.231197445607
 21
1324.115280517367
 31
0.0
 11
2340.300963021054
 21
1323.996972396742
 31
0.0
 11
2340.425115572022
 21
1323.886241249735
 31
0.0
 11
2340.598884225175
 21
1323.787342472631
 31
0.0
 11
2340.815590913789
 21
1323.704076639399
 31
0.0
  0
SPLINE
  5
3A4
330
39
100
AcDbEntity
  8
0
  6
Continuous
 62
     3
100
AcDbSpline
210
0.0
220
0.0
230
1.0
 70
     8
 71
     3
 72
    11
 73
     7
 74
     5
 42
0.0000000001
 43
0.0000000001
 44
0.00000001
 40
0.0
 40
0.0
 40
0.0
 40
0.0
 40
0.2253901183796001
 40
0.4213516457274781
 40
0.5873381954845633
 40
0.7328024433066269
 40
0.7328024433066269
 40
0.7328024433066269
 40
0.7328024433066269
 10
2340.81558984599
 20
1323.704076058365
 30
0.0
 10
2340.818451449942
 20
1323.62862925021
 30
0.0
 10
2340.823801025792
 20
1323.487586523895
 30
0.0
 10
2340.881284608242
 20
1323.29945938764
 30
0.0
 10
2340.972604425405
 20
1323.1493057226
 30
0.0
 10
2341.066545305619
 20
1323.10114215877
 30
0.0
 10
2341.110420741438
 20
1323.078647188009
 30
0.0
 11
2340.81558984599
 21
1323.704076058365
 31
0.0
 11
2340.834443886517
 21
1323.479475901155
 31
0.0
 11
2340.892928736501
 21
1323.292445308676
 31
0.0
 11
2340.98705941617
 21
1323.155730460012
 31
0.0
 11
2341.110420741438
 21
1323.078647188009
 31
0.0
  0
SPLINE
  5
3A5
330
39
100
AcDbEntity
  8
0
  6
Continuous
 62
     7
100
AcDbSpline
210
0.0
220
0.0
230
1.0
 70
     8
 71
     3
 72
     9
 73
     5
 74
     3
 42
0.0000000001
 43
0.0000000001
 44
0.00000001
 40
0.0
 40
0.0
 40
0.0
 40
0.0
 40
0.0317056938622161
 40
0.0636251261484437
 40
0.0636251261484437
 40
0.0636251261484437
 40
0.0636251261484437
 10
2341.110420741438
 20
1323.078647188009
 30
0.0
 10
2341.120550289956
 20
1323.075568593404
 30
0.0
 10
2341.140877673582
 20
1323.069390650382
 30
0.0
 10
2341.161926979862
 20
1323.0665081247
 30
0.0
 10
2341.17248698889
 20
1323.065062020167
 30
0.0
 11
2341.110420741438
 21
1323.078647188009
 31
0.0
 11
2341.1409886571
 21
1323.070229732611
 31
0.0
 11
2341.17248698889
 21
1323.065062020167
 31
0.0
  0
SPLINE
  5
3A6
330
39
100
AcDbEntity
  8
0
  6
Continuous
 62
     7
100
AcDbSpline
210
0.0
220
0.0
230
1.0
 70
     8
 71
     3
 72
     9
 73
     5
 74
     3
 42
0.0000000001
 43
0.0000000001
 44
0.00000001
 40
0.0
 40
0.0
 40
0.0
 40
0.0
 40
0.0639200959220245
 40
0.1284930422089936
 40
0.1284930422089936
 40
0.1284930422089936
 40
0.1284930422089936
 10
2373.427029528752
 20
1324.843675409109
 30
0.0
 10
2373.444690165234
 20
1324.855676423389
 30
0.0
 10
2373.480191815789
 20
1324.879801024771
 30
0.0
 10
2373.51091844759
 20
1324.909773248747
 30
0.0
 10
2373.526359821775
 20
1324.924835502513
 30
0.0
 11
2373.427029528752
 21
1324.843675409109
 31
0.0
 11
2373.478829783204
 21
1324.881125539969
 31
0.0
 11
2373.526359821775
 21
1324.924835502513
 31
0.0
  0
SPLINE
  5
3A7
330
39
100
AcDbEntity
  8
0
  6
Continuous
 62
     3
100
AcDbSpline
210
0.0
220
0.0
230
1.0
 70
     8
 71
     3
 72
    11
 73
     7
 74
     5
 42
0.0000000001
 43
0.0000000001
 44
0.00000001
 40
0.0
 40
0.0
 40
0.0
 40
0.0
 40
0.1323715334000676
 40
0.2712480284015619
 40
0.4179912404069286
 40
0.5728843275729578
 40
0.5728843275729578
 40
0.5728843275729578
 40
0.5728843275729578
 10
2373.526359821775
 20
1324.924835502513
 30
0.0
 10
2373.554963520599
 20
1324.958677563604
 30
0.0
 10
2373.613576552509
 20
1325.02802474205
 30
0.0
 10
2373.671711377421
 20
1325.156214202192
 30
0.0
 10
2373.709935067099
 20
1325.298850118281
 30
0.0
 10
2373.714887119608
 20
1325.399546760864
 30
0.0
 10
2373.717430045321
 20
1325.451255437438
 30
0.0
 11
2373.526359821775
 21
1324.924835502513
 31
0.0
 11
2373.607196506299
 21
1325.029657510173
 31
0.0
 11
2373.667084954862
 21
1325.154957368882
 31
0.0
 11
2373.704205408854
 21
1325.296927936836
 31
0.0
 11
2373.717430045321
 21
1325.451255437438
 31
0.0
  0
SPLINE
  5
3A8
330
39
100
AcDbEntity
  8
0
  6
Continuous
 62
     3
100
AcDbSpline
210
0.0
220
0.0
230
1.0
 70
     8
 71
     3
 72
    11
 73
     7
 74
     5
 42
0.0000000001
 43
0.0000000001
 44
0.00000001
 40
0.0
 40
0.0
 40
0.0
 40
0.0
 40
0.2254001490140869
 40
0.4213694926996372
 40
0.5873615850395543
 40
0.7328306619837762
 40
0.7328306619837762
 40
0.7328306619837762
 40
0.7328306619837762
 10
2358.408293416203
 20
1318.1521795702
 30
0.0
 10
2358.411154436503
 20
1318.076729352899
 30
0.0
 10
2358.416502909775
 20
1317.935680556227
 30
0.0
 10
2358.473988381123
 20
1317.747545787197
 30
0.0
 10
2358.565313347531
 20
1317.597387061619
 30
0.0
 10
2358.659259447549
 20
1317.549225544806
 30
0.0
 10
2358.703137316765
 20
1317.526731532435
 30
0.0
 11
2358.408293416203
 21
1318.1521795702
 31
0.0
 11
2358.427146483005
 21
1317.927569265343
 31
0.0
 11
2358.485633549411
 21
1317.740531176368
 31
0.0
 11
2358.579769169886
 21
1317.603813000263
 31
0.0
 11
2358.703137316765
 21
1317.526731532435
 31
0.0
  0
SPLINE
  5
3A9
330
39
100
AcDbEntity
  8
0
  6
Continuous
 62
     7
100
AcDbSpline
210
0.0
220
0.0
230
1.0
 70
     8
 71
     3
 72
     9
 73
     5
 74
     3
 42
0.0000000001
 43
0.0000000001
 44
0.00000001
 40
0.0
 40
0.0
 40
0.0
 40
0.0
 40
0.0317053430226657
 40
0.0636245252459333
 40
0.0636245252459333
 40
0.0636245252459333
 40
0.0636245252459333
 10
2358.703137316765
 20
1317.526731532435
 30
0.0
 10
2358.713266895214
 20
1317.523653441622
 30
0.0
 10
2358.733594371856
 20
1317.517476499568
 30
0.0
 10
2358.754643603477
 20
1317.514594917095
 30
0.0
 10
2358.765203592053
 20
1317.513149283423
 30
0.0
 11
2358.703137316765
 21
1317.526731532435
 31
0.0
 11
2358.73370528
 21
1317.518315571418
 31
0.0
 11
2358.765203592053
 21
1317.513149283423
 31
0.0
  0
SPLINE
  5
3AA
330
39
100
AcDbEntity
  8
0
  6
Continuous
 62
     3
100
AcDbSpline
210
0.0
220
0.0
230
1.0
 70
     8
 71
     3
 72
    13
 73
     9
 74
     7
 42
0.0000000001
 43
0.0000000001
 44
0.00000001
 40
0.0
 40
0.0
 40
0.0
 40
0.0
 40
0.3506881056728373
 40
0.7323121294853359
 40
1.12386237175016
 40
1.503269283345859
 40
1.849764923174789
 40
2.14648449815866
 40
2.14648449815866
 40
2.14648449815866
 40
2.14648449815866
 10
2358.408277224525
 20
1318.152170759954
 30
0.0
 10
2358.521414710138
 20
1318.122130076373
 30
0.0
 10
2358.757670093978
 20
1318.059398673145
 30
0.0
 10
2359.13180449825
 20
1318.022321890137
 30
0.0
 10
2359.51662946933
 20
1318.020420587881
 30
0.0
 10
2359.887201180029
 20
1318.061464511336
 30
0.0
 10
2360.222549132463
 20
1318.133551542708
 30
0.0
 10
2360.418162181113
 20
1318.222601948168
 30
0.0
 10
2360.508399817475
 20
1318.263681508868
 30
0.0
 11
2358.408277224525
 21
1318.152170759954
 31
0.0
 11
2358.749416887909
 21
1318.070894210282
 31
0.0
 11
2359.128684736479
 21
1318.028552805104
 31
0.0
 11
2359.520234633251
 21
1318.028032656102
 31
0.0
 11
2359.897383073669
 21
1318.069368578219
 31
0.0
 11
2360.234427562221
 21
1318.149744203609
 31
0.0
 11
2360.508399817475
 21
1318.263681508868
 31
0.0
  0
SPLINE
  5
3AB
330
39
100
AcDbEntity
  8
0
  6
Continuous
 62
     3
100
AcDbSpline
210
0.0
220
0.0
230
1.0
 70
     8
 71
     3
 72
    11
 73
     7
 74
     5
 42
0.0000000001
 43
0.0000000001
 44
0.00000001
 40
0.0
 40
0.0
 40
0.0
 40
0.0
 40
0.1606586343057845
 40
0.3287627518140833
 40
0.5082606847579828
 40
0.7004859807794768
 40
0.7004859807794768
 40
0.7004859807794768
 40
0.7004859807794768
 10
2360.218011425338
 20
1317.656111878596
 30
0.0
 10
2360.260802547574
 20
1317.688975097546
 30
0.0
 10
2360.348367882364
 20
1317.756224531989
 30
0.0
 10
2360.438443012322
 20
1317.903354196093
 30
0.0
 10
2360.497213403881
 20
1318.075204408757
 30
0.0
 10
2360.504594043241
 20
1318.199435672296
 30
0.0
 10
2360.508410715095
 20
1318.263678069725
 30
0.0
 11
2360.218011425338
 21
1317.656111878596
 31
0.0
 11
2360.339387516762
 21
1317.761368903101
 31
0.0
 11
2360.430866846542
 21
1317.902402681134
 31
0.0
 11
2360.48811243569
 21
1318.072527489596
 31
0.0
 11
2360.508410715095
 21
1318.263678069725
 31
0.0
  0
SPLINE
  5
3AC
330
39
100
AcDbEntity
  8
0
  6
Continuous
 62
     7
100
AcDbSpline
210
0.0
220
0.0
230
1.0
 70
     8
 71
     3
 72
     9
 73
     5
 74
     3
 42
0.0000000001
 43
0.0000000001
 44
0.00000001
 40
0.0
 40
0.0
 40
0.0
 40
0.0
 40
0.1073664975327689
 40
0.2134590001028239
 40
0.2134590001028239
 40
0.2134590001028239
 40
0.2134590001028239
 10
2360.019783195416
 20
1317.579771081241
 30
0.0
 10
2360.054918617125
 20
1317.587645061288
 30
0.0
 10
2360.12477254883
 20
1317.603299589899
 30
0.0
 10
2360.18705570877
 20
1317.638577966762
 30
0.0
 10
2360.218011425338
 20
1317.656111878596
 30
0.0
 11
2360.019783195416
 21
1317.579771081241
 31
0.0
 11
2360.123274107727
 21
1317.608357719055
 31
0.0
 11
2360.218011425338
 21
1317.656111878596
 31
0.0
  0
SPLINE
  5
3AD
330
39
100
AcDbEntity
  8
0
  6
Continuous
 62
     3
100
AcDbSpline
210
0.0
220
0.0
230
1.0
 70
     8
 71
     3
 72
    11
 73
     7
 74
     5
 42
0.0000000001
 43
0.0000000001
 44
0.00000001
 40
0.0
 40
0.0
 40
0.0
 40
0.0
 40
0.1373466926108132
 40
0.3037058173159334
 40
0.5036475251818533
 40
0.7358009501135294
 40
0.7358009501135294
 40
0.7358009501135294
 40
0.7358009501135294
 10
2832.569757821599
 20
1592.016702126167
 30
0.0
 10
2832.590660343125
 20
1591.975470283287
 30
0.0
 10
2832.636880730841
 20
1591.884296988151
 30
0.0
 10
2832.770762226772
 20
1591.77678369673
 30
0.0
 10
2832.944431291101
 20
1591.678419377644
 30
0.0
 10
2833.080855671983
 20
1591.630983854452
 30
0.0
 10
2833.154152927291
 20
1591.605497987251
 30
0.0
 11
2832.569757821599
 21
1592.016702126167
 31
0.0
 11
2832.639523657778
 21
1591.898393875933
 31
0.0
 11
2832.763676589921
 21
1591.787662634574
 31
0.0
 11
2832.937445716501
 21
1591.688763811568
 31
0.0
 11
2833.154152927291
 21
1591.605497987251
 31
0.0
  0
SPLINE
  5
3AE
330
39
100
AcDbEntity
  8
0
  6
Continuous
 62
     3
100
AcDbSpline
210
0.0
220
0.0
230
1.0
 70
     8
 71
     3
 72
    11
 73
     7
 74
     5
 42
0.0000000001
 43
0.0000000001
 44
0.00000001
 40
0.0
 40
0.0
 40
0.0
 40
0.0
 40
0.2253914680826941
 40
0.4213538672253225
 40
0.5873409441520099
 40
0.7328058589538236
 40
0.7328058589538236
 40
0.7328058589538236
 40
0.7328058589538236
 10
2833.154150108288
 20
1591.605496453295
 30
0.0
 10
2833.157011839328
 20
1591.530049190836
 30
0.0
 10
2833.162361648935
 20
1591.389005716215
 30
0.0
 10
2833.219846228614
 20
1591.20087789855
 30
0.0
 10
2833.311167720605
 20
1591.050724197058
 30
0.0
 10
2833.405109764291
 20
1591.002561902784
 30
0.0
 10
2833.448985776466
 20
1590.980067508081
 30
0.0
 11
2833.154150108288
 21
1591.605496453295
 31
0.0
 11
2833.1730046896
 21
1591.380894987031
 31
0.0
 11
2833.231490612508
 21
1591.193863816636
 31
0.0
 11
2833.325622766996
 21
1591.057149343378
 31
0.0
 11
2833.448985776466
 21
1590.980067508081
 31
0.0
  0
SPLINE
  5
3AF
330
39
100
AcDbEntity
  8
0
  6
Continuous
 62
     7
100
AcDbSpline
210
0.0
220
0.0
230
1.0
 70
     8
 71
     3
 72
     9
 73
     5
 74
     3
 42
0.0000000001
 43
0.0000000001
 44
0.00000001
 40
0.0
 40
0.0
 40
0.0
 40
0.0
 40
0.0317085943106236
 40
0.0636310282664834
 40
0.0636310282664834
 40
0.0636310282664834
 40
0.0636310282664834
 10
2833.448985776466
 20
1590.980067508081
 30
0.0
 10
2833.459116314708
 20
1590.97698882837
 30
0.0
 10
2833.479445710548
 20
1590.970810706634
 30
0.0
 10
2833.50049707214
 20
1590.967928615011
 30
0.0
 10
2833.511058125739
 20
1590.966482726393
 30
0.0
 11
2833.448985776466
 21
1590.980067508081
 31
0.0
 11
2833.479556671544
 21
1590.971649947431
 31
0.0
 11
2833.511058125739
 21
1590.966482726393
 31
0.0
  0
SPLINE
  5
3B0
330
39
100
AcDbEntity
  8
0
  6
Continuous
 62
     7
100
AcDbSpline
210
0.0
220
0.0
230
1.0
 70
     8
 71
     3
 72
     9
 73
     5
 74
     3
 42
0.0000000001
 43
0.0000000001
 44
0.00000001
 40
0.0
 40
0.0
 40
0.0
 40
0.0
 40
0.0639182608726002
 40
0.1284891737539145
 40
0.1284891737539145
 40
0.1284891737539145
 40
0.1284891737539145
 10
2865.76556897685
 20
1592.745084074591
 30
0.0
 10
2865.783229669009
 20
1592.75708391355
 30
0.0
 10
2865.818731381859
 20
1592.781206118567
 30
0.0
 10
2865.84945858669
 20
1592.811175899445
 30
0.0
 10
2865.864900227478
 20
1592.826236904614
 30
0.0
 11
2865.76556897685
 21
1592.745084074591
 31
0.0
 11
2865.817369521419
 21
1592.782530671971
 31
0.0
 11
2865.864900227478
 21
1592.826236904614
 31
0.0
  0
SPLINE
  5
3B1
330
39
100
AcDbEntity
  8
0
  6
Continuous
 62
     3
100
AcDbSpline
210
0.0
220
0.0
230
1.0
 70
     8
 71
     3
 72
    11
 73
     7
 74
     5
 42
0.0000000001
 43
0.0000000001
 44
0.00000001
 40
0.0
 40
0.0
 40
0.0
 40
0.0
 40
0.1323772445602796
 40
0.2712597915146642
 40
0.4180097616235973
 40
0.5729104520486924
 40
0.5729104520486924
 40
0.5729104520486924
 40
0.5729104520486924
 10
2865.864900227478
 20
1592.826236904614
 30
0.0
 10
2865.893506726534
 20
1592.860079134986
 30
0.0
 10
2865.95212550951
 20
1592.929426675687
 30
0.0
 10
2866.010266483476
 20
1593.0576204088
 30
0.0
 10
2866.048494297249
 20
1593.200262402278
 30
0.0
 10
2866.053447025802
 20
1593.300963848589
 30
0.0
 10
2866.055990302422
 20
1593.352675068225
 30
0.0
 11
2865.864900227478
 21
1592.826236904614
 31
0.0
 11
2865.945744887099
 21
1592.93105997406
 31
0.0
 11
2866.00563952945
 21
1593.056363580019
 31
0.0
 11
2866.04276402156
 21
1593.198340077414
 31
0.0
 11
2866.055990302422
 21
1593.352675068225
 31
0.0
  0
SPLINE
  5
3B2
330
39
100
AcDbEntity
  8
0
  6
Continuous
 62
     3
100
AcDbSpline
210
0.0
220
0.0
230
1.0
 70
     8
 71
     3
 72
    11
 73
     7
 74
     5
 42
0.0000000001
 43
0.0000000001
 44
0.00000001
 40
0.0
 40
0.0
 40
0.0
 40
0.0
 40
0.2254024705610319
 40
0.4213733696171814
 40
0.5873664365590133
 40
0.732836655447747
 40
0.732836655447747
 40
0.732836655447747
 40
0.732836655447747
 10
2850.746853678471
 20
1586.053599963121
 30
0.0
 10
2850.749714853519
 20
1585.978148963023
 30
0.0
 10
2850.755063610202
 20
1585.837098857967
 30
0.0
 10
2850.812550566109
 20
1585.648962809577
 30
0.0
 10
2850.903878108501
 20
1585.498803821253
 30
0.0
 10
2850.997826066543
 20
1585.450644179622
 30
0.0
 10
2851.041704849829
 20
1585.428151019342
 30
0.0
 11
2850.746853678471
 21
1586.053599963121
 31
0.0
 11
2850.765707466841
 21
1585.828987389121
 31
0.0
 11
2850.824196138205
 21
1585.64194817238
 31
0.0
 11
2850.918334043963
 21
1585.505230386514
 31
0.0
 11
2851.041704849829
 21
1585.428151019342
 31
0.0
  0
SPLINE
  5
3B3
330
39
100
AcDbEntity
  8
0
  6
Continuous
 62
     7
100
AcDbSpline
210
0.0
220
0.0
230
1.0
 70
     8
 71
     3
 72
     9
 73
     5
 74
     3
 42
0.0000000001
 43
0.0000000001
 44
0.00000001
 40
0.0
 40
0.0
 40
0.0
 40
0.0
 40
0.0316971470602155
 40
0.0636080184449787
 40
0.0636080184449787
 40
0.0636080184449787
 40
0.0636080184449787
 10
2851.041704849829
 20
1585.428151019342
 30
0.0
 10
2851.051831858132
 20
1585.425073916179
 30
0.0
 10
2851.072154158107
 20
1585.418898961872
 30
0.0
 10
2851.093197845364
 20
1585.41601766069
 30
0.0
 10
2851.103755042615
 20
1585.414572169481
 30
0.0
 11
2851.041704849829
 21
1585.428151019342
 31
0.0
 11
2851.072265011655
 21
1585.419737599057
 31
0.0
 11
2851.103755042615
 21
1585.414572169481
 31
0.0
  0
SPLINE
  5
3B4
330
39
100
AcDbEntity
  8
0
  6
Continuous
 62
     3
100
AcDbSpline
210
0.0
220
0.0
230
1.0
 70
     8
 71
     3
 72
    13
 73
     9
 74
     7
 42
0.0000000001
 43
0.0000000001
 44
0.00000001
 40
0.0
 40
0.0
 40
0.0
 40
0.0
 40
0.3506934125127928
 40
0.7323232077379839
 40
1.12387876594408
 40
1.503289638075016
 40
1.849787168035067
 40
2.146506242821834
 40
2.146506242821834
 40
2.146506242821834
 40
2.146506242821834
 10
2850.746839254307
 20
1586.053592114668
 30
0.0
 10
2850.85997849793
 20
1586.023551135558
 30
0.0
 10
2851.09623755172
 20
1585.960819115507
 30
0.0
 10
2851.470377553183
 20
1585.923742946883
 30
0.0
 10
2851.855207586287
 20
1585.921843205528
 30
0.0
 10
2852.225782734038
 20
1585.962889807668
 30
0.0
 10
2852.561132026645
 20
1586.034979908452
 30
0.0
 10
2852.756744066748
 20
1586.124033749205
 30
0.0
 10
2852.846980890749
 20
1586.165114736605
 30
0.0
 11
2850.746839254307
 21
1586.053592114668
 31
0.0
 11
2851.08798421672
 21
1585.97231490876
 31
0.0
 11
2851.467257927534
 21
1585.929973996053
 31
0.0
 11
2851.85881314249
 21
1585.929455533739
 31
0.0
 11
2852.235965263899
 21
1585.970794222731
 31
0.0
 11
2852.573010841505
 21
1586.051173429523
 31
0.0
 11
2852.846980890749
 21
1586.165114736605
 31
0.0
  0
SPLINE
  5
3B5
330
39
100
AcDbEntity
  8
0
  6
Continuous
 62
     3
100
AcDbSpline
210
0.0
220
0.0
230
1.0
 70
     8
 71
     3
 72
    11
 73
     7
 74
     5
 42
0.0000000001
 43
0.0000000001
 44
0.00000001
 40
0.0
 40
0.0
 40
0.0
 40
0.0
 40
0.1606626835962901
 40
0.3287712934311075
 40
0.5082743920232916
 40
0.7005054936949177
 40
0.7005054936949177
 40
0.7005054936949177
 40
0.7005054936949177
 10
2852.556570184088
 20
1585.557532825039
 30
0.0
 10
2852.599362432859
 20
1585.590396841987
 30
0.0
 10
2852.686930140944
 20
1585.657647961647
 30
0.0
 10
2852.777006609703
 20
1585.804782436477
 30
0.0
 10
2852.835776573785
 20
1585.976638344043
 30
0.0
 10
2852.843155381726
 20
1586.100873413571
 30
0.0
 10
2852.846971109142
 20
1586.165117823325
 30
0.0
 11
2852.556570184088
 21
1585.557532825039
 31
0.0
 11
2852.677949292289
 21
1585.662792551395
 31
0.0
 11
2852.769430062943
 21
1585.803830749417
 31
0.0
 11
2852.826675230449
 21
1585.973961149997
 31
0.0
 11
2852.846971109142
 21
1586.165117823325
 31
0.0
  0
SPLINE
  5
3B6
330
39
100
AcDbEntity
  8
0
  6
Continuous
 62
     7
100
AcDbSpline
210
0.0
220
0.0
230
1.0
 70
     8
 71
     3
 72
     9
 73
     5
 74
     3
 42
0.0000000001
 43
0.0000000001
 44
0.00000001
 40
0.0
 40
0.0
 40
0.0
 40
0.0
 40
0.1073644366685746
 40
0.2134549304395716
 40
0.2134549304395716
 40
0.2134549304395716
 40
0.2134549304395716
 10
2852.358345728684
 20
1585.481193386449
 30
0.0
 10
2852.393480443029
 20
1585.48906732481
 30
0.0
 10
2852.463332977434
 20
1585.50472177257
 30
0.0
 10
2852.525615019212
 20
1585.539999322105
 30
0.0
 10
2852.556570184088
 20
1585.557532825039
 30
0.0
 11
2852.358345728684
 21
1585.481193386449
 31
0.0
 11
2852.461834590018
 21
1585.509779709069
 31
0.0
 11
2852.556570184088
 21
1585.557532825039
 31
0.0
  0
SPLINE
  5
3B7
330
39
100
AcDbEntity
  8
0
  6
Continuous
 62
     7
100
AcDbSpline
210
0.0
220
0.0
230
1.0
 70
     8
 71
     3
 72
    13
 73
     9
 74
     7
 42
0.0000000001
 43
0.0000000001
 44
0.00000001
 40
0.0
 40
0.0
 40
0.0
 40
0.0
 40
0.584510735912122
 40
1.220566061244577
 40
1.873152227835159
 40
2.505490131444626
 40
3.082971465476288
 40
3.577495368385719
 40
3.577495368385719
 40
3.577495368385719
 40
3.577495368385719
 10
2850.457495457793
 20
1586.665118554787
 30
0.0
 10
2850.646058438055
 20
1586.615012523692
 30
0.0
 10
2851.039812666977
 20
1586.51038190314
 30
0.0
 10
2851.663377074046
 20
1586.448486197268
 30
0.0
 10
2852.304755866118
 20
1586.445231065348
 30
0.0
 10
2852.922377431589
 20
1586.513573421619
 30
0.0
 10
2853.481292551082
 20
1586.633677085984
 30
0.0
 10
2853.807309396749
 20
1586.78209027828
 30
0.0
 10
2853.957703366272
 20
1586.850554375813
 30
0.0
 11
2850.457495457793
 21
1586.665118554787
 31
0.0
 11
2851.026066403412
 21
1586.529546137996
 31
0.0
 11
2851.658183390224
 21
1586.458874418988
 31
0.0
 11
2852.310768859805
 21
1586.457920628077
 31
0.0
 11
2852.939349737141
 21
1586.526748710923
 31
0.0
 11
2853.501088124854
 21
1586.660669116109
 31
0.0
 11
2853.957703366272
 21
1586.850554375813
 31
0.0
  0
SPLINE
  5
3B8
330
39
100
AcDbEntity
  8
0
  6
Continuous
 62
     7
100
AcDbSpline
210
0.0
220
0.0
230
1.0
 70
     8
 71
     3
 72
    11
 73
     7
 74
     5
 42
0.0000000001
 43
0.0000000001
 44
0.00000001
 40
0.0
 40
0.0
 40
0.0
 40
0.0
 40
0.2490351484717657
 40
0.5504340232321198
 40
0.9297979539892513
 40
1.387701780795789
 40
1.387701780795789
 40
1.387701780795789
 40
1.387701780795789
 10
2829.467222633199
 20
1593.825902727251
 30
0.0
 10
2829.479877613742
 20
1593.742031265766
 30
0.0
 10
2829.507848492137
 20
1593.556652991805
 30
0.0
 10
2829.736180491366
 20
1593.325145572427
 30
0.0
 10
2830.056868105657
 20
1593.123244081793
 30
0.0
 10
2830.321230989827
 20
1593.029670066948
 30
0.0
 10
2830.465811711148
 20
1592.978494204627
 30
0.0
 11
2829.467222633199
 21
1593.825902727251
 31
0.0
 11
2829.527131077489
 21
1593.584180813728
 31
0.0
 11
2829.72184670769
 21
1593.354121897226
 31
0.0
 11
2830.040611772473
 21
1593.148438097589
 31
0.0
 11
2830.465811711148
 21
1592.978494204627
 31
0.0
  0
SPLINE
  5
3B9
330
39
100
AcDbEntity
  8
0
  6
Continuous
 62
     7
100
AcDbSpline
210
0.0
220
0.0
230
1.0
 70
     8
 71
     3
 72
    11
 73
     7
 74
     5
 42
0.0000000001
 43
0.0000000001
 44
0.00000001
 40
0.0
 40
0.0
 40
0.0
 40
0.0
 40
0.250115637870753
 40
0.464836216292816
 40
0.6491058072196413
 40
0.8143276242783202
 40
0.8143276242783202
 40
0.8143276242783202
 40
0.8143276242783202
 10
2868.967946514145
 20
1595.018254102296
 30
0.0
 10
2869.03997782186
 20
1595.06079732212
 30
0.0
 10
2869.173846942632
 20
1595.139863267378
 30
0.0
 10
2869.332376165136
 20
1595.288443386899
 30
0.0
 10
2869.4415562001
 20
1595.447553176498
 30
0.0
 10
2869.459809029711
 20
1595.563908784458
 30
0.0
 10
2869.46843804206
 20
1595.6189158162
 30
0.0
 11
2868.967946514145
 21
1595.018254102296
 31
0.0
 11
2869.178150536658
 21
1595.153797826705
 31
0.0
 11
2869.333952428121
 21
1595.301549975301
 31
0.0
 11
2869.431515675876
 21
1595.457872381973
 31
0.0
 11
2869.46843804206
 21
1595.6189158162
 31
0.0
  0
SPLINE
  5
3BA
330
39
100
AcDbEntity
  8
0
  6
Continuous
 62
     7
100
AcDbSpline
210
0.0
220
0.0
230
1.0
 70
     8
 71
     3
 72
    11
 73
     7
 74
     5
 42
0.0000000001
 43
0.0000000001
 44
0.00000001
 40
0.0
 40
0.0
 40
0.0
 40
0.0
 40
0.2490527739697311
 40
0.5504736860223642
 40
0.9298702275016705
 40
1.387816667074573
 40
1.387816667074573
 40
1.387816667074573
 40
1.387816667074573
 10
2337.127480958613
 20
1325.923462837061
 30
0.0
 10
2337.140131033936
 20
1325.839584241268
 30
0.0
 10
2337.168091106337
 20
1325.654189960897
 30
0.0
 10
2337.396438884261
 20
1325.422659076498
 30
0.0
 10
2337.717153428494
 20
1325.220740322328
 30
0.0
 10
2337.981540856977
 20
1325.127159685786
 30
0.0
 10
2338.126135466691
 20
1325.075980037438
 30
0.0
 11
2337.127480958613
 21
1325.923462837061
 31
0.0
 11
2337.187378598001
 21
1325.681720087391
 31
0.0
 11
2337.382103215149
 21
1325.45163990637
 31
0.0
 11
2337.700895024032
 21
1325.245937406929
 31
0.0
 11
2338.126135466691
 21
1325.075980037438
 31
0.0
  0
SPLINE
  5
3BB
330
39
100
AcDbEntity
  8
0
  6
Continuous
 62
     7
100
AcDbSpline
210
0.0
220
0.0
230
1.0
 70
     8
 71
     3
 72
    13
 73
     9
 74
     7
 42
0.0000000001
 43
0.0000000001
 44
0.00000001
 40
0.0
 40
0.0
 40
0.0
 40
0.0
 40
0.5845080939900081
 40
1.220557883756338
 40
1.873136783047842
 40
2.505467064604123
 40
3.082941805425116
 40
3.577461319967702
 40
3.577461319967702
 40
3.577461319967702
 40
3.577461319967702
 10
2358.117758040006
 20
1318.762362630504
 30
0.0
 10
2358.306319852313
 20
1318.712255661385
 30
0.0
 10
2358.700070784
 20
1318.607623310152
 30
0.0
 10
2359.323629510533
 20
1318.545723126598
 30
0.0
 10
2359.965001466449
 20
1318.542462919407
 30
0.0
 10
2360.582616462281
 20
1318.610799554444
 30
0.0
 10
2361.141526376409
 20
1318.730897654923
 30
0.0
 10
2361.467541113396
 20
1318.879306609447
 30
0.0
 10
2361.617934316216
 20
1318.947768845861
 30
0.0
 11
2358.117758040006
 21
1318.762362630504
 31
0.0
 11
2358.686325545636
 21
1318.626787177409
 31
0.0
 11
2359.318436493264
 21
1318.556111262484
 31
0.0
 11
2359.971014687952
 21
1318.555152295487
 31
0.0
 11
2360.59958853328
 21
1318.62397457344
 31
0.0
 11
2361.161321557793
 21
1318.757889044122
 31
0.0
 11
2361.617934316216
 21
1318.947768845861
 31
0.0
  0
SPLINE
  5
3BC
330
39
100
AcDbEntity
  8
0
  6
Continuous
 62
     7
100
AcDbSpline
210
0.0
220
0.0
230
1.0
 70
     8
 71
     3
 72
    11
 73
     7
 74
     5
 42
0.0000000001
 43
0.0000000001
 44
0.00000001
 40
0.0
 40
0.0
 40
0.0
 40
0.0
 40
0.2501140851233805
 40
0.4648329161902951
 40
0.6491016459504904
 40
0.8143249992968584
 40
0.8143249992968584
 40
0.8143249992968584
 40
0.8143249992968584
 10
2376.628231325583
 20
1327.115426482902
 30
0.0
 10
2376.700261599268
 20
1327.157970478291
 30
0.0
 10
2376.834128678982
 20
1327.237037794445
 30
0.0
 10
2376.992653092284
 20
1327.385621309894
 30
0.0
 10
2377.101826289263
 20
1327.54473583969
 30
0.0
 10
2377.120072199466
 20
1327.661092867458
 30
0.0
 10
2377.128698004211
 20
1327.716100975632
 30
0.0
 11
2376.628231325583
 21
1327.115426482902
 31
0.0
 11
2376.838431806696
 21
1327.250972834077
 31
0.0
 11
2376.994228335234
 21
1327.398728098316
 31
0.0
 11
2377.09178444053
 21
1327.555053947384
 31
0.0
 11
2377.128698004211
 21
1327.716100975632
 31
0.0
  0
SPLINE
  5
3BD
330
39
100
AcDbEntity
  8
0
  6
Continuous
 62
     7
100
AcDbSpline
210
0.0
220
0.0
230
1.0
 70
     8
 71
     3
 72
    13
 73
     9
 74
     7
 42
0.0000000001
 43
0.0000000001
 44
0.00000001
 40
0.0
 40
0.0
 40
0.0
 40
0.0
 40
0.5844836059374923
 40
1.220523405794591
 40
1.873103535694565
 40
2.505442094135919
 40
3.082926807353571
 40
3.577450887493195
 40
3.577450887493195
 40
3.577450887493195
 40
3.577450887493195
 10
1614.442145743638
 20
1553.468257615843
 30
0.0
 10
1614.630709638299
 20
1553.418190728827
 30
0.0
 10
1615.024470292291
 20
1553.313640649343
 30
0.0
 10
1615.64802762841
 20
1553.251848173909
 30
0.0
 10
1616.289399242817
 20
1553.248681515059
 30
0.0
 10
1616.907012521868
 20
1553.317089829511
 30
0.0
 10
1617.465917822854
 20
1553.437236118159
 30
0.0
 10
1617.791933110117
 20
1553.585654384987
 30
0.0
 10
1617.942325915703
 20
1553.654120620837
 30
0.0
 11
1614.442145743638
 21
1553.468257615843
 31
0.0
 11
1615.010716002093
 21
1553.332799331454
 31
0.0
 11
1615.642829131343
 21
1553.262232917119
 31
0.0
 11
1616.29540868851
 21
1553.261368331313
 31
0.0
 11
1616.923982881859
 21
1553.330263439613
 31
0.0
 11
1617.48571511749
 21
1553.464224215412
 31
0.0
 11
1617.942325915703
 21
1553.654120620837
 31
0.0
  0
SPLINE
  5
3BE
330
39
100
AcDbEntity
  8
0
  6
Continuous
 62
     7
100
AcDbSpline
210
0.0
220
0.0
230
1.0
 70
     8
 71
     3
 72
    11
 73
     7
 74
     5
 42
0.0000000001
 43
0.0000000001
 44
0.00000001
 40
0.0
 40
0.0
 40
0.0
 40
0.0
 40
0.2489806267996707
 40
0.5503316824270315
 40
0.9296698550639018
 40
1.387570779380789
 40
1.387570779380789
 40
1.387570779380789
 40
1.387570779380789
 10
1593.451800111161
 20
1560.624476986551
 30
0.0
 10
1593.464452216506
 20
1560.540622633111
 30
0.0
 10
1593.492417663097
 20
1560.355276054139
 30
0.0
 10
1593.720772995497
 20
1560.123841145314
 30
0.0
 10
1594.041482078785
 20
1559.922027680717
 30
0.0
 10
1594.305856480167
 20
1559.828513678704
 30
0.0
 10
1594.450447533307
 20
1559.777369210995
 30
0.0
 11
1593.451800111161
 21
1560.624476986551
 31
0.0
 11
1593.511701087578
 21
1560.382809393469
 31
0.0
 11
1593.706425367866
 21
1560.152820451574
 31
0.0
 11
1594.025213475448
 21
1559.947219888142
 31
0.0
 11
1594.450447533307
 21
1559.777369210995
 31
0.0
  0
SPLINE
  5
3BF
330
39
100
AcDbEntity
  8
0
  6
Continuous
 62
     7
100
AcDbSpline
210
0.0
220
0.0
230
1.0
 70
     8
 71
     3
 72
    11
 73
     7
 74
     5
 42
0.0000000001
 43
0.0000000001
 44
0.00000001
 40
0.0
 40
0.0
 40
0.0
 40
0.0
 40
0.2501089238906066
 40
0.4648144132524383
 40
0.6490586696791952
 40
0.8142453072701097
 40
0.8142453072701097
 40
0.8142453072701097
 40
0.8142453072701097
 10
1632.9525904016
 20
1561.821791410188
 30
0.0
 10
1633.024619295238
 20
1561.864334269006
 30
0.0
 10
1633.158481243916
 20
1561.943397957147
 30
0.0
 10
1633.317001343665
 20
1562.091963273822
 30
0.0
 10
1633.426173649345
 20
1562.251048622114
 30
0.0
 10
1633.444419480324
 20
1562.367385093299
 30
0.0
 10
1633.453044840935
 20
1562.422380890274
 30
0.0
 11
1632.9525904016
 21
1561.821791410188
 31
0.0
 11
1633.162787975832
 21
1561.957332745569
 31
0.0
 11
1633.318581438941
 21
1562.105071853508
 31
0.0
 11
1633.416134405612
 21
1562.261370812941
 31
0.0
 11
1633.453044840935
 21
1562.422380890274
 31
0.0
  0
SPLINE
  5
3C0
330
39
100
AcDbEntity
  8
0
  6
Continuous
 62
     7
100
AcDbSpline
210
0.0
220
0.0
230
1.0
 70
     8
 71
     3
 72
     9
 73
     5
 74
     3
 42
0.0000000001
 43
0.0000000001
 44
0.00000001
 40
0.0
 40
0.0
 40
0.0
 40
0.0
 40
0.109148548258991
 40
0.2193960405380596
 40
0.2193960405380596
 40
0.2193960405380596
 40
0.2193960405380596
 10
6.812135096335965
 20
1572.097566616916
 30
0.0
 10
6.846897108260203
 20
1572.108988462981
 30
0.0
 10
6.916771127649065
 20
1572.13194715407
 30
0.0
 10
6.977283102132765
 20
1572.173762474818
 30
0.0
 10
7.007690640132637
 20
1572.194774860638
 30
0.0
 11
6.812135096335965
 21
1572.097566616916
 31
0.0
 11
6.914104009172092
 21
1572.136499204835
 31
0.0
 11
7.007690640132637
 21
1572.194774860638
 31
0.0
  0
SPLINE
  5
3C1
330
39
100
AcDbEntity
  8
0
  6
Continuous
 62
     3
100
AcDbSpline
210
0.0
220
0.0
230
1.0
 70
     8
 71
     3
 72
    11
 73
     7
 74
     5
 42
0.0000000001
 43
0.0000000001
 44
0.00000001
 40
0.0
 40
0.0
 40
0.0
 40
0.0
 40
0.1706008422713237
 40
0.3512490494721617
 40
0.543588404763878
 40
0.7469832142836637
 40
0.7469832142836637
 40
0.7469832142836637
 40
0.7469832142836637
 10
7.007690640132637
 20
1572.194774860638
 30
0.0
 10
7.050173777325894
 20
1572.233098164737
 30
0.0
 10
7.137642053326511
 20
1572.312001785365
 30
0.0
 10
7.22670155696717
 20
1572.472848084625
 30
0.0
 10
7.286393898879856
 20
1572.656983864536
 30
0.0
 10
7.295206030693803
 20
1572.789088380659
 30
0.0
 10
7.299735186958628
 20
1572.856985912091
 30
0.0
 11
7.007690640132637
 21
1572.194774860638
 31
0.0
 11
7.128081636180696
 21
1572.315649404915
 31
0.0
 11
7.219512705556895
 21
1572.471450991292
 31
0.0
 11
7.277649159710294
 21
1572.654793785785
 31
0.0
 11
7.299735186958628
 21
1572.856985912091
 31
0.0
  0
SPLINE
  5
3C2
330
39
100
AcDbEntity
  8
0
  6
Continuous
 62
     7
100
AcDbSpline
210
0.0
220
0.0
230
1.0
 70
     8
 71
     3
 72
     9
 73
     5
 74
     3
 42
0.0000000001
 43
0.0000000001
 44
0.00000001
 40
0.0
 40
0.0
 40
0.0
 40
0.0
 40
0.099531161863496
 40
0.1862412618273805
 40
0.1862412618273805
 40
0.1862412618273805
 40
0.1862412618273805
 10
7.567659381669728
 20
1573.005941903636
 30
0.0
 10
7.59047638856699
 20
1573.032693992356
 30
0.0
 10
7.633171239868916
 20
1573.082752111505
 30
0.0
 10
7.621510885425606
 20
1573.146941848844
 30
0.0
 10
7.616082064285365
 20
1573.176827269974
 30
0.0
 11
7.567659381669728
 21
1573.005941903636
 31
0.0
 11
7.62058626486261
 21
1573.090234235538
 31
0.0
 11
7.616082064285365
 21
1573.176827269974
 31
0.0
  0
SPLINE
  5
3C3
330
39
100
AcDbEntity
  8
0
  6
Continuous
 62
     3
100
AcDbSpline
210
0.0
220
0.0
230
1.0
 70
     8
 71
     3
 72
    11
 73
     7
 74
     5
 42
0.0000000001
 43
0.0000000001
 44
0.00000001
 40
0.0
 40
0.0
 40
0.0
 40
0.0
 40
0.2656629324296086
 40
0.5009460845119342
 40
0.7023842789049238
 40
0.8787306941294517
 40
0.8787306941294517
 40
0.8787306941294517
 40
0.8787306941294517
 10
-25.71604362510493
 20
1572.264965187394
 30
0.0
 10
-25.71312739094595
 20
1572.175980366711
 30
0.0
 10
-25.70762840744042
 20
1572.008186549584
 30
0.0
 10
-25.63654939103421
 20
1571.783687120028
 30
0.0
 10
-25.52377968588483
 20
1571.603640510713
 30
0.0
 10
-25.40883721197604
 20
1571.547135597363
 30
0.0
 10
-25.35518311195494
 20
1571.520759618411
 30
0.0
 11
-25.71604362510493
 21
1572.264965187394
 31
0.0
 11
-25.6945841578552
 21
1572.000170389612
 31
0.0
 11
-25.6226355609474
 21
1571.776157976883
 31
0.0
 11
-25.50624180883241
 21
1571.611750432564
 31
0.0
 11
-25.35518311195494
 21
1571.520759618411
 31
0.0
  0
SPLINE
  5
3C4
330
39
100
AcDbEntity
  8
0
  6
Continuous
 62
     3
100
AcDbSpline
210
0.0
220
0.0
230
1.0
 70
     8
 71
     3
 72
    11
 73
     7
 74
     5
 42
0.0000000001
 43
0.0000000001
 44
0.00000001
 40
0.0
 40
0.0
 40
0.0
 40
0.0
 40
0.1055371046153397
 40
0.2477066802810392
 40
0.4303546559905857
 40
0.6507649393022974
 40
0.6507649393022974
 40
0.6507649393022974
 40
0.6507649393022974
 10
-26.27260447859942
 20
1572.569143861256
 30
0.0
 10
-26.25374442971572
 20
1572.538963832342
 30
0.0
 10
-26.20947791211562
 20
1572.468128131474
 30
0.0
 10
-26.08286068301724
 20
1572.392639629282
 30
0.0
 10
-25.91717386921476
 20
1572.319618642079
 30
0.0
 10
-25.78715098649609
 20
1572.284285270885
 30
0.0
 10
-25.71604865879135
 20
1572.264963403188
 30
0.0
 11
-26.27260447859942
 21
1572.569143861256
 31
0.0
 11
-26.21083042026905
 21
1572.483574905624
 31
0.0
 11
-26.09416838201549
 21
1572.40232124678
 31
0.0
 11
-25.92710108510565
 21
1572.328505250316
 31
0.0
 11
-25.71604865879135
 21
1572.264963403188
 31
0.0
  0
SPLINE
  5
3C5
330
39
100
AcDbEntity
  8
0
  6
Continuous
 62
     3
100
AcDbSpline
210
0.0
220
0.0
230
1.0
 70
     8
 71
     3
 72
    11
 73
     7
 74
     5
 42
0.0000000001
 43
0.0000000001
 44
0.00000001
 40
0.0
 40
0.0
 40
0.0
 40
0.0
 40
0.2656705186634646
 40
0.5009588834051792
 40
0.7024002974266667
 40
0.8787502578463471
 40
0.8787502578463471
 40
0.8787502578463471
 40
0.8787502578463471
 10
-8.500243646939339
 20
1567.965827723187
 30
0.0
 10
-8.497326817415779
 20
1567.876840340618
 30
0.0
 10
-8.491826727798923
 20
1567.709042197138
 30
0.0
 10
-8.420742408278041
 20
1567.484538696845
 30
0.0
 10
-8.307963897636615
 20
1567.304491519955
 30
0.0
 10
-8.193015271677897
 20
1567.24799329287
 30
0.0
 10
-8.139358182052433
 20
1567.221620377064
 30
0.0
 11
-8.500243646939339
 21
1567.965827723187
 31
0.0
 11
-8.478781525413126
 21
1567.701025529415
 31
0.0
 11
-8.406827236231038
 21
1567.477009470055
 31
0.0
 11
-8.290425621362076
 21
1567.312603547598
 31
0.0
 11
-8.139358182052433
 21
1567.221620377064
 31
0.0
  0
SPLINE
  5
3C6
330
39
100
AcDbEntity
  8
0
  6
Continuous
 62
     3
100
AcDbSpline
210
0.0
220
0.0
230
1.0
 70
     8
 71
     3
 72
    13
 73
     9
 74
     7
 42
0.0000000001
 43
0.0000000001
 44
0.00000001
 40
0.0
 40
0.0
 40
0.0
 40
0.0
 40
0.3417740742328796
 40
0.7200167590799058
 40
1.111568236707199
 40
1.492093125289231
 40
1.838226557561524
 40
2.129837573677791
 40
2.129837573677791
 40
2.129837573677791
 40
2.129837573677791
 10
-8.5002387741348
 20
1567.965829450369
 30
0.0
 10
-8.38870843348311
 20
1567.942173812499
 30
0.0
 10
-8.153747035093403
 20
1567.892338389053
 30
0.0
 10
-7.783992891711942
 20
1567.859096879354
 30
0.0
 10
-7.400345586226949
 20
1567.85012158573
 30
0.0
 10
-7.028097226827117
 20
1567.872076474726
 30
0.0
 10
-6.690401365260884
 20
1567.916003382366
 30
0.0
 10
-6.486213976635597
 20
1567.976128734039
 30
0.0
 10
-6.39284853531251
 20
1568.003621274257
 30
0.0
 11
-8.5002387741348
 21
1567.965829450369
 31
0.0
 11
-8.16462338963769
 21
1567.901239733644
 31
0.0
 11
-7.78825790049649
 21
1567.863602687748
 31
0.0
 11
-7.396790608390745
 21
1567.855483645716
 31
0.0
 11
-7.016899428184672
 21
1567.877435457305
 31
0.0
 11
-6.674473724683345
 21
1567.927962583863
 31
0.0
 11
-6.39284853531251
 21
1568.003621274257
 31
0.0
  0
SPLINE
  5
3C7
330
39
100
AcDbEntity
  8
0
  6
Continuous
 62
     3
100
AcDbSpline
210
0.0
220
0.0
230
1.0
 70
     8
 71
     3
 72
    11
 73
     7
 74
     5
 42
0.0000000001
 43
0.0000000001
 44
0.00000001
 40
0.0
 40
0.0
 40
0.0
 40
0.0
 40
0.1706002325230874
 40
0.3512478323763189
 40
0.543586462859682
 40
0.7469803731121172
 40
0.7469803731121172
 40
0.7469803731121172
 40
0.7469803731121172
 10
-6.684891822678992
 20
1567.341411239959
 30
0.0
 10
-6.642409311845004
 20
1567.379734922371
 30
0.0
 10
-6.554942315911557
 20
1567.458639330511
 30
0.0
 10
-6.465884578152235
 20
1567.619485792469
 30
0.0
 10
-6.406193713542571
 20
1567.803621235924
 30
0.0
 10
-6.39738222699402
 20
1567.935725242179
 30
0.0
 10
-6.392853403812296
 20
1568.003622490008
 30
0.0
 11
-6.684891822678992
 21
1567.341411239959
 31
0.0
 11
-6.564502669918639
 21
1567.462286759542
 31
0.0
 11
-6.473073318709453
 21
1567.61808865
 31
0.0
 11
-6.414938326417257
 21
1567.801431147658
 31
0.0
 11
-6.392853403812296
 21
1568.003622490008
 31
0.0
  0
SPLINE
  5
3C8
330
39
100
AcDbEntity
  8
0
  6
Continuous
 62
     7
100
AcDbSpline
210
0.0
220
0.0
230
1.0
 70
     8
 71
     3
 72
     9
 73
     5
 74
     3
 42
0.0000000001
 43
0.0000000001
 44
0.00000001
 40
0.0
 40
0.0
 40
0.0
 40
0.0
 40
0.1091436550719909
 40
0.2193861722557623
 40
0.2193861722557623
 40
0.2193861722557623
 40
0.2193861722557623
 10
734.5565634863
 20
1390.365150294615
 30
0.0
 10
734.5913238279354
 20
1390.376571909739
 30
0.0
 10
734.6611944795336
 20
1390.399530133205
 30
0.0
 10
734.7217038928407
 20
1390.441343274068
 30
0.0
 10
734.7521101393589
 20
1390.462354561392
 30
0.0
 11
734.5565634863
 21
1390.365150294615
 31
0.0
 11
734.6585275872185
 21
1390.404081767312
 31
0.0
 11
734.7521101393589
 21
1390.462354561392
 31
0.0
  0
SPLINE
  5
3C9
330
39
100
AcDbEntity
  8
0
  6
Continuous
 62
     3
100
AcDbSpline
210
0.0
220
0.0
230
1.0
 70
     8
 71
     3
 72
    11
 73
     7
 74
     5
 42
0.0000000001
 43
0.0000000001
 44
0.00000001
 40
0.0
 40
0.0
 40
0.0
 40
0.0
 40
0.170599756315069
 40
0.351246694371237
 40
0.5435846474670953
 40
0.746978007188825
 40
0.746978007188825
 40
0.746978007188825
 40
0.746978007188825
 10
734.7521101393589
 20
1390.462354561392
 30
0.0
 10
734.7945932700968
 20
1390.500677326846
 30
0.0
 10
734.8820615031149
 20
1390.579579811676
 30
0.0
 10
734.9711216064217
 20
1390.740424315527
 30
0.0
 10
735.0308149256712
 20
1390.924558323728
 30
0.0
 10
735.0396280275165
 20
1391.056661817763
 30
0.0
 10
735.0441576827039
 20
1391.124558829226
 30
0.0
 11
734.7521101393589
 21
1390.462354561392
 31
0.0
 11
734.8725012156083
 21
1390.583227493078
 31
0.0
 11
734.9639328045458
 21
1390.739027303005
 31
0.0
 11
735.0220702369504
 21
1390.922368316296
 31
0.0
 11
735.0441576827039
 21
1391.124558829226
 31
0.0
  0
SPLINE
  5
3CA
330
39
100
AcDbEntity
  8
0
  6
Continuous
 62
     7
100
AcDbSpline
210
0.0
220
0.0
230
1.0
 70
     8
 71
     3
 72
     9
 73
     5
 74
     3
 42
0.0000000001
 43
0.0000000001
 44
0.00000001
 40
0.0
 40
0.0
 40
0.0
 40
0.0
 40
0.0995431521082711
 40
0.1862613401349868
 40
0.1862613401349868
 40
0.1862613401349868
 40
0.1862613401349868
 10
735.3120701253218
 20
1391.273511965198
 30
0.0
 10
735.3348917035544
 20
1391.300266132246
 30
0.0
 10
735.3775945681468
 20
1391.350327506665
 30
0.0
 10
735.3659327682317
 20
1391.414524535066
 30
0.0
 10
735.3605033529969
 20
1391.444412916497
 30
0.0
 11
735.3120701253218
 21
1391.273511965198
 31
0.0
 11
735.3650076279728
 21
1391.357811786934
 31
0.0
 11
735.3605033529969
 21
1391.444412916497
 31
0.0
  0
SPLINE
  5
3CB
330
39
100
AcDbEntity
  8
0
  6
Continuous
 62
     3
100
AcDbSpline
210
0.0
220
0.0
230
1.0
 70
     8
 71
     3
 72
    11
 73
     7
 74
     5
 42
0.0000000001
 43
0.0000000001
 44
0.00000001
 40
0.0
 40
0.0
 40
0.0
 40
0.0
 40
0.2656592632409804
 40
0.500938812951562
 40
0.7023740386405919
 40
0.8787184848592496
 40
0.8787184848592496
 40
0.8787184848592496
 40
0.8787184848592496
 10
702.0283787333509
 20
1390.532530069371
 30
0.0
 10
702.0312959623018
 20
1390.443546511086
 30
0.0
 10
702.0367968177581
 20
1390.275755192552
 30
0.0
 10
702.1078776344746
 20
1390.051259883778
 30
0.0
 10
702.2206485228452
 20
1389.871217478854
 30
0.0
 10
702.3355903788354
 20
1389.814715091493
 30
0.0
 10
702.3892442926089
 20
1389.788340241414
 30
0.0
 11
702.0283787333509
 21
1390.532530069371
 31
0.0
 11
702.0498410384281
 21
1390.267739182809
 31
0.0
 11
702.1217914312795
 21
1390.043731130541
 31
0.0
 11
702.2381858856655
 21
1389.879327720794
 31
0.0
 11
702.3892442926089
 21
1389.788340241414
 31
0.0
  0
SPLINE
  5
3CC
330
39
100
AcDbEntity
  8
0
  6
Continuous
 62
     3
100
AcDbSpline
210
0.0
220
0.0
230
1.0
 70
     8
 71
     3
 72
    11
 73
     7
 74
     5
 42
0.0000000001
 43
0.0000000001
 44
0.00000001
 40
0.0
 40
0.0
 40
0.0
 40
0.0
 40
0.1055407568140437
 40
0.2477173461722025
 40
0.4303763682537433
 40
0.6508011341943228
 40
0.6508011341943228
 40
0.6508011341943228
 40
0.6508011341943228
 10
701.4718155664608
 20
1390.836732737585
 30
0.0
 10
701.4906754573995
 20
1390.806551091469
 30
0.0
 10
701.5349419784426
 20
1390.73571099609
 30
0.0
 10
701.6615665003304
 20
1390.660219132139
 30
0.0
 10
701.8272635518397
 20
1390.587195033468
 30
0.0
 10
701.9572950928003
 20
1390.551860810611
 30
0.0
 10
702.028402323686
 20
1390.532538431408
 30
0.0
 11
701.4718155664608
 21
1390.836732737585
 31
0.0
 11
701.5335897266803
 21
1390.751159351079
 31
0.0
 11
701.6502574646244
 21
1390.669901603852
 31
0.0
 11
701.8173353907215
 21
1390.596082331579
 31
0.0
 11
702.028402323686
 21
1390.532538431408
 31
0.0
  0
SPLINE
  5
3CD
330
39
100
AcDbEntity
  8
0
  6
Continuous
 62
     3
100
AcDbSpline
210
0.0
220
0.0
230
1.0
 70
     8
 71
     3
 72
    11
 73
     7
 74
     5
 42
0.0000000001
 43
0.0000000001
 44
0.00000001
 40
0.0
 40
0.0
 40
0.0
 40
0.0
 40
0.2656688781394966
 40
0.5009568722452316
 40
0.7023985777343667
 40
0.8787479494096813
 40
0.8787479494096813
 40
0.8787479494096813
 40
0.8787479494096813
 10
719.2441792685819
 20
1386.233425181874
 30
0.0
 10
719.2470950717251
 20
1386.14443833701
 30
0.0
 10
719.2525932378368
 20
1385.976640844936
 30
0.0
 10
719.3236733558989
 20
1385.752136719099
 30
0.0
 10
719.4364461540794
 20
1385.5720869149
 30
0.0
 10
719.5513917999368
 20
1385.51558321127
 30
0.0
 10
719.6050473615659
 20
1385.489207806357
 30
0.0
 11
719.2441792685819
 21
1386.233425181874
 31
0.0
 11
719.2656379319325
 21
1385.968624353743
 31
0.0
 11
719.3375878068359
 21
1385.744607265842
 31
0.0
 11
719.4539845687904
 21
1385.580197550445
 31
0.0
 11
719.6050473615659
 21
1385.489207806357
 31
0.0
  0
SPLINE
  5
3CE
330
39
100
AcDbEntity
  8
0
  6
Continuous
 62
     3
100
AcDbSpline
210
0.0
220
0.0
230
1.0
 70
     8
 71
     3
 72
    13
 73
     9
 74
     7
 42
0.0000000001
 43
0.0000000001
 44
0.00000001
 40
0.0
 40
0.0
 40
0.0
 40
0.0
 40
0.3417747686026594
 40
0.7200205792111647
 40
1.111576890922254
 40
1.492107415648559
 40
1.838246332841457
 40
2.129861815422208
 40
2.129861815422208
 40
2.129861815422208
 40
2.129861815422208
 10
719.2441586157139
 20
1386.233417861722
 30
0.0
 10
719.3556889945494
 20
1386.209761263485
 30
0.0
 10
719.5906512426318
 20
1386.159923653663
 30
0.0
 10
719.9604081497557
 20
1386.126680157747
 30
0.0
 10
720.3440599544967
 20
1386.117703266367
 30
0.0
 10
720.7163136974035
 20
1386.139657345338
 30
0.0
 10
721.0540148574299
 20
1386.183584034267
 30
0.0
 10
721.2582055363261
 20
1386.243709982535
 30
0.0
 10
721.3515724552939
 20
1386.271202787643
 30
0.0
 11
719.2441586157139
 21
1386.233417861722
 31
0.0
 11
719.5797741861367
 21
1386.168825436909
 31
0.0
 11
719.956142588635
 21
1386.131186111148
 31
0.0
 11
720.3476146820105
 21
1386.12306543698
 31
0.0
 11
720.7275115574198
 21
1386.145016389186
 31
0.0
 11
721.0699428148829
 21
1386.195543450329
 31
0.0
 11
721.3515724552939
 21
1386.271202787643
 31
0.0
  0
SPLINE
  5
3CF
330
39
100
AcDbEntity
  8
0
  6
Continuous
 62
     3
100
AcDbSpline
210
0.0
220
0.0
230
1.0
 70
     8
 71
     3
 72
    11
 73
     7
 74
     5
 42
0.0000000001
 43
0.0000000001
 44
0.00000001
 40
0.0
 40
0.0
 40
0.0
 40
0.0
 40
0.1706032189495794
 40
0.3512540349845525
 40
0.5435963588442035
 40
0.7469944779652638
 40
0.7469944779652638
 40
0.7469944779652638
 40
0.7469944779652638
 10
721.0595187209209
 20
1385.608984119996
 30
0.0
 10
721.1020028706543
 20
1385.647307511502
 30
0.0
 10
721.1894732543233
 20
1385.7262113328
 30
0.0
 10
721.2785348165785
 20
1385.887059684289
 30
0.0
 10
721.3382282678581
 20
1386.071198286181
 30
0.0
 10
721.3470401844633
 20
1386.203304936555
 30
0.0
 10
721.3515692319619
 20
1386.27120359257
 30
0.0
 11
721.0595187209209
 21
1385.608984119996
 31
0.0
 11
721.1799125689317
 21
1385.729859178123
 31
0.0
 11
721.271345723622
 21
1385.885662565626
 31
0.0
 11
721.329483261206
 21
1386.069008130806
 31
0.0
 11
721.3515692319619
 21
1386.27120359257
 31
0.0
  0
SPLINE
  5
3D0
330
39
100
AcDbEntity
  8
0
  6
Continuous
 62
     7
100
AcDbSpline
210
0.0
220
0.0
230
1.0
 70
     8
 71
     3
 72
     9
 73
     5
 74
     3
 42
0.0000000001
 43
0.0000000001
 44
0.00000001
 40
0.0
 40
0.0
 40
0.0
 40
0.0
 40
0.1091484196560243
 40
0.2193955892423325
 40
0.2193955892423325
 40
0.2193955892423325
 40
0.2193955892423325
 10
1244.919145495642
 20
1571.264298100552
 30
0.0
 10
1244.953907712885
 20
1571.275719185969
 30
0.0
 10
1245.023782083575
 20
1571.298676327931
 30
0.0
 10
1245.084294818074
 20
1571.340490283765
 30
0.0
 10
1245.114702711531
 20
1571.361501965431
 30
0.0
 11
1244.919145495642
 21
1571.264298100552
 31
0.0
 11
1245.021115121519
 21
1571.303228460324
 31
0.0
 11
1245.114702711531
 21
1571.361501965431
 31
0.0
  0
SPLINE
  5
3D1
330
39
100
AcDbEntity
  8
0
  6
Continuous
 62
     3
100
AcDbSpline
210
0.0
220
0.0
230
1.0
 70
     8
 71
     3
 72
    11
 73
     7
 74
     5
 42
0.0000000001
 43
0.0000000001
 44
0.00000001
 40
0.0
 40
0.0
 40
0.0
 40
0.0
 40
0.1706029538504527
 40
0.3512534169982255
 40
0.5435953729790801
 40
0.7469931730404685
 40
0.7469931730404685
 40
0.7469931730404685
 40
0.7469931730404685
 10
1245.114702711531
 20
1571.361501965431
 30
0.0
 10
1245.157187114453
 20
1571.399824946931
 30
0.0
 10
1245.24465800144
 20
1571.478727907858
 30
0.0
 10
1245.333720570283
 20
1571.639575342053
 30
0.0
 10
1245.393415089041
 20
1571.823713242094
 30
0.0
 10
1245.402227729268
 20
1571.955819616763
 30
0.0
 10
1245.406757149442
 20
1572.023718142427
 30
0.0
 11
1245.114702711531
 21
1571.361501965431
 31
0.0
 11
1245.235097351648
 21
1571.482375860435
 31
0.0
 11
1245.326531455446
 21
1571.638178281785
 31
0.0
 11
1245.384670054625
 21
1571.821523124406
 31
0.0
 11
1245.406757149442
 21
1572.023718142427
 31
0.0
  0
SPLINE
  5
3D2
330
39
100
AcDbEntity
  8
0
  6
Continuous
 62
     7
100
AcDbSpline
210
0.0
220
0.0
230
1.0
 70
     8
 71
     3
 72
     9
 73
     5
 74
     3
 42
0.0000000001
 43
0.0000000001
 44
0.00000001
 40
0.0
 40
0.0
 40
0.0
 40
0.0
 40
0.0995410397606083
 40
0.1862540716255748
 40
0.1862540716255748
 40
0.1862540716255748
 40
0.1862540716255748
 10
1245.674662228592
 20
1572.172657204539
 30
0.0
 10
1245.697484500613
 20
1572.199409425238
 30
0.0
 10
1245.740187903129
 20
1572.249466266538
 30
0.0
 10
1245.72853455725
 20
1572.313661636581
 30
0.0
 10
1245.72310918886
 20
1572.343548635129
 30
0.0
 11
1245.674662228592
 21
1572.172657204539
 31
0.0
 11
1245.72760352075
 21
1572.256952152082
 31
0.0
 11
1245.72310918886
 21
1572.343548635129
 31
0.0
  0
SPLINE
  5
3D3
330
39
100
AcDbEntity
  8
0
  6
Continuous
 62
     3
100
AcDbSpline
210
0.0
220
0.0
230
1.0
 70
     8
 71
     3
 72
    11
 73
     7
 74
     5
 42
0.0000000001
 43
0.0000000001
 44
0.00000001
 40
0.0
 40
0.0
 40
0.0
 40
0.0
 40
0.2656599788110778
 40
0.5009412758208518
 40
0.7023784437685563
 40
0.8787235203137456
 40
0.8787235203137456
 40
0.8787235203137456
 40
0.8787235203137456
 10
1212.390978467919
 20
1571.431705399925
 30
0.0
 10
1212.393894266764
 20
1571.342721573099
 30
0.0
 10
1212.399392437771
 20
1571.174929375204
 30
0.0
 10
1212.470468689706
 20
1570.950431185288
 30
0.0
 10
1212.583234095173
 20
1570.770384166349
 30
0.0
 10
1212.698173796636
 20
1570.713875727055
 30
0.0
 10
1212.75182653111
 20
1570.687498137324
 30
0.0
 11
1212.390978467919
 21
1571.431705399925
 31
0.0
 11
1212.412436246204
 21
1571.166913428572
 31
0.0
 11
1212.484381898828
 21
1570.942902018614
 31
0.0
 11
1212.600771868303
 21
1570.778493054029
 31
0.0
 11
1212.75182653111
 21
1570.687498137324
 31
0.0
  0
SPLINE
  5
3D4
330
39
100
AcDbEntity
  8
0
  6
Continuous
 62
     3
100
AcDbSpline
210
0.0
220
0.0
230
1.0
 70
     8
 71
     3
 72
    11
 73
     7
 74
     5
 42
0.0000000001
 43
0.0000000001
 44
0.00000001
 40
0.0
 40
0.0
 40
0.0
 40
0.0
 40
0.1055358632160334
 40
0.2477041502604663
 40
0.4303514295746293
 40
0.6507617775334577
 40
0.6507617775334577
 40
0.6507617775334577
 40
0.6507617775334577
 10
1211.83441524434
 20
1571.73588445629
 30
0.0
 10
1211.85327412988
 20
1571.705704151168
 30
0.0
 10
1211.897537985552
 20
1571.634867692291
 30
0.0
 10
1212.024153737523
 20
1571.55937819923
 30
0.0
 10
1212.189839361293
 20
1571.486356314309
 30
0.0
 10
1212.319861932951
 20
1571.451022497948
 30
0.0
 10
1212.390964222853
 20
1571.43170035086
 30
0.0
 11
1211.83441524434
 21
1571.73588445629
 31
0.0
 11
1211.896186089479
 21
1571.65031471213
 31
0.0
 11
1212.012845913814
 21
1571.569060129322
 31
0.0
 11
1212.179912016794
 21
1571.495243153796
 31
0.0
 11
1212.390964222853
 21
1571.43170035086
 31
0.0
  0
SPLINE
  5
3D5
330
39
100
AcDbEntity
  8
0
  6
Continuous
 62
     3
100
AcDbSpline
210
0.0
220
0.0
230
1.0
 70
     8
 71
     3
 72
    11
 73
     7
 74
     5
 42
0.0000000001
 43
0.0000000001
 44
0.00000001
 40
0.0
 40
0.0
 40
0.0
 40
0.0
 40
0.2656707326612059
 40
0.5009595517246895
 40
0.7024014577003875
 40
0.8787515903592489
 40
0.8787515903592489
 40
0.8787515903592489
 40
0.8787515903592489
 10
1229.606778452085
 20
1567.132567937799
 30
0.0
 10
1229.609694933843
 20
1567.04358047634
 30
0.0
 10
1229.615194370607
 20
1566.875782095407
 30
0.0
 10
1229.686277599117
 20
1566.651277868706
 30
0.0
 10
1229.799054811477
 20
1566.471229558908
 30
0.0
 10
1229.914002940979
 20
1566.414729883454
 30
0.0
 10
1229.967659756935
 20
1566.38835631217
 30
0.0
 11
1229.606778452085
 21
1567.132567937799
 31
0.0
 11
1229.628239477115
 21
1566.867765440459
 31
0.0
 11
1229.700192634013
 21
1566.643748540229
 31
0.0
 11
1229.816593190307
 21
1566.479341265519
 31
0.0
 11
1229.967659756935
 21
1566.38835631217
 31
0.0
  0
SPLINE
  5
3D6
330
39
100
AcDbEntity
  8
0
  6
Continuous
 62
     3
100
AcDbSpline
210
0.0
220
0.0
230
1.0
 70
     8
 71
     3
 72
    13
 73
     9
 74
     7
 42
0.0000000001
 43
0.0000000001
 44
0.00000001
 40
0.0
 40
0.0
 40
0.0
 40
0.0
 40
0.341768093005429
 40
0.7200048066537201
 40
1.111551303287294
 40
1.492073121749598
 40
1.838206120600855
 40
2.129819705210459
 40
2.129819705210459
 40
2.129819705210459
 40
2.129819705210459
 10
1229.606774107693
 20
1567.132566397959
 30
0.0
 10
1229.718302411549
 20
1567.108910777155
 30
0.0
 10
1229.953259730556
 20
1567.05907534479
 30
0.0
 10
1230.323008106728
 20
1567.02583287924
 30
0.0
 10
1230.706650675927
 20
1567.016855962299
 30
0.0
 10
1231.078896357605
 20
1567.038808460599
 30
0.0
 10
1231.416592122598
 20
1567.082732891051
 30
0.0
 10
1231.620781058891
 20
1567.142855417789
 30
0.0
 10
1231.714147717677
 20
1567.170346816399
 30
0.0
 11
1229.606774107693
 21
1567.132566397959
 31
0.0
 11
1229.942383383659
 21
1567.06797659008
 31
0.0
 11
1230.3187427802
 21
1567.030338628038
 31
0.0
 11
1230.710205054086
 21
1567.022217842941
 31
0.0
 11
1231.090093301485
 21
1567.044167189486
 31
0.0
 11
1231.432519006807
 21
1567.094691334493
 31
0.0
 11
1231.714147717677
 21
1567.170346816399
 31
0.0
  0
SPLINE
  5
3D7
330
39
100
AcDbEntity
  8
0
  6
Continuous
 62
     3
100
AcDbSpline
210
0.0
220
0.0
230
1.0
 70
     8
 71
     3
 72
    11
 73
     7
 74
     5
 42
0.0000000001
 43
0.0000000001
 44
0.00000001
 40
0.0
 40
0.0
 40
0.0
 40
0.0
 40
0.170599043703808
 40
0.3512451974716272
 40
0.5435822592603938
 40
0.7469746283273245
 40
0.7469746283273245
 40
0.7469746283273245
 40
0.7469746283273245
 10
1231.42212242679
 20
1566.508140003368
 30
0.0
 10
1231.464605266178
 20
1566.546462729228
 30
0.0
 10
1231.55207289194
 20
1566.625365125864
 30
0.0
 10
1231.641132419341
 20
1566.786208991371
 30
0.0
 10
1231.700825445792
 20
1566.970342140504
 30
0.0
 10
1231.709638635551
 20
1567.10244499336
 30
0.0
 10
1231.714168335402
 20
1567.17034166747
 30
0.0
 11
1231.42212242679
 21
1566.508140003368
 31
0.0
 11
1231.542512685051
 21
1566.629012744002
 31
0.0
 11
1231.633943688255
 21
1566.784811988302
 31
0.0
 11
1231.692080835345
 21
1566.96815215702
 31
0.0
 11
1231.714168335402
 21
1567.17034166747
 31
0.0
  0
SPLINE
  5
3D8
330
39
100
AcDbEntity
  8
0
  6
Continuous
 62
     7
100
AcDbSpline
210
0.0
220
0.0
230
1.0
 70
     8
 71
     3
 72
    13
 73
     9
 74
     7
 42
0.0000000001
 43
0.0000000001
 44
0.00000001
 40
0.0
 40
0.0
 40
0.0
 40
0.0
 40
0.5696374944433008
 40
1.200045008355246
 40
1.852626806613626
 40
2.486827828134304
 40
3.063710978632987
 40
3.54972998834296
 40
3.54972998834296
 40
3.54972998834296
 40
3.54972998834296
 10
1229.256890127066
 20
1568.183578038291
 30
0.0
 10
1229.44277021457
 20
1568.14411098991
 30
0.0
 10
1229.834360433502
 20
1568.060966472797
 30
0.0
 10
1230.450612730113
 20
1568.00545497058
 30
0.0
 10
1231.090020390036
 20
1567.990400255203
 30
0.0
 10
1231.710433207586
 20
1568.026917854328
 30
0.0
 10
1232.273263504579
 20
1568.100078557875
 30
0.0
 10
1232.613577526246
 20
1568.200276696952
 30
0.0
 10
1232.769188352899
 20
1568.246092955637
 30
0.0
 11
1229.256890127066
 21
1568.183578038291
 31
0.0
 11
1229.8162403973
 21
1568.075809071213
 31
0.0
 11
1230.443508037019
 21
1568.012968465245
 31
0.0
 11
1231.095947502438
 21
1567.99933954815
 31
0.0
 11
1231.72909669076
 21
1568.035850382505
 31
0.0
 11
1232.299807409964
 21
1568.120013582981
 31
0.0
 11
1232.769188352899
 21
1568.246092955637
 31
0.0
  0
SPLINE
  5
3D9
330
39
100
AcDbEntity
  8
0
  6
Continuous
 62
     7
100
AcDbSpline
210
0.0
220
0.0
230
1.0
 70
     8
 71
     3
 72
    11
 73
     7
 74
     5
 42
0.0000000001
 43
0.0000000001
 44
0.00000001
 40
0.0
 40
0.0
 40
0.0
 40
0.0
 40
0.1786256989456869
 40
0.4239619164213091
 40
0.7649240318308077
 40
1.198376537340268
 40
1.198376537340268
 40
1.198376537340268
 40
1.198376537340268
 10
1208.752275982843
 20
1573.696494658079
 30
0.0
 10
1208.760730574035
 20
1573.635514430999
 30
0.0
 10
1208.78079725372
 20
1573.490779971795
 30
0.0
 10
1209.002103156156
 20
1573.328353011042
 30
0.0
 10
1209.302856793959
 20
1573.18137917012
 30
0.0
 10
1209.553347293365
 20
1573.11224734324
 30
0.0
 10
1209.693550915096
 20
1573.073553131171
 30
0.0
 11
1208.752275982843
 21
1573.696494658079
 31
0.0
 11
1208.795851501989
 21
1573.523265577221
 31
0.0
 11
1208.975012947109
 21
1573.355661770021
 31
0.0
 11
1209.27986155911
 21
1573.202944750977
 31
0.0
 11
1209.693550915096
 21
1573.073553131171
 31
0.0
  0
SPLINE
  5
3DA
330
39
100
AcDbEntity
  8
0
  6
Continuous
 62
     7
100
AcDbSpline
210
0.0
220
0.0
230
1.0
 70
     8
 71
     3
 72
    11
 73
     7
 74
     5
 42
0.0000000001
 43
0.0000000001
 44
0.00000001
 40
0.0
 40
0.0
 40
0.0
 40
0.0
 40
0.2379688202335061
 40
0.4326357659856048
 40
0.5863828849273678
 40
0.7098892615892788
 40
0.7098892615892788
 40
0.7098892615892788
 40
0.7098892615892788
 10
1248.328967374575
 20
1573.761313691021
 30
0.0
 10
1248.403299248611
 20
1573.789782555201
 30
0.0
 10
1248.538437235297
 20
1573.841539961273
 30
0.0
 10
1248.705217182426
 20
1573.942581755411
 30
0.0
 10
1248.827341240546
 20
1574.050170038391
 30
0.0
 10
1248.856816198876
 20
1574.139231268208
 30
0.0
 10
1248.869946223793
 20
1574.178904815955
 30
0.0
 11
1248.328967374575
 21
1573.761313691021
 31
0.0
 11
1248.548306079124
 21
1573.853615869166
 31
0.0
 11
1248.714066872441
 21
1573.955687310653
 31
0.0
 11
1248.822167584764
 21
1574.065014400517
 31
0.0
 11
1248.869946223793
 21
1574.178904815955
 31
0.0
  0
SPLINE
  5
3DB
330
39
100
AcDbEntity
  8
0
  6
Continuous
 62
     7
100
AcDbSpline
210
0.0
220
0.0
230
1.0
 70
     8
 71
     3
 72
    11
 73
     7
 74
     5
 42
0.0000000001
 43
0.0000000001
 44
0.00000001
 40
0.0
 40
0.0
 40
0.0
 40
0.0
 40
0.1786350057068967
 40
0.4239875991032706
 40
0.7649707139780037
 40
1.19844656733082
 40
1.19844656733082
 40
1.19844656733082
 40
1.19844656733082
 10
698.3884786533089
 20
1392.796265627222
 30
0.0
 10
698.3969364968646
 20
1392.735282773683
 30
0.0
 10
698.4170110660599
 20
1392.590540853945
 30
0.0
 10
698.6383326725772
 20
1392.428109081144
 30
0.0
 10
698.9391052751714
 20
1392.281128127978
 30
0.0
 10
699.1896102856749
 20
1392.211993199242
 30
0.0
 10
699.329821552704
 20
1392.173297382602
 30
0.0
 11
698.3884786533089
 21
1392.796265627222
 31
0.0
 11
698.4320637556255
 21
1392.623029360465
 31
0.0
 11
698.6112407025204
 21
1392.455418153239
 31
0.0
 11
698.9161094111272
 21
1392.302694366152
 31
0.0
 11
699.329821552704
 21
1392.173297382602
 31
0.0
  0
SPLINE
  5
3DC
330
39
100
AcDbEntity
  8
0
  6
Continuous
 62
     7
100
AcDbSpline
210
0.0
220
0.0
230
1.0
 70
     8
 71
     3
 72
    13
 73
     9
 74
     7
 42
0.0000000001
 43
0.0000000001
 44
0.00000001
 40
0.0
 40
0.0
 40
0.0
 40
0.0
 40
0.569650434404603
 40
1.200071379149868
 40
1.852664551444446
 40
2.486872812292399
 40
3.063757522847178
 40
3.54977170215545
 40
3.54977170215545
 40
3.54977170215545
 40
3.54977170215545
 10
718.8930886131899
 20
1387.283070063889
 30
0.0
 10
719.0789725405309
 20
1387.243600274637
 30
0.0
 10
719.470570558497
 20
1387.160450045021
 30
0.0
 10
720.0868351083872
 20
1387.104933384876
 30
0.0
 10
720.7262534354702
 20
1387.089875321319
 30
0.0
 10
721.3466730035267
 20
1387.126392350983
 30
0.0
 10
721.9095048078686
 20
1387.199553933349
 30
0.0
 10
722.2498164927735
 20
1387.299756394453
 30
0.0
 10
722.4054251831439
 20
1387.345574315012
 30
0.0
 11
718.8930886131899
 21
1387.283070063889
 31
0.0
 11
719.4524505805955
 21
1387.175293411327
 31
0.0
 11
720.0797311566614
 21
1387.112447198522
 31
0.0
 11
720.7321819321463
 21
1387.098815100567
 31
0.0
 11
721.3653384030869
 21
1387.135325392731
 31
0.0
 11
721.9360503972041
 21
1387.219490641157
 31
0.0
 11
722.4054251831439
 21
1387.345574315012
 31
0.0
  0
SPLINE
  5
3DD
330
39
100
AcDbEntity
  8
0
  6
Continuous
 62
     7
100
AcDbSpline
210
0.0
220
0.0
230
1.0
 70
     8
 71
     3
 72
    11
 73
     7
 74
     5
 42
0.0000000001
 43
0.0000000001
 44
0.00000001
 40
0.0
 40
0.0
 40
0.0
 40
0.0
 40
0.237961950230804
 40
0.4326239092507067
 40
0.586368176845993
 40
0.709873615212029
 40
0.709873615212029
 40
0.709873615212029
 40
0.709873615212029
 10
737.9651831786449
 20
1392.860718402265
 30
0.0
 10
738.0395127984955
 20
1392.889186712841
 30
0.0
 10
738.1746468847712
 20
1392.940943188188
 30
0.0
 10
738.3414221421076
 20
1393.041983519194
 30
0.0
 10
738.463542748714
 20
1393.149570882682
 30
0.0
 10
738.4930172472039
 20
1393.238630867603
 30
0.0
 10
738.5061471469959
 20
1393.278304101667
 30
0.0
 11
737.9651831786449
 21
1392.860718402265
 31
0.0
 11
738.1845151780575
 21
1392.953018802001
 31
0.0
 11
738.35027109148
 21
1393.055088657761
 31
0.0
 11
738.4583690224487
 21
1393.164414487914
 31
0.0
 11
738.5061471469959
 21
1393.278304101667
 31
0.0
  0
SPLINE
  5
3DE
330
39
100
AcDbEntity
  8
0
  6
Continuous
 62
     7
100
AcDbSpline
210
0.0
220
0.0
230
1.0
 70
     8
 71
     3
 72
    13
 73
     9
 74
     7
 42
0.0000000001
 43
0.0000000001
 44
0.00000001
 40
0.0
 40
0.0
 40
0.0
 40
0.0
 40
0.5696199602024114
 40
1.200018639981256
 40
1.852597558588486
 40
2.486799093573808
 40
3.063683094670814
 40
3.54969901228877
 40
3.54969901228877
 40
3.54969901228877
 40
3.54969901228877
 10
-8.849910234839626
 20
1569.03236099802
 30
0.0
 10
-8.664027610555802
 20
1568.99293454978
 30
0.0
 10
-8.272428597926471
 20
1568.909874832597
 30
0.0
 10
-7.656177336201608
 20
1568.854470054769
 30
0.0
 10
-7.016771660206086
 20
1568.839508514426
 30
0.0
 10
-6.396363719648546
 20
1568.876096697837
 30
0.0
 10
-5.833541654303388
 20
1568.949304956058
 30
0.0
 10
-5.493231110709142
 20
1569.049510999666
 30
0.0
 10
-5.337622536272534
 20
1569.095330677867
 30
0.0
 11
-8.849910234839626
 21
1569.03236099802
 31
0.0
 11
-8.290555073147523
 21
1568.924710163609
 31
0.0
 11
-7.66328528984053
 21
1568.86197967328
 31
0.0
 11
-7.010846740057133
 21
1568.848445133498
 31
0.0
 11
-6.377701202924243
 21
1568.885028132096
 31
0.0
 11
-5.806996269778246
 21
1568.969236385875
 31
0.0
 11
-5.337622536272534
 21
1569.095330677867
 31
0.0
  0
SPLINE
  5
3DF
330
39
100
AcDbEntity
  8
0
  6
Continuous
 62
     7
100
AcDbSpline
210
0.0
220
0.0
230
1.0
 70
     8
 71
     3
 72
    11
 73
     7
 74
     5
 42
0.0000000001
 43
0.0000000001
 44
0.00000001
 40
0.0
 40
0.0
 40
0.0
 40
0.0
 40
0.1785614020433468
 40
0.4238482863088559
 40
0.7647837863047077
 40
1.19822831474509
 40
1.19822831474509
 40
1.19822831474509
 40
1.19822831474509
 10
-29.35465653969436
 20
1574.540467264742
 30
0.0
 10
-29.34620053554356
 20
1574.479508373981
 30
0.0
 10
-29.32612865647382
 20
1574.334811249697
 30
0.0
 10
-29.10479925026876
 20
1574.172480468233
 30
0.0
 10
-28.80403756251771
 20
1574.02560208608
 30
0.0
 10
-28.55354098667727
 20
1573.956532157309
 30
0.0
 10
-28.41333028107533
 20
1573.917871575158
 30
0.0
 11
-29.35465653969436
 21
1574.540467264742
 31
0.0
 11
-29.31108058556397
 21
1574.36730459405
 31
0.0
 11
-29.1319095008688
 21
1574.199783317783
 31
0.0
 11
-28.82704322963062
 21
1574.047161000219
 31
0.0
 11
-28.41333028107533
 21
1573.917871575158
 31
0.0
  0
SPLINE
  5
3E0
330
39
100
AcDbEntity
  8
0
  6
Continuous
 62
     7
100
AcDbSpline
210
0.0
220
0.0
230
1.0
 70
     8
 71
     3
 72
    11
 73
     7
 74
     5
 42
0.0000000001
 43
0.0000000001
 44
0.00000001
 40
0.0
 40
0.0
 40
0.0
 40
0.0
 40
0.2379505493331792
 40
0.432596715094218
 40
0.5863164494613069
 40
0.7097831941899986
 40
0.7097831941899986
 40
0.7097831941899986
 40
0.7097831941899986
 10
10.22214911604351
 20
1574.610500822526
 30
0.0
 10
10.29647532900346
 20
1574.638967296595
 30
0.0
 10
10.43160120142515
 20
1574.690719659458
 30
0.0
 10
10.59836718797508
 20
1574.791739428868
 30
0.0
 10
10.72048396729905
 20
1574.899289918548
 30
0.0
 10
10.7499643934478
 20
1574.988325382481
 30
0.0
 10
10.76309581407725
 20
1575.027984311493
 30
0.0
 11
10.22214911604351
 21
1574.610500822526
 31
0.0
 11
10.4414721451915
 21
1574.702793145139
 31
0.0
 11
10.60722195459283
 21
1574.804842792512
 31
0.0
 11
10.71531704243511
 21
1574.914136931048
 31
0.0
 11
10.76309581407725
 21
1575.027984311493
 31
0.0
  0
SPLINE
  5
3E1
330
39
100
AcDbEntity
  8
0
  6
Continuous
 62
     7
100
AcDbSpline
210
0.0
220
0.0
230
1.0
 70
     8
 71
     3
 72
    13
 73
     9
 74
     7
 42
0.0000000001
 43
0.0000000001
 44
0.00000001
 40
0.0
 40
0.0
 40
0.0
 40
0.0
 40
0.4675798463533766
 40
0.976405612444526
 40
1.498465467727193
 40
2.004334579995581
 40
2.466323509893359
 40
2.861946689259912
 40
2.861946689259912
 40
2.861946689259912
 40
2.861946689259912
 10
2138.68379040922
 20
2010.747129245342
 30
0.0
 10
2138.53294158731
 20
2010.787182238666
 30
0.0
 10
2138.217937342598
 20
2010.870821359945
 30
0.0
 10
2137.719097272806
 20
2010.920255002735
 30
0.0
 10
2137.206004057545
 20
2010.922788967653
 30
0.0
 10
2136.711914833398
 20
2010.868064070442
 30
0.0
 10
2136.264789224543
 20
2010.771949180991
 30
0.0
 10
2136.003973786234
 20
2010.653217665799
 30
0.0
 10
2135.883657582886
 20
2010.598445888415
 30
0.0
 11
2138.68379040922
 21
2010.747129245342
 31
0.0
 11
2138.228941114185
 21
2010.855494514327
 31
0.0
 11
2137.72325668628
 21
2010.911947323052
 31
0.0
 11
2137.201197290248
 21
2010.912639791024
 31
0.0
 11
2136.698339475737
 21
2010.857525572053
 31
0.0
 11
2136.248951840536
 21
2010.750359697465
 31
0.0
 11
2135.883657582886
 21
2010.598445888415
 31
0.0
  0
SPLINE
  5
3E2
330
39
100
AcDbEntity
  8
0
  6
Continuous
 62
     7
100
AcDbSpline
210
0.0
220
0.0
230
1.0
 70
     8
 71
     3
 72
    13
 73
     9
 74
     7
 42
0.0000000001
 43
0.0000000001
 44
0.00000001
 40
0.0
 40
0.0
 40
0.0
 40
0.0
 40
0.1704462785516039
 40
0.3331131842268549
 40
0.5162392590867299
 40
0.7380471678430127
 40
1.004630785818997
 40
1.314162734517545
 40
1.314162734517545
 40
1.314162734517545
 40
1.314162734517545
 10
1562.754041544532
 20
1698.630040044126
 30
0.0
 10
1562.72843019791
 20
1698.578104102736
 30
0.0
 10
1562.67837643729
 20
1698.476602638702
 30
0.0
 10
1562.701561101063
 20
1698.29681320649
 30
0.0
 10
1562.805042169968
 20
1698.134078778253
 30
0.0
 10
1562.977609347402
 20
1697.988068218565
 30
0.0
 10
1563.211198834502
 20
1697.857828336259
 30
0.0
 10
1563.39277308595
 20
1697.794436848917
 30
0.0
 10
1563.490328220952
 20
1697.760378247235
 30
0.0
 11
1562.754041544532
 21
1698.630040044126
 31
0.0
 11
1562.694229050264
 21
1698.470433028611
 31
0.0
 11
1562.711156472587
 21
1698.308649269923
 31
0.0
 11
1562.804173679846
 21
1698.15090593901
 31
0.0
 11
1562.969705766451
 21
1698.003264899015
 31
0.0
 11
1563.201391857683
 21
1697.871399890377
 31
0.0
 11
1563.490328220952
 21
1697.760378247235
 31
0.0
  0
SPLINE
  5
3E3
330
39
100
AcDbEntity
  8
0
  6
Continuous
 62
     7
100
AcDbSpline
210
0.0
220
0.0
230
1.0
 70
     8
 71
     3
 72
    11
 73
     7
 74
     5
 42
0.0000000001
 43
0.0000000001
 44
0.00000001
 40
0.0
 40
0.0
 40
0.0
 40
0.0
 40
0.2746944011309087
 40
0.6074135465485562
 40
1.007296889853048
 40
1.471602446285298
 40
1.471602446285298
 40
1.471602446285298
 40
1.471602446285298
 10
1561.714960666728
 20
1697.34524661393
 30
0.0
 10
1561.756767520332
 20
1697.26278351486
 30
0.0
 10
1561.849212248412
 20
1697.080438322314
 30
0.0
 10
1562.116977440567
 20
1696.865414097998
 30
0.0
 10
1562.46431664065
 20
1696.668687596733
 30
0.0
 10
1562.737165277793
 20
1696.573817671694
 30
0.0
 10
1562.883759544774
 20
1696.522846601194
 30
0.0
 11
1561.714960666728
 21
1697.34524661393
 31
0.0
 11
1561.854497292897
 21
1697.108631855367
 31
0.0
 11
1562.102806221647
 21
1696.88717146245
 31
0.0
 11
1562.450345665464
 21
1696.689376054911
 31
0.0
 11
1562.883759544774
 21
1696.522846601194
 31
0.0
  0
SPLINE
  5
3E4
330
39
100
AcDbEntity
  8
0
  6
Continuous
 62
     7
100
AcDbSpline
210
0.0
220
0.0
230
1.0
 70
     8
 71
     3
 72
    11
 73
     7
 74
     5
 42
0.0000000001
 43
0.0000000001
 44
0.00000001
 40
0.0
 40
0.0
 40
0.0
 40
0.0
 40
0.3681789409492167
 40
0.6715979999279027
 40
0.9272731845434836
 40
1.171281346019277
 40
1.171281346019277
 40
1.171281346019277
 40
1.171281346019277
 10
1562.285975258665
 20
1698.26006293505
 30
0.0
 10
1562.180284318536
 20
1698.196479793657
 30
0.0
 10
1561.987492672663
 20
1698.080497302972
 30
0.0
 10
1561.775325363466
 20
1697.851381670989
 30
0.0
 10
1561.664115856943
 20
1697.593259695445
 30
0.0
 10
1561.698278281048
 20
1697.426620699053
 30
0.0
 10
1561.714960666728
 20
1697.34524661393
 30
0.0
 11
1562.285975258665
 21
1698.26006293505
 31
0.0
 11
1561.980660921147
 21
1698.054298779123
 31
0.0
 11
1561.779275839149
 21
1697.827346858884
 31
0.0
 11
1561.68955997858
 21
1697.587929097658
 31
0.0
 11
1561.714960666728
 21
1697.34524661393
 31
0.0
  0
SPLINE
  5
3E5
330
39
100
AcDbEntity
  8
0
  6
Continuous
 62
     7
100
AcDbSpline
210
0.0
220
0.0
230
1.0
 70
     8
 71
     3
 72
    11
 73
     7
 74
     5
 42
0.0000000001
 43
0.0000000001
 44
0.00000001
 40
0.0
 40
0.0
 40
0.0
 40
0.0
 40
0.255673541715239
 40
0.4996770261881068
 40
0.7743699511081377
 40
1.107087323354425
 40
1.107087323354425
 40
1.107087323354425
 40
1.107087323354425
 10
1561.742099712116
 20
1692.362497733007
 30
0.0
 10
1561.703659862244
 20
1692.284560608723
 30
0.0
 10
1561.628534725156
 20
1692.13224375094
 30
0.0
 10
1561.663625273676
 20
1691.863031663063
 30
0.0
 10
1561.817424062454
 20
1691.616765596386
 30
0.0
 10
1561.977768149289
 20
1691.491137594204
 30
0.0
 10
1562.065598835525
 20
1691.422323122401
 30
0.0
 11
1561.742099712116
 21
1692.362497733007
 31
0.0
 11
1561.652377186437
 21
1692.12308422395
 31
0.0
 11
1561.677767560034
 21
1691.880405363389
 31
0.0
 11
1561.817295638861
 21
1691.643787278239
 31
0.0
 11
1562.065598835525
 21
1691.422323122401
 31
0.0
  0
SPLINE
  5
3E6
330
39
100
AcDbEntity
  8
0
  6
Continuous
 62
     7
100
AcDbSpline
210
0.0
220
0.0
230
1.0
 70
     8
 71
     3
 72
    11
 73
     7
 74
     5
 42
0.0000000001
 43
0.0000000001
 44
0.00000001
 40
0.0
 40
0.0
 40
0.0
 40
0.0
 40
0.3681541963711631
 40
0.6715555873698587
 40
0.9272181951806195
 40
1.171213215012123
 40
1.171213215012123
 40
1.171213215012123
 40
1.171213215012123
 10
2902.758887847665
 20
1767.674497858345
 30
0.0
 10
2902.864570446526
 20
1767.738078754362
 30
0.0
 10
2903.057347659043
 20
1767.854057619715
 30
0.0
 10
2903.269498892898
 20
1768.08316265104
 30
0.0
 10
2903.380702890486
 20
1768.341268969587
 30
0.0
 10
2903.346548309336
 20
1768.507900231545
 30
0.0
 10
2903.329869793401
 20
1768.589270345432
 30
0.0
 11
2902.758887847665
 21
1767.674497858345
 31
0.0
 11
2903.064177917627
 21
1767.880253746446
 31
0.0
 11
2903.265548722743
 21
1768.107194714336
 31
0.0
 11
2903.355261635474
 21
1768.346600149366
 31
0.0
 11
2903.329869793401
 21
1768.589270345432
 31
0.0
  0
SPLINE
  5
3E7
330
39
100
AcDbEntity
  8
0
  6
Continuous
 62
     7
100
AcDbSpline
210
0.0
220
0.0
230
1.0
 70
     8
 71
     3
 72
    13
 73
     9
 74
     7
 42
0.0000000001
 43
0.0000000001
 44
0.00000001
 40
0.0
 40
0.0
 40
0.0
 40
0.0
 40
0.2454393606593347
 40
0.4477087863425155
 40
0.6181522431512725
 40
0.780819313010265
 40
0.9639478587436829
 40
1.185759081713472
 40
1.185759081713472
 40
1.185759081713472
 40
1.185759081713472
 10
2901.965412179207
 20
1768.837665448707
 30
0.0
 10
2902.035750126736
 20
1768.880008740293
 30
0.0
 10
2902.164054393164
 20
1768.95724762991
 30
0.0
 10
2902.306815658623
 20
1769.110493646988
 30
0.0
 10
2902.376912978808
 20
1769.281033005235
 30
0.0
 10
2902.356068276295
 20
1769.458696597008
 30
0.0
 10
2902.252753876951
 20
1769.62341812438
 30
0.0
 10
2902.145980475487
 20
1769.707080834164
 30
0.0
 10
2902.087493903927
 20
1769.752908212477
 30
0.0
 11
2901.965412179207
 21
1768.837665448707
 31
0.0
 11
2902.168940667144
 21
1768.974839186569
 31
0.0
 11
2902.303186739891
 21
1769.126136617208
 31
0.0
 11
2902.362991159627
 21
1769.285743645089
 31
0.0
 11
2902.346056091671
 21
1769.447526768714
 31
0.0
 11
2902.253031957146
 21
1769.605268883123
 31
0.0
 11
2902.087493903927
 21
1769.752908212477
 31
0.0
  0
SPLINE
  5
3E8
330
39
100
AcDbEntity
  8
0
  6
Continuous
 62
     7
100
AcDbSpline
210
0.0
220
0.0
230
1.0
 70
     8
 71
     3
 72
    13
 73
     9
 74
     7
 42
0.0000000001
 43
0.0000000001
 44
0.00000001
 40
0.0
 40
0.0
 40
0.0
 40
0.0
 40
0.4675893276575244
 40
0.9764276741781829
 40
1.498501100715016
 40
2.004382484717007
 40
2.466380330040331
 40
2.86200772672021
 40
2.86200772672021
 40
2.86200772672021
 40
2.86200772672021
 10
2326.373401356945
 20
1457.009039242704
 30
0.0
 10
2326.524252951646
 20
1456.968984301805
 30
0.0
 10
2326.839263716537
 20
1456.885340919745
 30
0.0
 10
2327.338115662712
 20
1456.835905094504
 30
0.0
 10
2327.851221755584
 20
1456.833371114341
 30
0.0
 10
2328.345322312447
 20
1456.88809893948
 30
0.0
 10
2328.792455956175
 20
1456.984218298817
 30
0.0
 10
2329.053273458196
 20
1457.102956040829
 30
0.0
 10
2329.173590053696
 20
1457.15773043582
 30
0.0
 11
2326.373401356945
 21
1457.009039242704
 31
0.0
 11
2326.8282591508
 21
1456.900668736065
 31
0.0
 11
2327.333955930795
 21
1456.844213181937
 31
0.0
 11
2327.856028898272
 21
1456.84352084811
 31
0.0
 11
2328.358898728441
 21
1456.898638073958
 31
0.0
 11
2328.808294222355
 21
1457.005809428028
 31
0.0
 11
2329.173590053696
 21
1457.15773043582
 31
0.0
  0
SPLINE
  5
3E9
330
39
100
AcDbEntity
  8
0
  6
Continuous
 62
     7
100
AcDbSpline
210
0.0
220
0.0
230
1.0
 70
     8
 71
     3
 72
    13
 73
     9
 74
     7
 42
0.0000000001
 43
0.0000000001
 44
0.00000001
 40
0.0
 40
0.0
 40
0.0
 40
0.0
 40
0.7013813323792477
 40
1.464634911127972
 40
2.247740503782865
 40
3.006558193026449
 40
3.699551453261943
 40
4.292990435957078
 40
4.292990435957078
 40
4.292990435957078
 40
4.292990435957078
 10
2325.766792267064
 20
1455.771520350421
 30
0.0
 10
2325.993068948421
 20
1455.711438743498
 30
0.0
 10
2326.465583273781
 20
1455.585975439938
 30
0.0
 10
2327.213857520917
 20
1455.511822910777
 30
0.0
 10
2327.98351235127
 20
1455.508022454809
 30
0.0
 10
2328.724659063854
 20
1455.590113709252
 30
0.0
 10
2329.3953562501
 20
1455.734291679051
 30
0.0
 10
2329.786581221316
 20
1455.912396529426
 30
0.0
 10
2329.967055669309
 20
1455.994557375286
 30
0.0
 11
2325.766792267064
 21
1455.771520350421
 31
0.0
 11
2326.449076750456
 21
1455.608966798838
 31
0.0
 11
2327.207618114507
 21
1455.524284897014
 31
0.0
 11
2327.990723019212
 21
1455.523246882354
 31
0.0
 11
2328.745023405264
 21
1455.605922230015
 31
0.0
 11
2329.419113366645
 21
1455.766677891495
 31
0.0
 11
2329.967055669309
 21
1455.994557375286
 31
0.0
  0
SPLINE
  5
3EA
330
39
100
AcDbEntity
  8
0
  6
Continuous
 62
     7
100
AcDbSpline
210
0.0
220
0.0
230
1.0
 70
     8
 71
     3
 72
    13
 73
     9
 74
     7
 42
0.0000000001
 43
0.0000000001
 44
0.00000001
 40
0.0
 40
0.0
 40
0.0
 40
0.0
 40
0.7013803002835526
 40
1.464632833849181
 40
2.247737304355098
 40
3.006553930181202
 40
3.699546361019158
 40
4.292984871124751
 40
4.292984871124751
 40
4.292984871124751
 40
4.292984871124751
 10
2325.72961026327
 20
1450.306655833805
 30
0.0
 10
2325.955886615376
 20
1450.24657432426
 30
0.0
 10
2326.428400278341
 20
1450.121111217368
 30
0.0
 10
2327.176673487838
 20
1450.046959022238
 30
0.0
 10
2327.946327230705
 20
1450.043158642783
 30
0.0
 10
2328.68747295006
 20
1450.125249747178
 30
0.0
 10
2329.358169367566
 20
1450.269427422388
 30
0.0
 10
2329.749394063602
 20
1450.447531815341
 30
0.0
 10
2329.929868423586
 20
1450.529692467913
 30
0.0
 11
2325.72961026327
 21
1450.306655833805
 31
0.0
 11
2326.411893755964
 21
1450.144102577229
 31
0.0
 11
2327.170434100274
 21
1450.059420961469
 31
0.0
 11
2327.953537882939
 21
1450.058383029788
 31
0.0
 11
2328.70783721643
 21
1450.141058220298
 31
0.0
 11
2329.381926413502
 21
1450.301813511312
 31
0.0
 11
2329.929868423586
 21
1450.529692467913
 31
0.0
  0
SPLINE
  5
3EB
330
39
100
AcDbEntity
  8
0
  6
Continuous
 62
     7
100
AcDbSpline
210
0.0
220
0.0
230
1.0
 70
     8
 71
     3
 72
    13
 73
     9
 74
     7
 42
0.0000000001
 43
0.0000000001
 44
0.00000001
 40
0.0
 40
0.0
 40
0.0
 40
0.0
 40
0.467586537648067
 40
0.9764220038812954
 40
1.498492912036873
 40
2.004372566382775
 40
2.466369793794323
 40
2.861997800239482
 40
2.861997800239482
 40
2.861997800239482
 40
2.861997800239482
 10
2326.323818004856
 20
1449.722555013373
 30
0.0
 10
2326.474668650326
 20
1449.682500131521
 30
0.0
 10
2326.789677483294
 20
1449.598856859411
 30
0.0
 10
2327.288526614126
 20
1449.549420488592
 30
0.0
 10
2327.801630305824
 20
1449.546885497535
 30
0.0
 10
2328.295729407991
 20
1449.601611788317
 30
0.0
 10
2328.742862729867
 20
1449.697729465135
 30
0.0
 10
2329.003681024411
 20
1449.816465407135
 30
0.0
 10
2329.123998172089
 20
1449.871239056711
 30
0.0
 11
2326.323818004856
 21
1449.722555013373
 31
0.0
 11
2326.778672947087
 21
1449.6141845759
 31
0.0
 11
2327.284366772534
 21
1449.557728516867
 31
0.0
 11
2327.806437220191
 21
1449.557035100904
 31
0.0
 11
2328.309305484184
 21
1449.612150740696
 31
0.0
 11
2328.758700806756
 21
1449.719320149512
 31
0.0
 11
2329.123998172089
 21
1449.871239056711
 31
0.0
  0
SPLINE
  5
3EC
330
39
100
AcDbEntity
  8
0
  6
Continuous
 62
     7
100
AcDbSpline
210
0.0
220
0.0
230
1.0
 70
     8
 71
     3
 72
    13
 73
     9
 74
     7
 42
0.0000000001
 43
0.0000000001
 44
0.00000001
 40
0.0
 40
0.0
 40
0.0
 40
0.0
 40
0.4556991222643955
 40
0.9600247915907194
 40
1.482096780923111
 40
1.989467307906129
 40
2.450982570155872
 40
2.839800697485882
 40
2.839800697485882
 40
2.839800697485882
 40
2.839800697485882
 10
687.574033312092
 20
1531.243950320596
 30
0.0
 10
687.7227404176743
 20
1531.212408803507
 30
0.0
 10
688.0360228030676
 20
1531.145960050611
 30
0.0
 10
688.5290302035173
 20
1531.101636875912
 30
0.0
 10
689.0405630821384
 20
1531.089669054923
 30
0.0
 10
689.5368980413298
 20
1531.118942156543
 30
0.0
 10
689.9871630193753
 20
1531.177511780527
 30
0.0
 10
690.2594152104073
 20
1531.257679797705
 30
0.0
 10
690.3839035444838
 20
1531.294336923831
 30
0.0
 11
687.574033312092
 21
1531.243950320596
 31
0.0
 11
688.0215204989903
 21
1531.1578288506
 31
0.0
 11
688.5233431128844
 21
1531.107644740306
 31
0.0
 11
689.0453028394308
 21
1531.096818572511
 31
0.0
 11
689.551828435059
 21
1531.126087542847
 31
0.0
 11
690.0084000232973
 21
1531.193457581461
 31
0.0
 11
690.3839035444838
 21
1531.294336923831
 31
0.0
  0
SPLINE
  5
3ED
330
39
100
AcDbEntity
  8
0
  6
Continuous
 62
     7
100
AcDbSpline
210
0.0
220
0.0
230
1.0
 70
     8
 71
     3
 72
    13
 73
     9
 74
     7
 42
0.0000000001
 43
0.0000000001
 44
0.00000001
 40
0.0
 40
0.0
 40
0.0
 40
0.0
 40
0.6835463103508661
 40
1.440033324845385
 40
2.223140871486813
 40
2.984197352980723
 40
3.676472039502157
 40
4.259701972419246
 40
4.259701972419246
 40
4.259701972419246
 40
4.259701972419246
 10
686.967964053741
 20
1531.978932099036
 30
0.0
 10
687.191023832325
 20
1531.931619483634
 30
0.0
 10
687.6609459279156
 20
1531.831945559814
 30
0.0
 10
688.4004554976926
 20
1531.765459660218
 30
0.0
 10
689.1677543645592
 20
1531.74750663881
 30
0.0
 10
689.9122575751759
 20
1531.791414949481
 30
0.0
 10
690.5876569157529
 20
1531.879268219567
 30
0.0
 10
690.9960370710563
 20
1531.999519221671
 30
0.0
 10
691.1827706406199
 20
1532.054504505787
 30
0.0
 11
686.967964053741
 21
1531.978932099036
 31
0.0
 11
687.6391922213423
 21
1531.849748874844
 31
0.0
 11
688.3919245226225
 21
1531.774471483096
 31
0.0
 11
689.1748636468873
 21
1531.75823087651
 31
0.0
 11
689.9346528129485
 21
1531.802132939787
 31
0.0
 11
690.6195122043741
 21
1531.903186665965
 31
0.0
 11
691.1827706406199
 21
1532.054504505787
 31
0.0
  0
SPLINE
  5
3EE
330
39
100
AcDbEntity
  8
0
  6
Continuous
 62
     7
100
AcDbSpline
210
0.0
220
0.0
230
1.0
 70
     8
 71
     3
 72
    13
 73
     9
 74
     7
 42
0.0000000001
 43
0.0000000001
 44
0.00000001
 40
0.0
 40
0.0
 40
0.0
 40
0.0
 40
0.6835436783536135
 40
1.440026879997502
 40
2.22313016112907
 40
2.984182719091078
 40
3.676454566887045
 40
4.259683308495064
 40
4.259683308495064
 40
4.259683308495064
 40
4.259683308495064
 10
687.0660141261179
 20
1537.712445964912
 30
0.0
 10
687.2890731050325
 20
1537.665133823995
 30
0.0
 10
687.7589932222595
 20
1537.565460962073
 30
0.0
 10
688.4984992338054
 20
1537.498975663711
 30
0.0
 10
689.2657940921488
 20
1537.481022798301
 30
0.0
 10
690.0102936528092
 20
1537.524930586868
 30
0.0
 10
690.6856903746882
 20
1537.612783013568
 30
0.0
 10
691.0940695203199
 20
1537.733032641669
 30
0.0
 10
691.2808028367798
 20
1537.788017358932
 30
0.0
 11
687.0660141261179
 21
1537.712445964912
 31
0.0
 11
687.737239860645
 21
1537.583264025285
 31
0.0
 11
688.489968406014
 21
1537.50798739308
 31
0.0
 11
689.2729032664821
 21
1537.491746913322
 31
0.0
 11
690.0326885328929
 21
1537.535648450034
 31
0.0
 11
690.717545218862
 21
1537.636701064716
 31
0.0
 11
691.2808028367798
 21
1537.788017358932
 31
0.0
  0
SPLINE
  5
3EF
330
39
100
AcDbEntity
  8
0
  6
Continuous
 62
     7
100
AcDbSpline
210
0.0
220
0.0
230
1.0
 70
     8
 71
     3
 72
    13
 73
     9
 74
     7
 42
0.0000000001
 43
0.0000000001
 44
0.00000001
 40
0.0
 40
0.0
 40
0.0
 40
0.0
 40
0.455697083205771
 40
0.9600218200579871
 40
1.482094041350258
 40
1.989465916078746
 40
2.450983495201425
 40
2.839804658970001
 40
2.839804658970001
 40
2.839804658970001
 40
2.839804658970001
 10
687.7047399468339
 20
1538.888642166524
 30
0.0
 10
687.8534462681349
 20
1538.857100220622
 30
0.0
 10
688.1667274333887
 20
1538.790650472688
 30
0.0
 10
688.659733817471
 20
1538.746326021052
 30
0.0
 10
689.171266872514
 20
1538.734356836604
 30
0.0
 10
689.6676032193135
 20
1538.763628629997
 30
0.0
 10
690.1178705622392
 20
1538.822197179884
 30
0.0
 10
690.3901248545418
 20
1538.90236435584
 30
0.0
 10
690.514614337891
 20
1538.939021152807
 30
0.0
 11
687.7047399468339
 21
1538.888642166524
 31
0.0
 11
688.1522248139876
 21
1538.802519432529
 31
0.0
 11
688.6540463513009
 21
1538.752333927754
 31
0.0
 11
689.1760062802741
 21
1538.74150633378
 31
0.0
 11
689.6825333044725
 21
1538.770773944244
 31
0.0
 11
690.1391074121898
 21
1538.838142779779
 31
0.0
 11
690.514614337891
 21
1538.939021152807
 31
0.0
  0
SPLINE
  5
3F0
330
39
100
AcDbEntity
  8
0
  6
Continuous
 62
     7
100
AcDbSpline
210
0.0
220
0.0
230
1.0
 70
     8
 71
     3
 72
    11
 73
     7
 74
     5
 42
0.0000000001
 43
0.0000000001
 44
0.00000001
 40
0.0
 40
0.0
 40
0.0
 40
0.0
 40
0.3486656686319338
 40
0.6165449986427285
 40
0.8156239272852663
 40
0.9890547559708081
 40
0.9890547559708081
 40
0.9890547559708081
 40
0.9890547559708081
 10
1285.041941006858
 20
1748.248830237003
 30
0.0
 10
1285.150778608068
 20
1748.29143670272
 30
0.0
 10
1285.343235981212
 20
1748.366777654559
 30
0.0
 10
1285.567410542648
 20
1748.518400363779
 30
0.0
 10
1285.707812116883
 20
1748.702175642385
 30
0.0
 10
1285.685176434262
 20
1748.82931958091
 30
0.0
 10
1285.674637850728
 20
1748.888514483021
 30
0.0
 11
1285.041941006858
 21
1748.248830237003
 31
0.0
 11
1285.361098319983
 21
1748.389209572953
 31
0.0
 11
1285.577775129848
 21
1748.546723050197
 31
0.0
 11
1285.683644269378
 21
1748.715317667919
 31
0.0
 11
1285.674637850728
 21
1748.888514483021
 31
0.0
  0
SPLINE
  5
3F1
330
39
100
AcDbEntity
  8
0
  6
Continuous
 62
     7
100
AcDbSpline
210
0.0
220
0.0
230
1.0
 70
     8
 71
     3
 72
    13
 73
     9
 74
     7
 42
0.0000000001
 43
0.0000000001
 44
0.00000001
 40
0.0
 40
0.0
 40
0.0
 40
0.0
 40
0.2324302286203885
 40
0.4110049397443447
 40
0.5437167715163983
 40
0.6593360286682913
 40
0.8000528034091711
 40
0.9896133119601969
 40
0.9896133119601969
 40
0.9896133119601969
 40
0.9896133119601969
 10
1284.275792061578
 20
1749.39984805143
 30
0.0
 10
1284.348174149921
 20
1749.428173944666
 30
0.0
 10
1284.476166950319
 20
1749.478262446974
 30
0.0
 10
1284.627329249095
 20
1749.580137146647
 30
0.0
 10
1284.716452098655
 20
1749.700604341235
 30
0.0
 10
1284.707338249086
 20
1749.84007355175
 30
0.0
 10
1284.608074896295
 20
1749.959099236131
 30
0.0
 10
1284.513757031841
 20
1750.016048707087
 30
0.0
 10
1284.459623904146
 20
1750.048734487255
 30
0.0
 11
1284.275792061578
 21
1749.39984805143
 31
0.0
 11
1284.48854843293
 21
1749.4934351105
 31
0.0
 11
1284.632985559036
 21
1749.598443891349
 31
0.0
 11
1284.703552721137
 21
1749.710839202307
 31
0.0
 11
1284.697538555575
 21
1749.826301934117
 31
0.0
 11
1284.615173802183
 21
1749.940395133266
 31
0.0
 11
1284.459623904146
 21
1750.048734487255
 31
0.0
  0
SPLINE
  5
3F2
330
39
100
AcDbEntity
  8
0
  6
Continuous
 62
     7
100
AcDbSpline
210
0.0
220
0.0
230
1.0
 70
     8
 71
     3
 72
    11
 73
     7
 74
     5
 42
0.0000000001
 43
0.0000000001
 44
0.00000001
 40
0.0
 40
0.0
 40
0.0
 40
0.0
 40
0.1407198507921526
 40
0.330288033222465
 40
0.5738347159952032
 40
0.8677378517410324
 40
0.8677378517410324
 40
0.8677378517410324
 40
0.8677378517410324
 10
-59.70720557740071
 20
1718.075709268885
 30
0.0
 10
-59.68206122380728
 20
1718.035466085597
 30
0.0
 10
-59.62304411251649
 20
1717.94101003136
 30
0.0
 10
-59.45421241054054
 20
1717.840351356367
 30
0.0
 10
-59.23328281346021
 20
1717.742983397106
 30
0.0
 10
-59.05990598929635
 20
1717.695870071515
 30
0.0
 10
-58.96509529156856
 20
1717.670106263156
 30
0.0
 11
-59.70720557740071
 21
1718.075709268885
 31
0.0
 11
-59.62484586540538
 21
1717.961608636779
 31
0.0
 11
-59.46929161312494
 21
1717.853262107589
 31
0.0
 11
-59.24652078844292
 21
1717.754833725707
 31
0.0
 11
-58.96509529156856
 21
1717.670106263156
 31
0.0
  0
SPLINE
  5
3F3
330
39
100
AcDbEntity
  8
0
  6
Continuous
 62
     7
100
AcDbSpline
210
0.0
220
0.0
230
1.0
 70
     8
 71
     3
 72
    11
 73
     7
 74
     5
 42
0.0000000001
 43
0.0000000001
 44
0.00000001
 40
0.0
 40
0.0
 40
0.0
 40
0.0
 40
0.2110736646069193
 40
0.4954139209757267
 40
0.860714676427321
 40
1.30154386665264
 40
1.30154386665264
 40
1.30154386665264
 40
1.30154386665264
 10
-60.58625399057496
 20
1724.746987793367
 30
0.0
 10
-60.54853688385768
 20
1724.686625936295
 30
0.0
 10
-60.46001054040567
 20
1724.544949785719
 30
0.0
 10
-60.20677544801143
 20
1724.393967945593
 30
0.0
 10
-59.87539877092139
 20
1724.247921714429
 30
0.0
 10
-59.61534869789954
 20
1724.177253339417
 30
0.0
 10
-59.47314127374534
 20
1724.138608598953
 30
0.0
 11
-60.58625399057496
 21
1724.746987793367
 31
0.0
 11
-60.46271377817801
 21
1724.575844847817
 31
0.0
 11
-60.22939186657595
 21
1724.413332488416
 31
0.0
 11
-59.89525403633896
 21
1724.265695933532
 31
0.0
 11
-59.47314127374534
 21
1724.138608598953
 31
0.0
  0
SPLINE
  5
3F4
330
39
100
AcDbEntity
  8
0
  6
Continuous
 62
     7
100
AcDbSpline
210
0.0
220
0.0
230
1.0
 70
     8
 71
     3
 72
    13
 73
     9
 74
     7
 42
0.0000000001
 43
0.0000000001
 44
0.00000001
 40
0.0
 40
0.0
 40
0.0
 40
0.0
 40
0.1327270782171042
 40
0.2483498231230639
 40
0.3890641506700641
 40
0.578623897338534
 40
0.8221599368283165
 40
1.116051056628033
 40
1.116051056628033
 40
1.116051056628033
 40
1.116051056628033
 10
-59.51189142898772
 20
1725.948268944771
 30
0.0
 10
-59.54127307464655
 20
1725.913128102672
 30
0.0
 10
-59.59624999872602
 20
1725.847374964452
 30
0.0
 10
-59.58609557586442
 20
1725.706104764617
 30
0.0
 10
-59.48670010242938
 20
1725.588553815179
 30
0.0
 10
-59.32571969474399
 20
1725.483932290749
 30
0.0
 10
-59.10183478672383
 20
1725.388064393127
 30
0.0
 10
-58.92895465373969
 20
1725.340703838006
 30
0.0
 10
-58.83441544969014
 20
1725.314804799711
 30
0.0
 11
-59.51189142898772
 21
1725.948268944771
 31
0.0
 11
-59.58248240467869
 21
1725.835870584271
 31
0.0
 11
-59.57648623084407
 21
1725.720403424269
 31
0.0
 11
-59.49413297433186
 21
1725.606304944354
 31
0.0
 11
-59.33858789046468
 21
1725.497960011654
 31
0.0
 11
-59.11582834563979
 21
1725.399532435642
 31
0.0
 11
-58.83441544969014
 21
1725.314804799711
 31
0.0
  0
SPLINE
  5
3F5
330
39
100
AcDbEntity
  8
0
  6
Continuous
 62
     7
100
AcDbSpline
210
0.0
220
0.0
230
1.0
 70
     8
 71
     3
 72
    13
 73
     9
 74
     7
 42
0.0000000001
 43
0.0000000001
 44
0.00000001
 40
0.0
 40
0.0
 40
0.0
 40
0.0
 40
0.4556908344724676
 40
0.9600056136094859
 40
1.482066123805574
 40
1.989426718160656
 40
2.450935534667985
 40
2.839752096322764
 40
2.839752096322764
 40
2.839752096322764
 40
2.839752096322764
 10
537.4162913001859
 20
1936.658045819579
 30
0.0
 10
537.267586803609
 20
1936.689586282235
 30
0.0
 10
536.9543104752668
 20
1936.756032694836
 30
0.0
 10
536.4613133184596
 20
1936.800354938372
 30
0.0
 10
535.9497912503406
 20
1936.812323087532
 30
0.0
 10
535.4534654573354
 20
1936.7830521288
 30
0.0
 10
535.0032062998001
 20
1936.724485392741
 30
0.0
 10
534.7309556963776
 20
1936.644321578802
 30
0.0
 10
534.6064674166559
 20
1936.607666176875
 30
0.0
 11
537.4162913001859
 21
1936.658045819579
 31
0.0
 11
536.9688120147301
 21
1936.74416449183
 31
0.0
 11
536.4670002156354
 21
1936.794347305076
 31
0.0
 11
535.9450519798659
 21
1936.805173915039
 31
0.0
 11
535.4385362072634
 21
1936.775907128245
 31
0.0
 11
534.9819705902814
 21
1936.708540778308
 31
0.0
 11
534.6064674166559
 21
1936.607666176875
 31
0.0
  0
LWPOLYLINE
  5
3F6
330
39
100
AcDbEntity
  8
TITELHOEK
  6
Continuous
 62
     1
 60
     1
100
AcDbPolyline
 90
        3
 70
     0
 43
0.0
 10
-25.08613373469401
 20
-81.374373693878
 10
-25.32183573469398
 20
-81.138670693878
 10
-25.91109173469399
 20
-81.96362869387798
  0
LWPOLYLINE
  5
3F7
330
39
100
AcDbEntity
  8
TITELHOEK
  6
Continuous
 62
     1
 60
     1
100
AcDbPolyline
 90
        3
 70
     0
 43
0.0
 10
-17.99531673469399
 20
-86.55274469387797
 10
-18.23101873469399
 20
-86.31704169387797
 10
-18.820274734694
 20
-87.14199969387801
  0
TEXT
  5
3F9
330
39
100
AcDbEntity
  8
TITELHOEK
 62
     2
100
AcDbText
 10
-16.428658734694
 20
-83.75994469387797
 30
0.0
 40
1.35
  1
+0,5
 41
0.99
  7
CONVERTER_1
100
AcDbText
  0
TEXT
  5
3FA
330
39
100
AcDbEntity
  8
TITELHOEK
 62
     2
100
AcDbText
 10
-23.51947473469399
 20
-77.50568869387797
 30
0.0
 40
1.35
  1
-0,2
 41
0.99
  7
CONVERTER_1
100
AcDbText
  0
TEXT
  5
3FB
330
39
100
AcDbEntity
  8
TITELHOEK
 62
     2
100
AcDbText
 10
-23.51947473469399
 20
-79.57776269387801
 30
0.0
 40
1.35
  1
-0,5
 41
0.99
  7
CONVERTER_1
100
AcDbText
  0
TEXT
  5
3FC
330
39
100
AcDbEntity
  8
KADDUN
 62
     2
100
AcDbText
 10
-40.31683673469399
 20
-64.93673469387801
 30
0.0
 40
2.2
  1
 
 41
0.99
  7
CONVERTER_1
100
AcDbText
  0
TEXT
  5
3FD
330
39
100
AcDbEntity
  8
KADDUN
 62
     2
100
AcDbText
 10
-40.31683673469399
 20
-69.93673469387801
 30
0.0
 40
2.2
  1
 
 41
0.99
  7
CONVERTER_1
100
AcDbText
  0
TEXT
  5
3FE
330
39
100
AcDbEntity
  8
KADDUN
 62
     2
100
AcDbText
 10
-40.31683673469399
 20
-74.93673469387801
 30
0.0
 40
2.2
  1
 
 41
0.99
  7
CONVERTER_1
100
AcDbText
  0
TEXT
  5
3FF
330
39
100
AcDbEntity
  8
KADDUN
 62
     2
100
AcDbText
 10
-40.31683673469399
 20
-79.93673469387801
 30
0.0
 40
2.2
  1
 
 41
0.99
  7
CONVERTER_1
100
AcDbText
  0
TEXT
  5
400
330
39
100
AcDbEntity
  8
KADDUN
 62
     2
100
AcDbText
 10
-40.31683673469399
 20
-84.93673469387801
 30
0.0
 40
2.2
  1
 
 41
0.99
  7
CONVERTER_1
100
AcDbText
  0
TEXT
  5
401
330
39
100
AcDbEntity
  8
KADDUN
 62
     2
100
AcDbText
 10
-40.31683673469399
 20
-89.93673469387801
 30
0.0
 40
2.2
  1
 
 41
0.99
  7
CONVERTER_1
100
AcDbText
  0
TEXT
  5
402
330
39
100
AcDbEntity
  8
KADDUN
 62
     2
100
AcDbText
 10
-56.044022734694
 20
-64.93673469387801
 30
0.0
 40
2.2
  1
 
 41
0.99
  7
CONVERTER_1
100
AcDbText
  0
TEXT
  5
403
330
39
100
AcDbEntity
  8
KADDUN
 62
     2
100
AcDbText
 10
-56.044022734694
 20
-69.93673469387801
 30
0.0
 40
2.2
  1
 
 41
0.99
  7
CONVERTER_1
100
AcDbText
  0
TEXT
  5
404
330
39
100
AcDbEntity
  8
KADDUN
 62
     2
100
AcDbText
 10
-56.044022734694
 20
-74.93673469387801
 30
0.0
 40
2.2
  1
 
 41
0.99
  7
CONVERTER_1
100
AcDbText
  0
TEXT
  5
405
330
39
100
AcDbEntity
  8
KADDUN
 62
     2
100
AcDbText
 10
-56.044022734694
 20
-79.93673469387801
 30
0.0
 40
2.2
  1
 
 41
0.99
  7
CONVERTER_1
100
AcDbText
  0
TEXT
  5
406
330
39
100
AcDbEntity
  8
KADDUN
 62
     2
100
AcDbText
 10
-56.044022734694
 20
-84.93673469387801
 30
0.0
 40
2.2
  1
 
 41
0.99
  7
CONVERTER_1
100
AcDbText
  0
TEXT
  5
407
330
39
100
AcDbEntity
  8
KADDUN
 62
     2
100
AcDbText
 10
-56.044022734694
 20
-89.93673469387801
 30
0.0
 40
2.2
  1
 
 41
0.99
  7
CONVERTER_1
100
AcDbText
  0
TEXT
  5
408
330
39
100
AcDbEntity
  8
KADDUN
 62
     2
100
AcDbText
 10
-63.3091547346939
 20
-64.93673469387801
 30
0.0
 40
2.2
  1
 
 41
0.99
  7
CONVERTER_1
100
AcDbText
  0
TEXT
  5
409
330
39
100
AcDbEntity
  8
KADDUN
 62
     2
100
AcDbText
 10
-63.3091547346939
 20
-69.93673469387801
 30
0.0
 40
2.2
  1
 
 41
0.99
  7
CONVERTER_1
100
AcDbText
  0
TEXT
  5
40A
330
39
100
AcDbEntity
  8
KADDUN
 62
     2
100
AcDbText
 10
-63.3091547346939
 20
-74.93673469387801
 30
0.0
 40
2.2
  1
 
 41
0.99
  7
CONVERTER_1
100
AcDbText
  0
TEXT
  5
40B
330
39
100
AcDbEntity
  8
KADDUN
 62
     2
100
AcDbText
 10
-63.3091547346939
 20
-79.93673469387801
 30
0.0
 40
2.2
  1
 
 41
0.99
  7
CONVERTER_1
100
AcDbText
  0
TEXT
  5
40C
330
39
100
AcDbEntity
  8
KADDUN
 62
     2
100
AcDbText
 10
-63.3091547346939
 20
-84.93673469387801
 30
0.0
 40
2.2
  1
 
 41
0.99
  7
CONVERTER_1
100
AcDbText
  0
TEXT
  5
40D
330
39
100
AcDbEntity
  8
KADDUN
 62
     2
100
AcDbText
 10
-63.3091547346939
 20
-89.93673469387801
 30
0.0
 40
2.2
  1
 
 41
0.99
  7
CONVERTER_1
100
AcDbText
  0
TEXT
  5
40E
330
39
100
AcDbEntity
  8
KADDUN
 62
     2
100
AcDbText
 10
-40.11013573469398
 20
-99.501918693878
 30
0.0
 40
1.5
  1
drawn
 41
0.99
  7
CONVERTER_1
100
AcDbText
  0
TEXT
  5
40F
330
39
100
AcDbEntity
  8
KADDUN
 62
     2
100
AcDbText
 10
-40.31683673469399
 20
-94.93673469387801
 30
0.0
 40
2.2
  1
 
 41
0.99
  7
CONVERTER_1
100
AcDbText
  0
TEXT
  5
410
330
39
100
AcDbEntity
  8
KADDUN
 62
     2
100
AcDbText
 10
-63.46940573469391
 20
-99.501918693878
 30
0.0
 40
1.5
  1
issue
 41
0.99
  7
CONVERTER_1
100
AcDbText
  0
TEXT
  5
411
330
39
100
AcDbEntity
  8
KADDUN
 62
     2
100
AcDbText
 10
-63.3091547346939
 20
-94.93673469387801
 30
0.0
 40
2.2
  1
 
 41
0.99
  7
CONVERTER_1
100
AcDbText
  0
TEXT
  5
412
330
39
100
AcDbEntity
  8
KADDUN
 62
     2
100
AcDbText
 10
-51.75135473469395
 20
-99.501918693878
 30
0.0
 40
1.5
  1
date
 41
0.99
  7
CONVERTER_1
100
AcDbText
  0
TEXT
  5
413
330
39
100
AcDbEntity
  8
KADDUN
 62
     2
100
AcDbText
 10
-56.044022734694
 20
-94.93673469387801
 30
0.0
 40
2.2
  1
 
 41
0.99
  7
CONVERTER_1
100
AcDbText
  0
MTEXT
  5
415
330
39
100
AcDbEntity
  8
1
 62
     1
100
AcDbMText
 10
116.1384244736559
 20
-86.3003044464798
 30
0.0
 40
2.5
 41
0.0
 71
     5
 72
     1
  1
 
  7
CONVERTER_2
 73
     1
 44
1.32052821128451
  0
MTEXT
  5
416
330
39
100
AcDbEntity
  8
1
 62
     1
100
AcDbMText
 10
118.242012947145
 20
-89.93195993973967
 30
0.0
 40
1.0
 41
0.0
 71
     5
 72
     1
  1
1
  7
CONVERTER_2
 73
     1
 44
1.32052821128451
  0
MTEXT
  5
417
330
39
100
AcDbEntity
  8
1
 62
     1
100
AcDbMText
 10
109.888946765306
 20
-89.93195993973967
 30
0.0
 40
1.0
 41
0.0
 71
     5
 72
     1
  1
1
  7
CONVERTER_2
 73
     1
 44
1.32052821128451
  0
MTEXT
  5
418
330
39
100
AcDbEntity
  8
1
 62
     1
100
AcDbMText
 10
68.383163265306
 20
-75.93673469387801
 30
0.0
 40
3.0
 41
0.0
 71
     5
 72
     1
  1
 
  7
CONVERTER_2
 73
     1
 44
1.32052821128451
  0
MTEXT
  5
419
330
39
100
AcDbEntity
  8
1
 62
     1
100
AcDbMText
 10
102.512302154195
 20
-86.3003044464798
 30
0.0
 40
2.5
 41
0.0
 71
     5
 72
     1
  1
 
  7
CONVERTER_2
 73
     1
 44
1.32052821128451
  0
MTEXT
  5
41A
330
39
100
AcDbEntity
  8
1
 62
     1
100
AcDbMText
 10
76.883163265306
 20
-87.73673469387802
 30
0.0
 40
2.5
 41
0.0
 71
     5
 72
     1
  1
 
  7
CONVERTER_2
 73
     1
 44
1.32052821128451
  0
MTEXT
  5
41B
330
39
100
AcDbEntity
  8
1
 62
     1
100
AcDbMText
 10
59.88894676530602
 20
-87.73673469387802
 30
0.0
 40
2.5
 41
0.0
 71
     5
 72
     1
  1
1:1
  7
CONVERTER_2
 73
     1
 44
1.32052821128451
  0
MTEXT
  5
41C
330
39
100
AcDbEntity
  8
1
 62
     1
100
AcDbMText
 10
34.644730265306
 20
-87.73673469387802
 30
0.0
 40
2.5
 41
0.0
 71
     5
 72
     1
  1
 
  7
CONVERTER_2
 73
     1
 44
1.32052821128451
  0
MTEXT
  5
41D
330
39
100
AcDbEntity
  8
1
 62
     1
100
AcDbMText
 10
22.38894676530602
 20
-87.73673469387802
 30
0.0
 40
2.5
 41
0.0
 71
     5
 72
     1
  1
 
  7
CONVERTER_2
 73
     1
 44
1.32052821128451
  0
MTEXT
  5
41E
330
39
100
AcDbEntity
  8
1
 62
     1
100
AcDbMText
 10
108.883163265306
 20
-67.73673469387802
 30
0.0
 40
2.5
 41
0.0
 71
     5
 72
     1
  1
 
  7
CONVERTER_2
 73
     1
 44
1.32052821128451
  0
MTEXT
  5
41F
330
39
100
AcDbEntity
  8
1
 62
     1
100
AcDbMText
 10
83.883163265306
 20
-67.73673469387802
 30
0.0
 40
2.5
 41
0.0
 71
     5
 72
     1
  1
 
  7
CONVERTER_2
 73
     1
 44
1.32052821128451
  0
MTEXT
  5
420
330
39
100
AcDbEntity
  8
1
 62
     1
100
AcDbMText
 10
55.38316326530601
 20
-67.73673469387802
 30
0.0
 40
2.5
 41
0.0
 71
     5
 72
     1
  1
 
  7
CONVERTER_2
 73
     1
 44
1.32052821128451
  0
MTEXT
  5
421
330
39
100
AcDbEntity
  8
1
 62
     1
100
AcDbMText
 10
28.38316326530601
 20
-67.73673469387802
 30
0.0
 40
2.0
 41
0.0
 71
     5
 72
     1
  1
 
  7
CONVERTER_2
 73
     1
 44
1.32052821128451
  0
TEXT
  5
422
330
39
100
AcDbEntity
  8
TITELHOEK
 62
     2
100
AcDbText
 10
98.18912026530599
 20
-63.37366969387801
 30
0.0
 40
1.35
  1
model:
 41
0.99
  7
CONVERTER_1
100
AcDbText
  0
TEXT
  5
423
330
39
100
AcDbEntity
  8
TITELHOEK
 62
     2
100
AcDbText
 10
88.34625826530601
 20
-83.215104693878
 30
0.0
 40
1.35
  1
drawing number :
 41
0.99
  7
CONVERTER_1
100
AcDbText
  0
TEXT
  5
424
330
39
100
AcDbEntity
  8
TITELHOEK
 62
     2
100
AcDbText
 10
42.76262626530601
 20
-63.37366969387801
 30
0.0
 40
1.35
  1
quality control plan:
 41
0.99
  7
CONVERTER_1
100
AcDbText
  0
TEXT
  5
425
330
39
100
AcDbEntity
  8
TITELHOEK
 62
     2
100
AcDbText
 10
67.385452265306
 20
-83.215104693878
 30
0.0
 40
1.35
  1
date:
 41
0.99
  7
CONVERTER_1
100
AcDbText
  0
TEXT
  5
426
330
39
100
AcDbEntity
  8
TITELHOEK
 62
     2
100
AcDbText
 10
54.06606326530601
 20
-83.37366969387801
 30
0.0
 40
1.35
  1
scale:
 41
0.99
  7
CONVERTER_1
100
AcDbText
  0
TEXT
  5
427
330
39
100
AcDbEntity
  8
TITELHOEK
 62
     2
100
AcDbText
 10
41.46743926530601
 20
-83.215104693878
 30
0.0
 40
1.35
  1
size:
 41
0.99
  7
CONVERTER_1
100
AcDbText
  0
TEXT
  5
428
330
39
100
AcDbEntity
  8
TITELHOEK
 62
     2
100
AcDbText
 10
67.551996265306
 20
-93.59308769387798
 30
0.0
 40
1.35
  1
This drawing is the property of JORI.
 41
0.99
  7
CONVERTER_1
100
AcDbText
  0
TEXT
  5
429
330
39
100
AcDbEntity
  8
TITELHOEK
 62
     2
100
AcDbText
 10
63.95087226530602
 20
-96.624305693878
 30
0.0
 40
1.35
  1
No reproduction or acces to third person is
 41
0.99
  7
CONVERTER_1
100
AcDbText
  0
TEXT
  5
42A
330
39
100
AcDbEntity
  8
TITELHOEK
 62
     2
100
AcDbText
 10
69.447327265306
 20
-99.65552369387797
 30
0.0
 40
1.35
  1
allowed without written permission.
 41
0.99
  7
CONVERTER_1
100
AcDbText
  0
TEXT
  5
42B
330
39
100
AcDbEntity
  8
TITELHOEK
 62
     2
100
AcDbText
 10
72.013368265306
 20
-63.37366969387801
 30
0.0
 40
1.35
  1
partcode:
 41
0.99
  7
CONVERTER_1
100
AcDbText
  0
TEXT
  5
42C
330
39
100
AcDbEntity
  8
TITELHOEK
 62
     2
100
AcDbText
 10
17.95117226530601
 20
-63.37366969387801
 30
0.0
 40
1.35
  1
material:
 41
0.99
  7
CONVERTER_1
100
AcDbText
  0
TEXT
  5
42D
330
39
100
AcDbEntity
  8
TITELHOEK
 62
     2
100
AcDbText
 10
29.05893426530601
 20
-83.215104693878
 30
0.0
 40
1.35
  1
check:
 41
0.99
  7
CONVERTER_1
100
AcDbText
  0
TEXT
  5
42E
330
39
100
AcDbEntity
  8
TITELHOEK
 62
     2
100
AcDbText
 10
16.63861226530601
 20
-83.215104693878
 30
0.0
 40
1.35
  1
drawn:
 41
0.99
  7
CONVERTER_1
100
AcDbText
  0
TEXT
  5
42F
330
39
100
AcDbEntity
  8
TITELHOEK
 62
     2
100
AcDbText
 10
17.843551265306
 20
-73.215104693878
 30
0.0
 40
1.35
  1
title:
 41
0.99
  7
CONVERTER_1
100
AcDbText
  0
TEXT
  5
430
330
39
100
AcDbEntity
  8
TITELHOEK
 62
     2
100
AcDbText
 10
-31.07078973469401
 20
-63.37366969387801
 30
0.0
 40
1.35
  1
general tolerances:
 41
0.99
  7
CONVERTER_1
100
AcDbText
  0
TEXT
  5
431
330
39
100
AcDbEntity
  8
TITELHOEK
 62
     2
100
AcDbText
 10
-30.81472773469399
 20
-73.37366969387801
 30
0.0
 40
1.35
  1
deburring:
 41
0.99
  7
CONVERTER_1
100
AcDbText
  0
TEXT
  5
432
330
39
100
AcDbEntity
  8
TITELHOEK
 62
     2
100
AcDbText
 10
-30.03327473469399
 20
-96.44851769387799
 30
0.0
 40
0.8
  1
R
 41
0.99
  7
CONVERTER_1
100
AcDbText
  0
TEXT
  5
433
330
39
100
AcDbEntity
  8
TITELHOEK
 62
     2
100
AcDbText
 10
-19.67174473469401
 20
-73.37366969387801
 30
0.0
 40
1.35
  1
DIN 6784
 41
0.99
  7
CONVERTER_1
100
AcDbText
  0
TEXT
  5
434
330
39
100
AcDbEntity
  8
TITELHOEK
 62
     2
100
AcDbText
 10
-8.303160734694
 20
-63.37366969387801
 30
0.0
 40
1.35
  1
surface treatment:
 41
0.99
  7
CONVERTER_1
100
AcDbText
  0
TEXT
  5
435
330
39
100
AcDbEntity
  8
TITELHOEK
 62
     2
100
AcDbText
 10
-8.303160734694
 20
-73.37366969387801
 30
0.0
 40
1.35
  1
surface roughness:
 41
0.99
  7
CONVERTER_1
100
AcDbText
  0
TEXT
  5
436
330
39
100
AcDbEntity
  8
TITELHOEK
 62
     2
100
AcDbText
 10
-8.28037373469398
 20
-83.215104693878
 30
0.0
 40
1.35
  1
projection:
 41
0.99
  7
CONVERTER_1
100
AcDbText
  0
MTEXT
  5
437
330
39
100
AcDbEntity
  8
TITELHOEK
 62
     2
100
AcDbMText
 10
27.91517776530601
 20
-99.93242269387798
 30
0.0
 40
1.35
 41
0.0
 71
     8
 72
     1
  1
tel:056 31 35 01  fax:056 31 18 91
  7
CONVERTER_1
 73
     1
 44
0.60024009603842
  0
MTEXT
  5
438
330
39
100
AcDbEntity
  8
TITELHOEK
 62
     2
100
AcDbMText
 10
27.91517776530601
 20
-93.402199693878
 30
0.0
 40
1.35
 41
0.0
 71
     8
 72
     1
  1
n.v. jori manufactory s.a.
  7
CONVERTER_1
 73
     1
 44
0.60024009603842
  0
MTEXT
  5
439
330
39
100
AcDbEntity
  8
TITELHOEK
 62
     2
100
AcDbMText
 10
27.91517776530601
 20
-96.69803269387802
 30
0.0
 40
1.35
 41
0.0
 71
     8
 72
     1
  1
8940 wervik  belgium
  7
CONVERTER_1
 73
     1
 44
0.60024009603842
  0
MTEXT
  5
43A
330
39
100
AcDbEntity
  8
1
 62
     1
100
AcDbMText
 10
91.45621554084271
 20
-86.3003044464798
 30
0.0
 40
2.5
 41
0.0
 71
     5
 72
     1
  1
 
  7
CONVERTER_2
 73
     1
 44
1.32052821128451
  0
MTEXT
  5
43B
330
39
100
AcDbEntity
  8
1
 62
     1
100
AcDbMText
 10
93.61819159101749
 20
-86.3003044464798
 30
0.0
 40
2.5
 41
0.0
 71
     5
 72
     1
  1
 
  7
CONVERTER_2
 73
     1
 44
1.32052821128451
  0
MTEXT
  5
43C
330
39
100
AcDbEntity
  8
1
 62
     1
100
AcDbMText
 10
112.1384244736559
 20
-86.3003044464798
 30
0.0
 40
2.5
 41
0.0
 71
     5
 72
     1
  1
R
  7
CONVERTER_2
 73
     1
 44
1.32052821128451
  0
MTEXT
  5
43D
330
39
100
AcDbEntity
  8
1
 62
     1
100
AcDbMText
 10
95.78016764119231
 20
-86.3003044464798
 30
0.0
 40
2.5
 41
0.0
 71
     5
 72
     1
  1
\
  7
CONVERTER_2
 73
     1
 44
1.32052821128451
  0
MTEXT
  5
43E
330
39
100
AcDbEntity
  8
1
 62
     1
100
AcDbMText
 10
48.60503966357992
 20
-87.73673469387802
 30
0.0
 40
2.5
 41
0.0
 71
     5
 72
     1
  1
0
  7
CONVERTER_2
 73
     1
 44
1.32052821128451
  0
MTEXT
  5
43F
330
39
100
AcDbEntity
  8
1
 62
     1
100
AcDbMText
 10
46.0106684033701
 20
-87.73673469387802
 30
0.0
 40
2.5
 41
0.0
 71
     5
 72
     1
  1
A
  7
CONVERTER_2
 73
     1
 44
1.32052821128451
  0
MTEXT
  5
440
330
39
100
AcDbEntity
  8
0
 62
     2
100
AcDbMText
 10
113.324736231481
 20
-89.81254383756328
 30
0.0
 40
1.0
 41
0.0
 71
     4
 72
     1
  1
of
  7
CONVERTER_2
 73
     1
 44
1.32052821128451
  0
MTEXT
  5
441
330
39
100
AcDbEntity
  8
0
 62
     2
100
AcDbMText
 10
106.292128256078
 20
-89.81254383756328
 30
0.0
 40
1.0
 41
0.0
 71
     6
 72
     1
  1
sheet
  7
CONVERTER_2
 73
     1
 44
1.32052821128451
  0
MTEXT
  5
442
330
39
100
AcDbEntity
  8
1
 62
     1
100
AcDbMText
 10
3.63894676530602
 20
-77.81339507372388
 30
0.0
 40
2.0
 41
0.0
 71
     5
 72
     1
  1
 
  7
CONVERTER_2
 73
     1
 44
1.32052821128451
  0
MTEXT
  5
443
330
39
100
AcDbEntity
  8
1
 62
     1
100
AcDbMText
 10
3.63894676530602
 20
-67.81339507372388
 30
0.0
 40
2.0
 41
0.0
 71
     5
 72
     1
  1
 
  7
CONVERTER_2
 73
     1
 44
1.32052821128451
  0
MTEXT
  5
444
330
39
100
AcDbEntity
  8
1
 62
     1
100
AcDbMText
 10
-20.36105323469399
 20
-67.81339507372388
 30
0.0
 40
2.0
 41
0.0
 71
     5
 72
     1
  1
 
  7
CONVERTER_2
 73
     1
 44
1.32052821128451
  0
MTEXT
  5
445
330
39
100
AcDbEntity
  8
1
 62
     1
100
AcDbMText
 10
109.3066537523037
 20
-86.3003044464798
 30
0.0
 40
2.5
 41
0.0
 71
     5
 72
     1
  1
-
  7
CONVERTER_2
 73
     1
 44
1.32052821128451
  0
MTEXT
  5
446
330
39
100
AcDbEntity
  8
1
 62
     4
100
AcDbMText
 10
-709.1168367346945
 20
745.9382653061219
 30
0.0
 40
5.0
 41
0.0
 71
     5
 72
     1
  1
M
  7
CONVERTER_2
 73
     1
 44
1.32052821128451
  0
MTEXT
  5
447
330
39
100
AcDbEntity
  8
1
 62
     4
100
AcDbMText
 10
-709.1168367346945
 20
820.1882653061219
 30
0.0
 40
5.0
 41
0.0
 71
     5
 72
     1
  1
N
  7
CONVERTER_2
 73
     1
 44
1.32052821128451
  0
MTEXT
  5
448
330
39
100
AcDbEntity
  8
1
 62
     4
100
AcDbMText
 10
-709.1168367346945
 20
894.4382653061219
 30
0.0
 40
5.0
 41
0.0
 71
     5
 72
     1
  1
O
  7
CONVERTER_2
 73
     1
 44
1.32052821128451
  0
MTEXT
  5
449
330
39
100
AcDbEntity
  8
1
 62
     4
100
AcDbMText
 10
-709.1168367346945
 20
968.6882653061221
 30
0.0
 40
5.0
 41
0.0
 71
     5
 72
     1
  1
P
  7
CONVERTER_2
 73
     1
 44
1.32052821128451
  0
MTEXT
  5
44A
330
39
100
AcDbEntity
  8
1
 62
     4
100
AcDbMText
 10
-709.1168367346945
 20
1042.938265306122
 30
0.0
 40
5.0
 41
0.0
 71
     5
 72
     1
  1
R
  7
CONVERTER_2
 73
     1
 44
1.32052821128451
  0
MTEXT
  5
44B
330
39
100
AcDbEntity
  8
1
 62
     4
100
AcDbMText
 10
-709.1168367346945
 20
-62.561734693878
 30
0.0
 40
5.0
 41
0.0
 71
     5
 72
     1
  1
A
  7
CONVERTER_2
 73
     1
 44
1.32052821128451
  0
MTEXT
  5
44C
330
39
100
AcDbEntity
  8
1
 62
     4
100
AcDbMText
 10
-709.1168367346945
 20
9.93826530612201
 30
0.0
 40
5.0
 41
0.0
 71
     5
 72
     1
  1
B
  7
CONVERTER_2
 73
     1
 44
1.32052821128451
  0
MTEXT
  5
44D
330
39
100
AcDbEntity
  8
1
 62
     4
100
AcDbMText
 10
-709.1168367346945
 20
154.938265306122
 30
0.0
 40
5.0
 41
0.0
 71
     5
 72
     1
  1
D
  7
CONVERTER_2
 73
     1
 44
1.32052821128451
  0
MTEXT
  5
44E
330
39
100
AcDbEntity
  8
1
 62
     4
100
AcDbMText
 10
-709.1168367346945
 20
228.3132653061219
 30
0.0
 40
5.0
 41
0.0
 71
     5
 72
     1
  1
E
  7
CONVERTER_2
 73
     1
 44
1.32052821128451
  0
MTEXT
  5
44F
330
39
100
AcDbEntity
  8
1
 62
     4
100
AcDbMText
 10
-709.1168367346945
 20
302.5632653061219
 30
0.0
 40
5.0
 41
0.0
 71
     5
 72
     1
  1
F
  7
CONVERTER_2
 73
     1
 44
1.32052821128451
  0
MTEXT
  5
450
330
39
100
AcDbEntity
  8
1
 62
     4
100
AcDbMText
 10
-709.1168367346945
 20
376.8132653061219
 30
0.0
 40
5.0
 41
0.0
 71
     5
 72
     1
  1
G
  7
CONVERTER_2
 73
     1
 44
1.32052821128451
  0
MTEXT
  5
451
330
39
100
AcDbEntity
  8
1
 62
     4
100
AcDbMText
 10
-709.1168367346945
 20
451.0632653061219
 30
0.0
 40
5.0
 41
0.0
 71
     5
 72
     1
  1
H
  7
CONVERTER_2
 73
     1
 44
1.32052821128451
  0
MTEXT
  5
452
330
39
100
AcDbEntity
  8
1
 62
     4
100
AcDbMText
 10
-709.1168367346945
 20
525.3132653061219
 30
0.0
 40
5.0
 41
0.0
 71
     5
 72
     1
  1
J
  7
CONVERTER_2
 73
     1
 44
1.32052821128451
  0
MTEXT
  5
453
330
39
100
AcDbEntity
  8
1
 62
     4
100
AcDbMText
 10
-709.1168367346945
 20
599.5632653061219
 30
0.0
 40
5.0
 41
0.0
 71
     5
 72
     1
  1
K
  7
CONVERTER_2
 73
     1
 44
1.32052821128451
  0
MTEXT
  5
454
330
39
100
AcDbEntity
  8
1
 62
     4
100
AcDbMText
 10
-709.1168367346945
 20
673.8132653061219
 30
0.0
 40
5.0
 41
0.0
 71
     5
 72
     1
  1
L
  7
CONVERTER_2
 73
     1
 44
1.32052821128451
  0
MTEXT
  5
455
330
39
100
AcDbEntity
  8
1
 62
     4
100
AcDbMText
 10
-709.1168367346945
 20
82.43826530612201
 30
0.0
 40
5.0
 41
0.0
 71
     5
 72
     1
  1
C
  7
CONVERTER_2
 73
     1
 44
1.32052821128451
  0
MTEXT
  5
456
330
39
100
AcDbEntity
  8
1
 62
     4
100
AcDbMText
 10
86.5498302653061
 20
1076.563265306122
 30
0.0
 40
5.0
 41
0.0
 71
     5
 72
     1
  1
12
  7
CONVERTER_2
 73
     1
 44
1.32052821128451
  0
MTEXT
  5
457
330
39
100
AcDbEntity
  8
1
 62
     4
100
AcDbMText
 10
18.8831642653061
 20
1076.563265306122
 30
0.0
 40
5.0
 41
0.0
 71
     5
 72
     1
  1
11
  7
CONVERTER_2
 73
     1
 44
1.32052821128451
  0
MTEXT
  5
458
330
39
100
AcDbEntity
  8
1
 62
     4
100
AcDbMText
 10
-48.78350173469391
 20
1076.563265306122
 30
0.0
 40
5.0
 41
0.0
 71
     5
 72
     1
  1
10
  7
CONVERTER_2
 73
     1
 44
1.32052821128451
  0
MTEXT
  5
459
330
39
100
AcDbEntity
  8
1
 62
     4
100
AcDbMText
 10
-117.6168347346939
 20
1076.563265306122
 30
0.0
 40
5.0
 41
0.0
 71
     5
 72
     1
  1
9
  7
CONVERTER_2
 73
     1
 44
1.32052821128451
  0
MTEXT
  5
45A
330
39
100
AcDbEntity
  8
1
 62
     4
100
AcDbMText
 10
-187.6168347346939
 20
1076.563265306122
 30
0.0
 40
5.0
 41
0.0
 71
     5
 72
     1
  1
8
  7
CONVERTER_2
 73
     1
 44
1.32052821128451
  0
MTEXT
  5
45B
330
39
100
AcDbEntity
  8
1
 62
     4
100
AcDbMText
 10
-257.6168347346938
 20
1076.563265306122
 30
0.0
 40
5.0
 41
0.0
 71
     5
 72
     1
  1
7
  7
CONVERTER_2
 73
     1
 44
1.32052821128451
  0
MTEXT
  5
45C
330
39
100
AcDbEntity
  8
1
 62
     4
100
AcDbMText
 10
-327.6168347346938
 20
1076.563265306122
 30
0.0
 40
5.0
 41
0.0
 71
     5
 72
     1
  1
6
  7
CONVERTER_2
 73
     1
 44
1.32052821128451
  0
MTEXT
  5
45D
330
39
100
AcDbEntity
  8
1
 62
     4
100
AcDbMText
 10
-397.6168347346938
 20
1076.563265306122
 30
0.0
 40
5.0
 41
0.0
 71
     5
 72
     1
  1
5
  7
CONVERTER_2
 73
     1
 44
1.32052821128451
  0
MTEXT
  5
45E
330
39
100
AcDbEntity
  8
1
 62
     4
100
AcDbMText
 10
-467.6168347346938
 20
1076.563265306122
 30
0.0
 40
5.0
 41
0.0
 71
     5
 72
     1
  1
4
  7
CONVERTER_2
 73
     1
 44
1.32052821128451
  0
MTEXT
  5
45F
330
39
100
AcDbEntity
  8
1
 62
     4
100
AcDbMText
 10
-537.616834734694
 20
1076.563265306122
 30
0.0
 40
5.0
 41
0.0
 71
     5
 72
     1
  1
3
  7
CONVERTER_2
 73
     1
 44
1.32052821128451
  0
MTEXT
  5
460
330
39
100
AcDbEntity
  8
1
 62
     4
100
AcDbMText
 10
-607.616834734694
 20
1076.563265306122
 30
0.0
 40
5.0
 41
0.0
 71
     5
 72
     1
  1
2
  7
CONVERTER_2
 73
     1
 44
1.32052821128451
  0
MTEXT
  5
461
330
39
100
AcDbEntity
  8
1
 62
     4
100
AcDbMText
 10
-674.6168357346944
 20
1076.563265306122
 30
0.0
 40
5.0
 41
0.0
 71
     5
 72
     1
  1
1
  7
CONVERTER_2
 73
     1
 44
1.32052821128451
  0
MTEXT
  5
462
330
39
100
AcDbEntity
  8
1
 62
     4
100
AcDbMText
 10
86.54983026530599
 20
-104.436734693878
 30
0.0
 40
5.0
 41
0.0
 71
     5
 72
     1
  1
12
  7
CONVERTER_2
 73
     1
 44
1.32052821128451
  0
MTEXT
  5
463
330
39
100
AcDbEntity
  8
1
 62
     4
100
AcDbMText
 10
18.88316426530599
 20
-104.436734693878
 30
0.0
 40
5.0
 41
0.0
 71
     5
 72
     1
  1
11
  7
CONVERTER_2
 73
     1
 44
1.32052821128451
  0
MTEXT
  5
464
330
39
100
AcDbEntity
  8
1
 62
     4
100
AcDbMText
 10
-48.78350173469402
 20
-104.436734693878
 30
0.0
 40
5.0
 41
0.0
 71
     5
 72
     1
  1
10
  7
CONVERTER_2
 73
     1
 44
1.32052821128451
  0
MTEXT
  5
465
330
39
100
AcDbEntity
  8
1
 62
     4
100
AcDbMText
 10
-117.616834734694
 20
-104.436734693878
 30
0.0
 40
5.0
 41
0.0
 71
     5
 72
     1
  1
9
  7
CONVERTER_2
 73
     1
 44
1.32052821128451
  0
MTEXT
  5
466
330
39
100
AcDbEntity
  8
1
 62
     4
100
AcDbMText
 10
-187.616834734694
 20
-104.436734693878
 30
0.0
 40
5.0
 41
0.0
 71
     5
 72
     1
  1
8
  7
CONVERTER_2
 73
     1
 44
1.32052821128451
  0
MTEXT
  5
467
330
39
100
AcDbEntity
  8
1
 62
     4
100
AcDbMText
 10
-257.616834734694
 20
-104.436734693878
 30
0.0
 40
5.0
 41
0.0
 71
     5
 72
     1
  1
7
  7
CONVERTER_2
 73
     1
 44
1.32052821128451
  0
MTEXT
  5
468
330
39
100
AcDbEntity
  8
1
 62
     4
100
AcDbMText
 10
-327.616834734694
 20
-104.436734693878
 30
0.0
 40
5.0
 41
0.0
 71
     5
 72
     1
  1
6
  7
CONVERTER_2
 73
     1
 44
1.32052821128451
  0
MTEXT
  5
469
330
39
100
AcDbEntity
  8
1
 62
     4
100
AcDbMText
 10
-397.616834734694
 20
-104.436734693878
 30
0.0
 40
5.0
 41
0.0
 71
     5
 72
     1
  1
5
  7
CONVERTER_2
 73
     1
 44
1.32052821128451
  0
MTEXT
  5
46A
330
39
100
AcDbEntity
  8
1
 62
     4
100
AcDbMText
 10
-467.616834734694
 20
-104.436734693878
 30
0.0
 40
5.0
 41
0.0
 71
     5
 72
     1
  1
4
  7
CONVERTER_2
 73
     1
 44
1.32052821128451
  0
MTEXT
  5
46B
330
39
100
AcDbEntity
  8
1
 62
     4
100
AcDbMText
 10
-537.6168347346941
 20
-104.436734693878
 30
0.0
 40
5.0
 41
0.0
 71
     5
 72
     1
  1
3
  7
CONVERTER_2
 73
     1
 44
1.32052821128451
  0
MTEXT
  5
46C
330
39
100
AcDbEntity
  8
1
 62
     4
100
AcDbMText
 10
-607.6168347346941
 20
-104.436734693878
 30
0.0
 40
5.0
 41
0.0
 71
     5
 72
     1
  1
2
  7
CONVERTER_2
 73
     1
 44
1.32052821128451
  0
MTEXT
  5
46D
330
39
100
AcDbEntity
  8
1
 62
     4
100
AcDbMText
 10
-674.6168357346945
 20
-104.436734693878
 30
0.0
 40
5.0
 41
0.0
 71
     5
 72
     1
  1
1
  7
CONVERTER_2
 73
     1
 44
1.32052821128451
  0
MTEXT
  5
46E
330
39
100
AcDbEntity
  8
1
 62
     4
100
AcDbMText
 10
123.8831632653055
 20
743.8132653061219
 30
0.0
 40
5.0
 41
0.0
 71
     5
 72
     1
  1
M
  7
CONVERTER_2
 73
     1
 44
1.32052821128451
  0
MTEXT
  5
46F
330
39
100
AcDbEntity
  8
1
 62
     4
100
AcDbMText
 10
123.8831632653055
 20
818.0632653061219
 30
0.0
 40
5.0
 41
0.0
 71
     5
 72
     1
  1
N
  7
CONVERTER_2
 73
     1
 44
1.32052821128451
  0
MTEXT
  5
470
330
39
100
AcDbEntity
  8
1
 62
     4
100
AcDbMText
 10
123.8831632653055
 20
892.3132653061219
 30
0.0
 40
5.0
 41
0.0
 71
     5
 72
     1
  1
O
  7
CONVERTER_2
 73
     1
 44
1.32052821128451
  0
MTEXT
  5
471
330
39
100
AcDbEntity
  8
1
 62
     4
100
AcDbMText
 10
123.8831632653055
 20
966.5632653061221
 30
0.0
 40
5.0
 41
0.0
 71
     5
 72
     1
  1
P
  7
CONVERTER_2
 73
     1
 44
1.32052821128451
  0
MTEXT
  5
472
330
39
100
AcDbEntity
  8
1
 62
     4
100
AcDbMText
 10
123.8831632653055
 20
1040.813265306122
 30
0.0
 40
5.0
 41
0.0
 71
     5
 72
     1
  1
R
  7
CONVERTER_2
 73
     1
 44
1.32052821128451
  0
MTEXT
  5
473
330
39
100
AcDbEntity
  8
1
 62
     4
100
AcDbMText
 10
123.8831632653055
 20
-64.686734693878
 30
0.0
 40
5.0
 41
0.0
 71
     5
 72
     1
  1
A
  7
CONVERTER_2
 73
     1
 44
1.32052821128451
  0
MTEXT
  5
474
330
39
100
AcDbEntity
  8
1
 62
     4
100
AcDbMText
 10
123.8831632653055
 20
7.81326530612201
 30
0.0
 40
5.0
 41
0.0
 71
     5
 72
     1
  1
B
  7
CONVERTER_2
 73
     1
 44
1.32052821128451
  0
MTEXT
  5
475
330
39
100
AcDbEntity
  8
1
 62
     4
100
AcDbMText
 10
123.8831632653055
 20
152.813265306122
 30
0.0
 40
5.0
 41
0.0
 71
     5
 72
     1
  1
D
  7
CONVERTER_2
 73
     1
 44
1.32052821128451
  0
MTEXT
  5
476
330
39
100
AcDbEntity
  8
1
 62
     4
100
AcDbMText
 10
123.8831632653055
 20
226.1882653061219
 30
0.0
 40
5.0
 41
0.0
 71
     5
 72
     1
  1
E
  7
CONVERTER_2
 73
     1
 44
1.32052821128451
  0
MTEXT
  5
477
330
39
100
AcDbEntity
  8
1
 62
     4
100
AcDbMText
 10
123.8831632653055
 20
300.4382653061219
 30
0.0
 40
5.0
 41
0.0
 71
     5
 72
     1
  1
F
  7
CONVERTER_2
 73
     1
 44
1.32052821128451
  0
MTEXT
  5
478
330
39
100
AcDbEntity
  8
1
 62
     4
100
AcDbMText
 10
123.8831632653055
 20
374.6882653061219
 30
0.0
 40
5.0
 41
0.0
 71
     5
 72
     1
  1
G
  7
CONVERTER_2
 73
     1
 44
1.32052821128451
  0
MTEXT
  5
479
330
39
100
AcDbEntity
  8
1
 62
     4
100
AcDbMText
 10
123.8831632653055
 20
448.9382653061219
 30
0.0
 40
5.0
 41
0.0
 71
     5
 72
     1
  1
H
  7
CONVERTER_2
 73
     1
 44
1.32052821128451
  0
MTEXT
  5
47A
330
39
100
AcDbEntity
  8
1
 62
     4
100
AcDbMText
 10
123.8831632653055
 20
523.1882653061219
 30
0.0
 40
5.0
 41
0.0
 71
     5
 72
     1
  1
J
  7
CONVERTER_2
 73
     1
 44
1.32052821128451
  0
MTEXT
  5
47B
330
39
100
AcDbEntity
  8
1
 62
     4
100
AcDbMText
 10
123.8831632653055
 20
597.4382653061219
 30
0.0
 40
5.0
 41
0.0
 71
     5
 72
     1
  1
K
  7
CONVERTER_2
 73
     1
 44
1.32052821128451
  0
MTEXT
  5
47C
330
39
100
AcDbEntity
  8
1
 62
     4
100
AcDbMText
 10
123.8831632653055
 20
671.6882653061219
 30
0.0
 40
5.0
 41
0.0
 71
     5
 72
     1
  1
L
  7
CONVERTER_2
 73
     1
 44
1.32052821128451
  0
MTEXT
  5
47D
330
39
100
AcDbEntity
  8
1
 62
     4
100
AcDbMText
 10
123.8831632653055
 20
80.31326530612201
 30
0.0
 40
5.0
 41
0.0
 71
     5
 72
     1
  1
C
  7
CONVERTER_2
 73
     1
 44
1.32052821128451
  0
MTEXT
  5
47E
330
39
100
AcDbEntity
  8
1
 62
     2
100
AcDbMText
 10
-222.616834734694
 20
-59.51739685491928
 30
0.0
 40
3.0
 41
0.0
 71
     4
 72
     1
  1
 
  7
CONVERTER_2
 73
     1
 44
1.32052821128451
  0
MTEXT
  5
47F
330
39
100
AcDbEntity
  8
1
 62
     2
100
AcDbMText
 10
-211.616834734694
 20
-59.51739685491928
 30
0.0
 40
3.0
 41
0.0
 71
     4
 72
     1
  1
 
  7
CONVERTER_2
 73
     1
 44
1.32052821128451
  0
MTEXT
  5
480
330
39
100
AcDbEntity
  8
1
 62
     2
100
AcDbMText
 10
-222.616834734694
 20
-65.51739685491928
 30
0.0
 40
3.0
 41
0.0
 71
     4
 72
     1
  1
 
  7
CONVERTER_2
 73
     1
 44
1.32052821128451
  0
MTEXT
  5
481
330
39
100
AcDbEntity
  8
1
 62
     2
100
AcDbMText
 10
-211.616834734694
 20
-65.51739685491928
 30
0.0
 40
3.0
 41
0.0
 71
     4
 72
     1
  1
 
  7
CONVERTER_2
 73
     1
 44
1.32052821128451
  0
MTEXT
  5
482
330
39
100
AcDbEntity
  8
1
 62
     2
100
AcDbMText
 10
-222.616834734694
 20
-71.51739685491928
 30
0.0
 40
3.0
 41
0.0
 71
     4
 72
     1
  1
 
  7
CONVERTER_2
 73
     1
 44
1.32052821128451
  0
MTEXT
  5
483
330
39
100
AcDbEntity
  8
1
 62
     2
100
AcDbMText
 10
-211.616834734694
 20
-71.51739685491928
 30
0.0
 40
3.0
 41
0.0
 71
     4
 72
     1
  1
 
  7
CONVERTER_2
 73
     1
 44
1.32052821128451
  0
MTEXT
  5
484
330
39
100
AcDbEntity
  8
1
 62
     2
100
AcDbMText
 10
-222.616834734694
 20
-77.51739685491928
 30
0.0
 40
3.0
 41
0.0
 71
     4
 72
     1
  1
 
  7
CONVERTER_2
 73
     1
 44
1.32052821128451
  0
MTEXT
  5
485
330
39
100
AcDbEntity
  8
1
 62
     2
100
AcDbMText
 10
-211.616834734694
 20
-77.51739685491928
 30
0.0
 40
3.0
 41
0.0
 71
     4
 72
     1
  1
 
  7
CONVERTER_2
 73
     1
 44
1.32052821128451
  0
MTEXT
  5
486
330
39
100
AcDbEntity
  8
1
 62
     2
100
AcDbMText
 10
-222.616834734694
 20
-83.51739685491928
 30
0.0
 40
3.0
 41
0.0
 71
     4
 72
     1
  1
 
  7
CONVERTER_2
 73
     1
 44
1.32052821128451
  0
MTEXT
  5
487
330
39
100
AcDbEntity
  8
1
 62
     2
100
AcDbMText
 10
-211.616834734694
 20
-83.51739685491928
 30
0.0
 40
3.0
 41
0.0
 71
     4
 72
     1
  1
 
  7
CONVERTER_2
 73
     1
 44
1.32052821128451
  0
MTEXT
  5
488
330
39
100
AcDbEntity
  8
1
 62
     2
100
AcDbMText
 10
-222.616834734694
 20
-89.51739685491928
 30
0.0
 40
3.0
 41
0.0
 71
     4
 72
     1
  1
 
  7
CONVERTER_2
 73
     1
 44
1.32052821128451
  0
MTEXT
  5
489
330
39
100
AcDbEntity
  8
1
 62
     2
100
AcDbMText
 10
-211.616834734694
 20
-89.51739685491928
 30
0.0
 40
3.0
 41
0.0
 71
     4
 72
     1
  1
 
  7
CONVERTER_2
 73
     1
 44
1.32052821128451
  0
MTEXT
  5
48A
330
39
100
AcDbEntity
  8
1
 62
     2
100
AcDbMText
 10
-211.616834734694
 20
-95.51739685491928
 30
0.0
 40
3.0
 41
0.0
 71
     4
 72
     1
  1
 
  7
CONVERTER_2
 73
     1
 44
1.32052821128451
  0
MTEXT
  5
48B
330
39
100
AcDbEntity
  8
1
 62
     2
100
AcDbMText
 10
-222.616834734694
 20
-95.51739685491928
 30
0.0
 40
3.0
 41
0.0
 71
     4
 72
     1
  1
 
  7
CONVERTER_2
 73
     1
 44
1.32052821128451
  0
HATCH
  5
48C
330
39
100
AcDbEntity
  8
1
  6
Continuous
 62
     2
100
AcDbHatch
 10
0.0
 20
0.0
 30
0.0
210
0.0
220
0.0
230
1.0
  2
_USER
 70
     0
 71
     1
 91
        1
 92
        1
 93
        4
 72
     1
 10
-25.91109173469399
 20
-85.96362869387798
 11
-29.91109173469399
 21
-85.96362869387798
 72
     1
 10
-29.91109173469399
 20
-85.96362869387798
 11
-29.91109173469399
 21
-81.96362869387798
 72
     1
 10
-29.91109173469399
 20
-81.96362869387798
 11
-25.91109173469399
 21
-81.96362869387798
 72
     1
 10
-25.91109173469399
 20
-81.96362869387798
 11
-25.91109173469399
 21
-85.96362869387798
 97
        4
330
4A
330
4F
330
50
330
4B
 75
     1
 76
     0
 52
45.0
 41
0.8
 77
     0
 78
     1
 53
45.0
 43
0.0
 44
0.0
 45
-0.565685424949238
 46
0.5656854249492381
 79
     0
 98
        1
 10
0.0
 20
0.0
  0
HATCH
  5
48D
330
39
100
AcDbEntity
  8
1
  6
Continuous
 62
     2
100
AcDbHatch
 10
0.0
 20
0.0
 30
0.0
210
0.0
220
0.0
230
1.0
  2
_USER
 70
     0
 71
     1
 91
        1
 92
        1
 93
        6
 72
     1
 10
-18.820274734694
 20
-87.14199969387801
 11
-14.820274734694
 21
-87.14199969387801
 72
     1
 10
-14.820274734694
 20
-87.14199969387801
 11
-14.820274734694
 21
-89.64199969387801
 72
     1
 10
-14.820274734694
 20
-89.64199969387801
 11
-21.320274734694
 21
-89.64199969387801
 72
     1
 10
-21.320274734694
 20
-89.64199969387801
 11
-21.320274734694
 21
-83.14199969387801
 72
     1
 10
-21.320274734694
 20
-83.14199969387801
 11
-18.820274734694
 21
-83.14199969387801
 72
     1
 10
-18.820274734694
 20
-83.14199969387801
 11
-18.820274734694
 21
-87.14199969387801
 97
        6
330
49
330
51
330
52
330
4E
330
4D
330
4C
 75
     1
 76
     0
 52
45.0
 41
0.8
 77
     0
 78
     1
 53
45.0
 43
0.0
 44
0.0
 45
-0.565685424949238
 46
0.5656854249492381
 79
     0
 98
        1
 10
0.0
 20
0.0
  0
ENDBLK
  5
3B
330
39
100
AcDbEntity
  8
0
100
AcDbBlockEnd
  0
ENDSEC
  0
SECTION
  2
ENTITIES
  0
INSERT
  5
3C
330
1F
100
AcDbEntity
  8
1
100
AcDbBlockReference
  2
1
 10
0.0
 20
0.0
 30
0.0
  0
ENDSEC
  0
SECTION
  2
OBJECTS
  0
DICTIONARY
  5
C
330
0
100
AcDbDictionary
281
     1
  3
ACAD_GROUP
350
D
  3
ACAD_LAYOUT
350
1A
  3
ACAD_MLINESTYLE
350
17
  3
ACAD_PLOTSETTINGS
350
19
  3
ACAD_PLOTSTYLENAME
350
E
  3
ACAD_TABLESTYLE
350
2A
  3
AcDbVariableDictionary
350
2C
  0
DICTIONARY
  5
D
102
{ACAD_REACTORS
330
C
102
}
330
C
100
AcDbDictionary
281
     1
  0
DICTIONARY
  5
1A
102
{ACAD_REACTORS
330
C
102
}
330
C
100
AcDbDictionary
281
     1
  3
Layout1
350
1E
  3
Layout2
350
26
  3
Model
350
22
  0
DICTIONARY
  5
17
102
{ACAD_REACTORS
330
C
102
}
330
C
100
AcDbDictionary
281
     1
  3
Standard
350
18
  0
DICTIONARY
  5
19
102
{ACAD_REACTORS
330
C
102
}
330
C
100
AcDbDictionary
281
     1
  0
ACDBDICTIONARYWDFLT
  5
E
102
{ACAD_REACTORS
330
C
102
}
330
C
100
AcDbDictionary
281
     1
  3
Normal
350
F
100
AcDbDictionaryWithDefault
340
F
  0
DICTIONARY
  5
2A
102
{ACAD_REACTORS
330
C
102
}
330
C
100
AcDbDictionary
281
     1
  3
Standard
350
2B
  0
DICTIONARY
  5
2C
102
{ACAD_REACTORS
330
C
102
}
330
C
100
AcDbDictionary
281
     1
  3
CTABLESTYLE
350
2D
  0
LAYOUT
  5
1E
102
{ACAD_REACTORS
330
1A
102
}
330
1A
100
AcDbPlotSettings
  1

  2

  4

  6

 40
0.0
 41
0.0
 42
0.0
 43
0.0
 44
0.0
 45
0.0
 46
0.0
 47
0.0
 48
0.0
 49
0.0
140
0.0
141
0.0
142
1.0
143
1.0
 70
   688
 72
     0
 73
     0
 74
     5
  7

 75
    16
147
1.0
148
0.0
149
0.0
100
AcDbLayout
  1
Layout1
 70
     1
 71
     1
 10
0.0
 20
0.0
 11
12.0
 21
9.0
 12
0.0
 22
0.0
 32
0.0
 14
1.00000000000000E+20
 24
1.00000000000000E+20
 34
1.00000000000000E+20
 15
-1.00000000000000E+20
 25
-1.00000000000000E+20
 35
-1.00000000000000E+20
146
0.0
 13
0.0
 23
0.0
 33
0.0
 16
1.0
 26
0.0
 36
0.0
 17
0.0
 27
1.0
 37
0.0
 76
     0
330
1B
  0
LAYOUT
  5
26
102
{ACAD_REACTORS
330
1A
102
}
330
1A
100
AcDbPlotSettings
  1

  2

  4

  6

 40
0.0
 41
0.0
 42
0.0
 43
0.0
 44
0.0
 45
0.0
 46
0.0
 47
0.0
 48
0.0
 49
0.0
140
0.0
141
0.0
142
1.0
143
1.0
 70
   688
 72
     0
 73
     0
 74
     5
  7

 75
    16
147
1.0
148
0.0
149
0.0
100
AcDbLayout
  1
Layout2
 70
     1
 71
     2
 10
0.0
 20
0.0
 11
0.0
 21
0.0
 12
0.0
 22
0.0
 32
0.0
 14
0.0
 24
0.0
 34
0.0
 15
0.0
 25
0.0
 35
0.0
146
0.0
 13
0.0
 23
0.0
 33
0.0
 16
1.0
 26
0.0
 36
0.0
 17
0.0
 27
1.0
 37
0.0
 76
     0
330
23
  0
LAYOUT
  5
22
102
{ACAD_REACTORS
330
1A
102
}
330
1A
100
AcDbPlotSettings
  1

  2

  4

  6

 40
0.0
 41
0.0
 42
0.0
 43
0.0
 44
0.0
 45
0.0
 46
0.0
 47
0.0
 48
0.0
 49
0.0
140
0.0
141
0.0
142
1.0
143
1.0
 70
  1712
 72
     0
 73
     0
 74
     0
  7

 75
     0
147
1.0
148
0.0
149
0.0
100
AcDbLayout
  1
Model
 70
     1
 71
     0
 10
0.0
 20
0.0
 11
0.0
 21
0.0
 12
0.0
 22
0.0
 32
0.0
 14
-712.6168367346941
 24
-107.9367346938781
 34
0.0
 15
2903.362555990912
 25
2010.926739039981
 35
0.0
146
0.0
 13
0.0
 23
0.0
 33
0.0
 16
1.0
 26
0.0
 36
0.0
 17
0.0
 27
1.0
 37
0.0
 76
     0
330
1F
  0
MLINESTYLE
  5
18
102
{ACAD_REACTORS
330
17
102
}
330
17
100
AcDbMlineStyle
  2
Standard
 70
     0
  3

 62
   256
 51
90.0
 52
90.0
 71
     2
 49
0.5
 62
   256
  6
BYLAYER
 49
-0.5
 62
   256
  6
BYLAYER
  0
ACDBPLACEHOLDER
  5
F
102
{ACAD_REACTORS
330
E
102
}
330
E
  0
TABLESTYLE
  5
2B
102
{ACAD_REACTORS
330
2A
102
}
330
2A
100
AcDbTableStyle
  3
Standard
 70
     0
 71
     0
 40
0.06
 41
0.06
280
     0
281
     0
  7
Standard
140
0.18
170
     2
 62
     0
 63
     7
283
     0
274
    -2
284
     1
 64
     0
275
    -2
285
     1
 65
     0
276
    -2
286
     1
 66
     0
277
    -2
287
     1
 67
     0
278
    -2
288
     1
 68
     0
279
    -2
289
     1
 69
     0
  7
Standard
140
0.25
170
     5
 62
     0
 63
     7
283
     0
274
    -2
284
     1
 64
     0
275
    -2
285
     1
 65
     0
276
    -2
286
     1
 66
     0
277
    -2
287
     1
 67
     0
278
    -2
288
     1
 68
     0
279
    -2
289
     1
 69
     0
  7
Standard
140
0.18
170
     5
 62
     0
 63
     7
283
     0
274
    -2
284
     1
 64
     0
275
    -2
285
     1
 65
     0
276
    -2
286
     1
 66
     0
277
    -2
287
     1
 67
     0
278
    -2
288
     1
 68
     0
279
    -2
289
     1
 69
     0
  0
DICTIONARYVAR
  5
2D
102
{ACAD_REACTORS
330
2C
102
}
330
2C
100
DictionaryVariables
280
     0
  1
Standard
  0
ENDSEC
  0
EOF
