  0
SECTION
  2
HEADER
  9
$ACADVER
  1
AC1015
  9
$ACADMAINTVER
 70
     6
  9
$DWGCODEPAGE
  3
ANSI_1252
  9
$INSBASE
 10
0.0
 20
0.0
 30
0.0
  9
$EXTMIN
 10
-4296.964411800146
 20
0.4382505785628
 30
0.0
  9
$EXTMAX
 10
217.7729967260553
 20
686.0680586912624
 30
0.0
  9
$LIMMIN
 10
0.0
 20
0.0
  9
$LIMMAX
 10
12.0
 20
9.0
  9
$ORTHOMODE
 70
     0
  9
$REGENMODE
 70
     1
  9
$FILLMODE
 70
     1
  9
$QTEXTMODE
 70
     0
  9
$MIRRTEXT
 70
     1
  9
$LTSCALE
 40
1.0
  9
$ATTMODE
 70
     1
  9
$TEXTSIZE
 40
0.2
  9
$TRACEWID
 40
0.05
  9
$TEXTSTYLE
  7
Standard
  9
$CLAYER
  8
0
  9
$CELTYPE
  6
ByLayer
  9
$CECOLOR
 62
   256
  9
$CELTSCALE
 40
1.0
  9
$DISPSILH
 70
     0
  9
$DIMSCALE
 40
1.0
  9
$DIMASZ
 40
0.18
  9
$DIMEXO
 40
0.0625
  9
$DIMDLI
 40
0.38
  9
$DIMRND
 40
0.0
  9
$DIMDLE
 40
0.0
  9
$DIMEXE
 40
0.18
  9
$DIMTP
 40
0.0
  9
$DIMTM
 40
0.0
  9
$DIMTXT
 40
0.18
  9
$DIMCEN
 40
0.09
  9
$DIMTSZ
 40
0.0
  9
$DIMTOL
 70
     0
  9
$DIMLIM
 70
     0
  9
$DIMTIH
 70
     1
  9
$DIMTOH
 70
     1
  9
$DIMSE1
 70
     0
  9
$DIMSE2
 70
     0
  9
$DIMTAD
 70
     0
  9
$DIMZIN
 70
     0
  9
$DIMBLK
  1

  9
$DIMASO
 70
     1
  9
$DIMSHO
 70
     1
  9
$DIMPOST
  1

  9
$DIMAPOST
  1

  9
$DIMALT
 70
     0
  9
$DIMALTD
 70
     2
  9
$DIMALTF
 40
25.4
  9
$DIMLFAC
 40
1.0
  9
$DIMTOFL
 70
     0
  9
$DIMTVP
 40
0.0
  9
$DIMTIX
 70
     0
  9
$DIMSOXD
 70
     0
  9
$DIMSAH
 70
     0
  9
$DIMBLK1
  1

  9
$DIMBLK2
  1

  9
$DIMSTYLE
  2
Standard
  9
$DIMCLRD
 70
     0
  9
$DIMCLRE
 70
     0
  9
$DIMCLRT
 70
     0
  9
$DIMTFAC
 40
1.0
  9
$DIMGAP
 40
0.09
  9
$DIMJUST
 70
     0
  9
$DIMSD1
 70
     0
  9
$DIMSD2
 70
     0
  9
$DIMTOLJ
 70
     1
  9
$DIMTZIN
 70
     0
  9
$DIMALTZ
 70
     0
  9
$DIMALTTZ
 70
     0
  9
$DIMUPT
 70
     0
  9
$DIMDEC
 70
     4
  9
$DIMTDEC
 70
     4
  9
$DIMALTU
 70
     2
  9
$DIMALTTD
 70
     2
  9
$DIMTXSTY
  7
Standard
  9
$DIMAUNIT
 70
     0
  9
$DIMADEC
 70
     0
  9
$DIMALTRND
 40
0.0
  9
$DIMAZIN
 70
     0
  9
$DIMDSEP
 70
    46
  9
$DIMATFIT
 70
     3
  9
$DIMFRAC
 70
     0
  9
$DIMLDRBLK
  1

  9
$DIMLUNIT
 70
     2
  9
$DIMLWD
 70
    -2
  9
$DIMLWE
 70
    -2
  9
$DIMTMOVE
 70
     0
  9
$LUNITS
 70
     2
  9
$LUPREC
 70
     4
  9
$SKETCHINC
 40
0.1
  9
$FILLETRAD
 40
0.5
  9
$AUNITS
 70
     0
  9
$AUPREC
 70
     0
  9
$MENU
  1
.
  9
$ELEVATION
 40
0.0
  9
$PELEVATION
 40
0.0
  9
$THICKNESS
 40
0.0
  9
$LIMCHECK
 70
     0
  9
$CHAMFERA
 40
0.5
  9
$CHAMFERB
 40
0.5
  9
$CHAMFERC
 40
1.0
  9
$CHAMFERD
 40
0.0
  9
$SKPOLY
 70
     0
  9
$TDCREATE
 40
2454805.460037431
  9
$TDUCREATE
 40
2454805.418370764
  9
$TDUPDATE
 40
2454805.460037442
  9
$TDUUPDATE
 40
2454805.418370775
  9
$TDINDWG
 40
0.0000000116
  9
$TDUSRTIMER
 40
0.0000000116
  9
$USRTIMER
 70
     1
  9
$ANGBASE
 50
0.0
  9
$ANGDIR
 70
     0
  9
$PDMODE
 70
     0
  9
$PDSIZE
 40
0.0
  9
$PLINEWID
 40
0.0
  9
$SPLFRAME
 70
     0
  9
$SPLINETYPE
 70
     6
  9
$SPLINESEGS
 70
     8
  9
$HANDSEED
  5
2E7
  9
$SURFTAB1
 70
     6
  9
$SURFTAB2
 70
     6
  9
$SURFTYPE
 70
     6
  9
$SURFU
 70
     6
  9
$SURFV
 70
     6
  9
$UCSBASE
  2

  9
$UCSNAME
  2

  9
$UCSORG
 10
0.0
 20
0.0
 30
0.0
  9
$UCSXDIR
 10
1.0
 20
0.0
 30
0.0
  9
$UCSYDIR
 10
0.0
 20
1.0
 30
0.0
  9
$UCSORTHOREF
  2

  9
$UCSORTHOVIEW
 70
     0
  9
$UCSORGTOP
 10
0.0
 20
0.0
 30
0.0
  9
$UCSORGBOTTOM
 10
0.0
 20
0.0
 30
0.0
  9
$UCSORGLEFT
 10
0.0
 20
0.0
 30
0.0
  9
$UCSORGRIGHT
 10
0.0
 20
0.0
 30
0.0
  9
$UCSORGFRONT
 10
0.0
 20
0.0
 30
0.0
  9
$UCSORGBACK
 10
0.0
 20
0.0
 30
0.0
  9
$PUCSBASE
  2

  9
$PUCSNAME
  2

  9
$PUCSORG
 10
0.0
 20
0.0
 30
0.0
  9
$PUCSXDIR
 10
1.0
 20
0.0
 30
0.0
  9
$PUCSYDIR
 10
0.0
 20
1.0
 30
0.0
  9
$PUCSORTHOREF
  2

  9
$PUCSORTHOVIEW
 70
     0
  9
$PUCSORGTOP
 10
0.0
 20
0.0
 30
0.0
  9
$PUCSORGBOTTOM
 10
0.0
 20
0.0
 30
0.0
  9
$PUCSORGLEFT
 10
0.0
 20
0.0
 30
0.0
  9
$PUCSORGRIGHT
 10
0.0
 20
0.0
 30
0.0
  9
$PUCSORGFRONT
 10
0.0
 20
0.0
 30
0.0
  9
$PUCSORGBACK
 10
0.0
 20
0.0
 30
0.0
  9
$USERI1
 70
     0
  9
$USERI2
 70
     0
  9
$USERI3
 70
     0
  9
$USERI4
 70
     0
  9
$USERI5
 70
     0
  9
$USERR1
 40
13.01
  9
$USERR2
 40
0.0
  9
$USERR3
 40
0.0
  9
$USERR4
 40
0.0
  9
$USERR5
 40
0.0
  9
$WORLDVIEW
 70
     1
  9
$SHADEDGE
 70
     3
  9
$SHADEDIF
 70
    70
  9
$TILEMODE
 70
     1
  9
$MAXACTVP
 70
    64
  9
$PINSBASE
 10
0.0
 20
0.0
 30
0.0
  9
$PLIMCHECK
 70
     0
  9
$PEXTMIN
 10
1.00000000000000E+20
 20
1.00000000000000E+20
 30
1.00000000000000E+20
  9
$PEXTMAX
 10
-1.00000000000000E+20
 20
-1.00000000000000E+20
 30
-1.00000000000000E+20
  9
$PLIMMIN
 10
0.0
 20
0.0
  9
$PLIMMAX
 10
12.0
 20
9.0
  9
$UNITMODE
 70
     0
  9
$VISRETAIN
 70
     1
  9
$PLINEGEN
 70
     0
  9
$PSLTSCALE
 70
     1
  9
$TREEDEPTH
 70
  3020
  9
$CMLSTYLE
  2
Standard
  9
$CMLJUST
 70
     0
  9
$CMLSCALE
 40
1.0
  9
$PROXYGRAPHICS
 70
     1
  9
$MEASUREMENT
 70
     1
  9
$CELWEIGHT
370
    -1
  9
$ENDCAPS
280
     0
  9
$JOINSTYLE
280
     0
  9
$LWDISPLAY
290
     0
  9
$INSUNITS
 70
     1
  9
$HYPERLINKBASE
  1

  9
$STYLESHEET
  1

  9
$XEDIT
290
     1
  9
$CEPSNTYPE
380
     0
  9
$PSTYLEMODE
290
     0
  9
$FINGERPRINTGUID
  2
{FAEB1C30-E019-11D5-929B-00C0DF256EC4}
  9
$VERSIONGUID
  2
{FAEB1C32-E019-11D5-929B-00C0DF256EC4}
  9
$EXTNAMES
290
     1
  9
$PSVPSCALE
 40
0.0
  9
$OLESTARTUP
290
     0
  0
ENDSEC
  0
SECTION
  2
CLASSES
  0
CLASS
  1
ACDBDICTIONARYWDFLT
  2
AcDbDictionaryWithDefault
  3
ObjectDBX Classes
 90
        0
280
     0
281
     0
  0
CLASS
  1
TABLESTYLE
  2
AcDbTableStyle
  3
ObjectDBX Classes
 90
     2047
280
     0
281
     0
  0
CLASS
  1
DICTIONARYVAR
  2
AcDbDictionaryVar
  3
ObjectDBX Classes
 90
        0
280
     0
281
     0
  0
CLASS
  1

  2
exOdDbSpline
  3

 90
        0
280
     0
281
     1
  0
CLASS
  1
ACDBPLACEHOLDER
  2
AcDbPlaceHolder
  3
ObjectDBX Classes
 90
        0
280
     0
281
     0
  0
CLASS
  1
LAYOUT
  2
AcDbLayout
  3
ObjectDBX Classes
 90
        0
280
     0
281
     0
  0
ENDSEC
  0
SECTION
  2
TABLES
  0
TABLE
  2
VPORT
  5
8
330
0
100
AcDbSymbolTable
 70
     2
  0
VPORT
  5
29
330
8
100
AcDbSymbolTableRecord
100
AcDbViewportTableRecord
  2
*Active
 70
     0
 10
0.0
 20
0.0
 11
1.0
 21
1.0
 12
-2039.595707537045
 22
343.2531546349126
 13
0.0
 23
0.0
 14
0.5
 24
0.5
 15
0.5
 25
0.5
 16
0.0
 26
0.0
 36
1.0
 17
0.0
 27
0.0
 37
0.0
 40
3098.694421896537
 41
1.60267857142857
 42
50.0
 43
0.0
 44
0.0
 50
0.0
 51
0.0
 71
     0
 72
   100
 73
     1
 74
     3
 75
     0
 76
     0
 77
     0
 78
     0
281
     0
 65
     1
110
0.0
120
0.0
130
0.0
111
1.0
121
0.0
131
0.0
112
0.0
122
1.0
132
0.0
 79
     0
146
0.0
  0
ENDTAB
  0
TABLE
  2
LTYPE
  5
5
330
0
100
AcDbSymbolTable
 70
     8
  0
LTYPE
  5
14
330
5
100
AcDbSymbolTableRecord
100
AcDbLinetypeTableRecord
  2
ByBlock
 70
     0
  3

 72
    65
 73
     0
 40
0.0
  0
LTYPE
  5
15
330
5
100
AcDbSymbolTableRecord
100
AcDbLinetypeTableRecord
  2
ByLayer
 70
     0
  3

 72
    65
 73
     0
 40
0.0
  0
LTYPE
  5
16
330
5
100
AcDbSymbolTableRecord
100
AcDbLinetypeTableRecord
  2
Continuous
 70
     0
  3
Solid line
 72
    65
 73
     0
 40
0.0
  0
LTYPE
  5
2E
330
5
100
AcDbSymbolTableRecord
100
AcDbLinetypeTableRecord
  2
DASHED
 70
     0
  3
Dashed
 72
    65
 73
     2
 40
15.0
 49
7.0
 74
     0
 49
-8.0
 74
     0
  0
LTYPE
  5
2F
330
5
100
AcDbSymbolTableRecord
100
AcDbLinetypeTableRecord
  2
DOTTED
 70
     0
  3
Dotted
 72
    65
 73
     2
 40
1.0
 49
0.0
 74
     0
 49
-1.0
 74
     0
  0
LTYPE
  5
30
330
5
100
AcDbSymbolTableRecord
100
AcDbLinetypeTableRecord
  2
DOT_CENTER
 70
     0
  3
Dot_Center
 72
    65
 73
     4
 40
14.0
 49
12.0
 74
     0
 49
-1.0
 74
     0
 49
0.0
 74
     0
 49
-1.0
 74
     0
  0
LTYPE
  5
31
330
5
100
AcDbSymbolTableRecord
100
AcDbLinetypeTableRecord
  2
LONG_DASHED
 70
     0
  3
Long_Dashed
 72
    65
 73
     2
 40
15.0
 49
10.0
 74
     0
 49
-5.0
 74
     0
  0
LTYPE
  5
32
330
5
100
AcDbSymbolTableRecord
100
AcDbLinetypeTableRecord
  2
DASH_CENTER
 70
     0
  3
Dash_Center
 72
    65
 73
     4
 40
14.0
 49
11.0
 74
     0
 49
-1.0
 74
     0
 49
1.0
 74
     0
 49
-1.0
 74
     0
  0
LTYPE
  5
33
330
5
100
AcDbSymbolTableRecord
100
AcDbLinetypeTableRecord
  2
PHANTOM
 70
     0
  3
Phantom
 72
    65
 73
     6
 40
13.0
 49
10.0
 74
     0
 49
-1.0
 74
     0
 49
0.0
 74
     0
 49
-1.0
 74
     0
 49
0.0
 74
     0
 49
-1.0
 74
     0
  0
LTYPE
  5
34
330
5
100
AcDbSymbolTableRecord
100
AcDbLinetypeTableRecord
  2
CENTER_DASH_DASH
 70
     0
  3
Center_Dash_Dash
 72
    65
 73
     6
 40
14.0
 49
9.0
 74
     0
 49
-1.0
 74
     0
 49
1.0
 74
     0
 49
-1.0
 74
     0
 49
1.0
 74
     0
 49
-1.0
 74
     0
  0
ENDTAB
  0
TABLE
  2
LAYER
  5
2
330
0
100
AcDbSymbolTable
 70
     2
  0
LAYER
  5
10
330
2
100
AcDbSymbolTableRecord
100
AcDbLayerTableRecord
  2
0
 70
     0
 62
     7
  6
Continuous
370
    -3
390
F
  0
LAYER
  5
35
330
2
100
AcDbSymbolTableRecord
100
AcDbLayerTableRecord
  2
1
 70
     0
 62
     7
  6
Continuous
370
    -3
390
F
  0
ENDTAB
  0
TABLE
  2
STYLE
  5
3
330
0
100
AcDbSymbolTable
 70
     1
  0
STYLE
  5
11
330
3
100
AcDbSymbolTableRecord
100
AcDbTextStyleTableRecord
  2
Standard
 70
     0
 40
0.0
 41
1.0
 50
0.0
 71
     0
 42
0.2
  3
txt
  4

  0
ENDTAB
  0
TABLE
  2
VIEW
  5
6
330
0
100
AcDbSymbolTable
 70
     0
  0
ENDTAB
  0
TABLE
  2
UCS
  5
7
330
0
100
AcDbSymbolTable
 70
     0
  0
ENDTAB
  0
TABLE
  2
APPID
  5
9
330
0
100
AcDbSymbolTable
 70
     1
  0
APPID
  5
12
330
9
100
AcDbSymbolTableRecord
100
AcDbRegAppTableRecord
  2
ACAD
 70
     0
  0
ENDTAB
  0
TABLE
  2
DIMSTYLE
  5
A
330
0
100
AcDbSymbolTable
 70
     1
100
AcDbDimStyleTable
  0
DIMSTYLE
105
27
330
A
100
AcDbSymbolTableRecord
100
AcDbDimStyleTableRecord
  2
Standard
 70
     0
340
11
  0
ENDTAB
  0
TABLE
  2
BLOCK_RECORD
  5
1
330
0
100
AcDbSymbolTable
 70
     2
  0
BLOCK_RECORD
  5
1F
330
1
100
AcDbSymbolTableRecord
100
AcDbBlockTableRecord
  2
*Model_Space
340
22
  0
BLOCK_RECORD
  5
1B
330
1
100
AcDbSymbolTableRecord
100
AcDbBlockTableRecord
  2
*Paper_Space
340
1E
  0
BLOCK_RECORD
  5
23
330
1
100
AcDbSymbolTableRecord
100
AcDbBlockTableRecord
  2
*Paper_Space0
340
26
  0
BLOCK_RECORD
  5
36
330
1
100
AcDbSymbolTableRecord
100
AcDbBlockTableRecord
  2
1
340
0
102
{BLKREFS
331
39
102
}
  0
ENDTAB
  0
ENDSEC
  0
SECTION
  2
BLOCKS
  0
BLOCK
  5
20
330
1F
100
AcDbEntity
  8
0
100
AcDbBlockBegin
  2
*Model_Space
 70
     0
 71
     0
 10
0.0
 20
0.0
 30
0.0
  3
*Model_Space
  1

  0
ENDBLK
  5
21
330
1F
100
AcDbEntity
  8
0
100
AcDbBlockEnd
  0
BLOCK
  5
1C
330
1B
100
AcDbEntity
 67
     1
  8
0
100
AcDbBlockBegin
  2
*Paper_Space
 70
     0
 71
     0
 10
0.0
 20
0.0
 30
0.0
  3
*Paper_Space
  1

  0
ENDBLK
  5
1D
330
1B
100
AcDbEntity
 67
     1
  8
0
100
AcDbBlockEnd
  0
BLOCK
  5
24
330
23
100
AcDbEntity
  8
0
100
AcDbBlockBegin
  2
*Paper_Space0
 70
     0
 71
     0
 10
0.0
 20
0.0
 30
0.0
  3
*Paper_Space0
  1

  0
ENDBLK
  5
25
330
23
100
AcDbEntity
  8
0
100
AcDbBlockEnd
  0
BLOCK
  5
37
330
36
100
AcDbEntity
  8
0
100
AcDbBlockBegin
  2
1
 70
     0
 71
     0
 10
0.0
 20
0.0
 30
0.0
  3
1
  1

  0
LINE
  5
3A
330
36
100
AcDbEntity
  8
1
  6
Continuous
 62
     1
100
AcDbLine
 10
-3451.864436214209
 20
685.0679674885415
 30
0.0
 11
-3451.864436214209
 21
163.4617052815103
 31
0.0
  0
LINE
  5
3B
330
36
100
AcDbEntity
  8
1
  6
Continuous
 62
     1
100
AcDbLine
 10
-4066.96439644362
 20
685.0679674885414
 30
0.0
 11
-4066.96439644362
 21
163.4617052815103
 31
0.0
  0
LINE
  5
3C
330
36
100
AcDbEntity
  8
1
  6
Continuous
 62
     1
100
AcDbLine
 10
-701.0060785905072
 20
686.0680489271707
 30
0.0
 11
-701.0060785905072
 21
382.0186495580207
 31
0.0
  0
LINE
  5
3D
330
36
100
AcDbEntity
  8
1
  6
Continuous
 62
     1
100
AcDbLine
 10
-1317.006078590603
 20
686.0680391630789
 30
0.0
 11
-1317.006078590603
 21
382.018665082177
 31
0.0
  0
LINE
  5
3E
330
36
100
AcDbEntity
  8
1
  6
Continuous
 62
     1
100
AcDbLine
 10
-1008.281066124697
 20
382.0186573018266
 30
0.0
 11
-1008.281066124697
 21
163.2860354623208
 31
0.0
  0
LINE
  5
3F
330
36
100
AcDbEntity
  8
1
  6
Continuous
 62
     3
100
AcDbLine
 10
217.7729967260553
 20
382.0187170219563
 30
0.0
 11
217.7729967260553
 21
163.2860354623208
 31
0.0
  0
LINE
  5
40
330
36
100
AcDbEntity
  8
1
  6
Continuous
 62
     3
100
AcDbLine
 10
-85.0061913616496
 20
163.2860354623208
 30
0.0
 11
217.7729967260553
 21
163.2860354623208
 31
0.0
  0
LINE
  5
41
330
36
100
AcDbEntity
  8
1
  6
Continuous
 62
     3
100
AcDbLine
 10
-305.0070032739446
 20
382.0187170219563
 30
0.0
 11
217.7729967260553
 21
382.0187170219563
 31
0.0
  0
LINE
  5
42
330
36
100
AcDbEntity
  8
1
  6
Continuous
 62
     3
100
AcDbLine
 10
-2234.335128975448
 20
382.0186750254267
 30
0.0
 11
-2234.335128975448
 21
163.2860354623208
 31
0.0
  0
LINE
  5
43
330
36
100
AcDbEntity
  8
1
  6
Continuous
 62
     3
100
AcDbLine
 10
-1933.006129976068
 20
163.2860354623208
 30
0.0
 11
-2234.335128975448
 21
163.2860354623208
 31
0.0
  0
LINE
  5
44
330
36
100
AcDbEntity
  8
1
  6
Continuous
 62
     3
100
AcDbLine
 10
-1711.555128975449
 20
382.0186750254267
 30
0.0
 11
-2234.335128975448
 21
382.0186750254267
 31
0.0
  0
LINE
  5
45
330
36
100
AcDbEntity
  8
1
  6
Continuous
 62
     7
100
AcDbLine
 10
-1933.006078590603
 20
686.0680293989872
 30
0.0
 11
-1933.006078590603
 21
163.4614027464947
 31
0.0
  0
LINE
  5
46
330
36
100
AcDbEntity
  8
0
  6
Continuous
 62
     7
100
AcDbLine
 10
-119.0068059169275
 20
150.9624489329053
 30
0.0
 11
-119.0059395228095
 21
3.46046529003041
 31
0.0
  0
LINE
  5
47
330
36
100
AcDbEntity
  8
1
  6
Continuous
 62
     7
100
AcDbLine
 10
-4264.464381289708
 20
123.4563647028859
 30
0.0
 11
-3474.460261409521
 21
123.4563647028859
 31
0.0
  0
LINE
  5
48
330
36
100
AcDbEntity
  8
1
  6
Continuous
 62
     7
100
AcDbLine
 10
-4290.964411800146
 20
0.44171626783839
 30
0.0
 11
-4267.964411800146
 21
0.44171626783839
 31
0.0
  0
LINE
  5
49
330
36
100
AcDbEntity
  8
1
  6
Continuous
 62
     7
100
AcDbLine
 10
-4296.964411800146
 20
163.4617052815103
 30
0.0
 11
-3441.864436214209
 21
163.4617052815103
 31
0.0
  0
LINE
  5
4A
330
36
100
AcDbEntity
  8
0
  6
Continuous
 62
     7
100
AcDbLine
 10
-1711.555151027071
 20
686.0680329091612
 30
0.0
 11
-1711.555128975449
 21
382.0186750254267
 31
0.0
  0
LINE
  5
4B
330
36
100
AcDbEntity
  8
1
  6
Continuous
 62
     3
100
AcDbLine
 10
-1933.006129993103
 20
163.2860354623208
 30
0.0
 11
-1711.555128975449
 21
382.0186750254267
 31
0.0
  0
LINE
  5
4C
330
36
100
AcDbEntity
  8
1
  6
Continuous
 62
     7
100
AcDbLine
 10
-85.0061913616496
 20
163.2860354623208
 30
0.0
 11
-1933.006129976068
 21
163.2860354623208
 31
0.0
  0
LINE
  5
4D
330
36
100
AcDbEntity
  8
1
  6
Continuous
 62
     3
100
AcDbLine
 10
-85.0061913616496
 20
163.2860354623208
 30
0.0
 11
-305.0070032739446
 21
382.0187170219563
 31
0.0
  0
LINE
  5
4E
330
36
100
AcDbEntity
  8
1
  6
Continuous
 62
     7
100
AcDbLine
 10
-1947.744063610267
 20
108.8105292351035
 30
0.0
 11
-1947.744063610267
 21
111.3105322197676
 31
0.0
  0
LINE
  5
4F
330
36
100
AcDbEntity
  8
0
  6
Continuous
 62
     7
100
AcDbLine
 10
-244.9882217066962
 20
163.2855935516024
 30
0.0
 11
-119.0065019138509
 21
99.20649178888188
 31
0.0
  0
LINE
  5
50
330
36
100
AcDbEntity
  8
0
  6
Continuous
 62
     7
100
AcDbLine
 10
-119.0066162991671
 20
118.6803786611324
 30
0.0
 11
-194.2953330590596
 21
163.2857335781466
 31
0.0
  0
LINE
  5
51
330
36
100
AcDbEntity
  8
0
  6
Continuous
 62
     7
100
AcDbLine
 10
-89.00646895923251
 20
93.59614996011949
 30
0.0
 11
-70.24699836646551
 21
93.59356472549649
 31
0.0
  0
LINE
  5
52
330
36
100
AcDbEntity
  8
0
  6
Continuous
 62
     7
100
AcDbLine
 10
-70.24699836646551
 20
93.59356472549649
 30
0.0
 11
-70.24457147578357
 21
111.0935661469987
 31
0.0
  0
LINE
  5
53
330
36
100
AcDbEntity
  8
0
  6
Continuous
 62
     7
100
AcDbLine
 10
-70.24491817462149
 20
108.5935647248044
 30
0.0
 11
-89.00641966923303
 21
108.5961569378998
 31
0.0
  0
LINE
  5
54
330
36
100
AcDbEntity
  8
0
  6
Continuous
 62
     7
100
AcDbLine
 10
-57.17600865107033
 20
111.0917293168354
 30
0.0
 11
-61.31242222509536
 21
111.092310528668
 31
0.0
  0
LINE
  5
55
330
36
100
AcDbEntity
  8
0
  6
Continuous
 62
     7
100
AcDbLine
 10
-50.24461216700047
 20
111.0908114806287
 30
0.0
 11
-57.17600865107033
 21
111.0917293168354
 31
0.0
  0
LINE
  5
56
330
36
100
AcDbEntity
  8
0
  6
Continuous
 62
     7
100
AcDbLine
 10
-57.17876189514436
 20
91.0917293177514
 30
0.0
 11
-70.24730437500239
 21
91.0935647255983
 31
0.0
  0
LINE
  5
57
330
36
100
AcDbEntity
  8
0
  6
Continuous
 62
     7
100
AcDbLine
 10
-50.2473654110745
 20
91.09081148154473
 30
0.0
 11
-57.17876189514436
 21
91.0917293177514
 31
0.0
  0
LINE
  5
58
330
36
100
AcDbEntity
  8
0
  6
Continuous
 62
     7
100
AcDbLine
 10
-61.63594942623331
 20
111.0923541121845
 30
0.0
 11
-63.35630650234862
 21
111.0925858676933
 31
0.0
  0
LINE
  5
59
330
36
100
AcDbEntity
  8
0
  6
Continuous
 62
     7
100
AcDbLine
 10
-63.35630650234862
 20
111.0925858676933
 30
0.0
 11
-64.28306722925936
 21
111.0927195915204
 31
0.0
  0
LINE
  5
5A
330
36
100
AcDbEntity
  8
0
  6
Continuous
 62
     7
100
AcDbLine
 10
-50.24461216700047
 20
111.0908114806287
 30
0.0
 11
-50.2473654110745
 21
91.09081148154473
 31
0.0
  0
LINE
  5
5B
330
36
100
AcDbEntity
  8
0
  6
Continuous
 62
     7
100
AcDbLine
 10
-70.24730437500239
 20
91.0935647255983
 30
0.0
 11
-70.2469602194933
 21
93.59356472548382
 31
0.0
  0
LINE
  5
5C
330
36
100
AcDbEntity
  8
0
  6
Continuous
 62
     7
100
AcDbLine
 10
-1773.030181873293
 20
163.45930864365
 30
0.0
 11
-1899.005498691631
 21
99.40558617684567
 31
0.0
  0
LINE
  5
5D
330
36
100
AcDbEntity
  8
0
  6
Continuous
 62
     7
100
AcDbLine
 10
-1899.005508319358
 20
118.8759451488079
 30
0.0
 11
-1823.729988241275
 21
163.459297464103
 31
0.0
  0
LINE
  5
5E
330
36
100
AcDbEntity
  8
0
  6
Continuous
 62
     7
100
AcDbLine
 10
-1947.744063610267
 20
108.8105292351035
 30
0.0
 11
-1929.005503342134
 21
108.8104835612477
 31
0.0
  0
LINE
  5
5F
330
36
100
AcDbEntity
  8
0
  6
Continuous
 62
     7
100
AcDbLine
 10
-1947.744068606799
 20
93.81052923510441
 30
0.0
 11
-1947.744063610267
 21
108.8105292351035
 31
0.0
  0
LINE
  5
60
330
36
100
AcDbEntity
  8
0
  6
Continuous
 62
     7
100
AcDbLine
 10
-1929.005495924904
 20
93.81048696376509
 30
0.0
 11
-1947.744068606799
 21
93.81052923510441
 31
0.0
  0
LINE
  5
61
330
36
100
AcDbEntity
  8
0
  6
Continuous
 62
     7
100
AcDbLine
 10
-1949.667158480647
 20
111.3104993581126
 30
0.0
 11
-1958.81181180096
 21
111.3105024042161
 31
0.0
  0
LINE
  5
62
330
36
100
AcDbEntity
  8
0
  6
Continuous
 62
     7
100
AcDbLine
 10
-1947.744069439555
 20
91.31052923510453
 30
0.0
 11
-1967.743947369231
 21
91.31056641468473
 31
0.0
  0
LINE
  5
63
330
36
100
AcDbEntity
  8
0
  6
Continuous
 62
     7
100
AcDbLine
 10
-1947.744069439555
 20
91.31052923510453
 30
0.0
 11
-1947.744068606799
 21
93.81052923510441
 31
0.0
  0
LINE
  5
64
330
36
100
AcDbEntity
  8
0
  6
Continuous
 62
     7
100
AcDbLine
 10
-1967.743940707187
 20
111.3105664146836
 30
0.0
 11
-1967.743947369231
 21
91.31056641468473
 31
0.0
  0
LINE
  5
65
330
36
100
AcDbEntity
  8
0
  6
Continuous
 62
     7
100
AcDbLine
 10
-1659.006557081033
 20
163.2816886863237
 30
0.0
 11
-1659.006557728907
 21
163.1133200189179
 31
0.0
  0
LINE
  5
66
330
36
100
AcDbEntity
  8
0
  6
Continuous
 62
     7
100
AcDbLine
 10
-247.4192612220236
 20
303.4635044182364
 30
0.0
 11
-247.4231261701893
 21
303.4635043986717
 31
0.0
  0
LINE
  5
67
330
36
100
AcDbEntity
  8
0
  6
Continuous
 62
     7
100
AcDbLine
 10
-249.2241922610406
 20
305.2695810692676
 30
0.0
 11
-249.2240396734037
 21
305.2688181297636
 31
0.0
  0
LINE
  5
68
330
36
100
AcDbEntity
  8
0
  6
Continuous
 62
     7
100
AcDbLine
 10
-249.2244058840233
 20
305.269771804202
 30
0.0
 11
-249.2244058836955
 21
305.2707559960966
 31
0.0
  0
LINE
  5
69
330
36
100
AcDbEntity
  8
0
  6
Continuous
 62
     7
100
AcDbLine
 10
-1889.38137450821
 20
163.4592829877297
 30
0.0
 11
-1889.379811651018
 21
163.4608458456681
 31
0.0
  0
LINE
  5
6A
330
36
100
AcDbEntity
  8
0
  6
Continuous
 62
     7
100
AcDbLine
 10
-1909.174557508595
 20
163.4608464044716
 30
0.0
 11
-1909.173000484771
 21
163.4592895803626
 31
0.0
  0
LINE
  5
6B
330
36
100
AcDbEntity
  8
0
  6
Continuous
 62
     7
100
AcDbLine
 10
-1889.379691987778
 20
163.4608434369396
 30
0.0
 11
-1889.381252437898
 21
163.459282987689
 31
0.0
  0
LINE
  5
6C
330
36
100
AcDbEntity
  8
0
  6
Continuous
 62
     7
100
AcDbLine
 10
-4091.468654840761
 20
163.4617052815103
 30
0.0
 11
-4091.46867741983
 21
153.4537280979417
 31
0.0
  0
LINE
  5
6D
330
36
100
AcDbEntity
  8
0
  6
Continuous
 62
     7
100
AcDbLine
 10
-4091.468745099138
 20
123.4554614739992
 30
0.0
 11
-4091.468762648355
 21
115.6769231923773
 31
0.0
  0
LINE
  5
6E
330
36
100
AcDbEntity
  8
0
  6
Continuous
 62
     7
100
AcDbLine
 10
-4091.468669002295
 20
158.2916918972042
 30
0.0
 11
-4091.468669002295
 21
158.2146044514321
 31
0.0
  0
LINE
  5
6F
330
36
100
AcDbEntity
  8
0
  6
Continuous
 62
     7
100
AcDbLine
 10
-4091.468669002295
 20
158.2146044514321
 30
0.0
 11
-4091.468669002295
 21
157.1847277424478
 31
0.0
  0
LINE
  5
70
330
36
100
AcDbEntity
  8
0
  6
Continuous
 62
     7
100
AcDbLine
 10
-4105.4116980857
 20
91.3105816590288
 30
0.0
 11
-4105.411646907569
 21
91.09207637526032
 31
0.0
  0
LINE
  5
71
330
36
100
AcDbEntity
  8
0
  6
Continuous
 62
     7
100
AcDbLine
 10
-4085.525943999138
 20
91.31052144622493
 30
0.0
 11
-4085.525996272802
 21
91.09232051588532
 31
0.0
  0
LINE
  5
72
330
36
100
AcDbEntity
  8
0
  6
Continuous
 62
     7
100
AcDbLine
 10
-4099.469200190279
 20
115.6770201748278
 30
0.0
 11
-4099.469174414267
 21
123.4555050797809
 31
0.0
  0
LINE
  5
73
330
36
100
AcDbEntity
  8
0
  6
Continuous
 62
     7
100
AcDbLine
 10
-4099.469075007365
 20
153.4537513201304
 30
0.0
 11
-4099.469041843437
 21
163.4617052815103
 31
0.0
  0
LINE
  5
74
330
36
100
AcDbEntity
  8
0
  6
Continuous
 62
     7
100
AcDbLine
 10
-4091.469200190267
 20
115.6769927449278
 30
0.0
 11
-4091.469174414308
 21
123.4554622114903
 31
0.0
  0
LINE
  5
75
330
36
100
AcDbEntity
  8
0
  6
Continuous
 62
     7
100
AcDbLine
 10
-4091.469075007338
 20
153.4537290363606
 30
0.0
 11
-4091.469058413093
 21
158.4614118726041
 31
0.0
  0
LINE
  5
76
330
36
100
AcDbEntity
  8
0
  6
Continuous
 62
     7
100
AcDbLine
 10
-4097.570506160498
 20
111.3105517170571
 30
0.0
 11
-4101.36539751792
 21
111.3105822346353
 31
0.0
  0
LINE
  5
77
330
36
100
AcDbEntity
  8
0
  6
Continuous
 62
     7
100
AcDbLine
 10
-4088.052958553076
 20
111.310521199479
 30
0.0
 11
-4091.422572200537
 21
111.3105517170571
 31
0.0
  0
LINE
  5
78
330
36
100
AcDbEntity
  8
0
  6
Continuous
 62
     7
100
AcDbLine
 10
-4085.526454036475
 20
91.31052119947901
 30
0.0
 11
-4105.412089412452
 21
91.31058223463532
 31
0.0
  0
LINE
  5
79
330
36
100
AcDbEntity
  8
0
  6
Continuous
 62
     7
100
AcDbLine
 10
-4105.412089412452
 20
91.31058223463532
 30
0.0
 11
-4104.11817461753
 21
91.31055171705708
 31
0.0
  0
LINE
  5
7A
330
36
100
AcDbEntity
  8
0
  6
Continuous
 62
     7
100
AcDbLine
 10
-4085.526454036475
 20
91.31052119947901
 30
0.0
 11
-4085.521708553076
 21
91.31052119947901
 31
0.0
  0
LINE
  5
7B
330
36
100
AcDbEntity
  8
0
  6
Continuous
 62
     7
100
AcDbLine
 10
-4103.924693172216
 20
91.31055171705708
 30
0.0
 11
-4102.820826595068
 21
91.31055171705708
 31
0.0
  0
LINE
  5
7C
330
36
100
AcDbEntity
  8
0
  6
Continuous
 62
     7
100
AcDbLine
 10
-4102.820826595068
 20
91.31055171705708
 30
0.0
 11
-4101.969264110726
 21
91.31055171705708
 31
0.0
  0
LINE
  5
7D
330
36
100
AcDbEntity
  8
0
  6
Continuous
 62
     7
100
AcDbLine
 10
-4104.11817461753
 20
91.31055171705708
 30
0.0
 11
-4103.924693172216
 21
91.31055171705708
 31
0.0
  0
LINE
  5
7E
330
36
100
AcDbEntity
  8
0
  6
Continuous
 62
     7
100
AcDbLine
 10
-4085.521708553076
 20
91.31052119947901
 30
0.0
 11
-4085.526454036475
 21
91.31052119947901
 31
0.0
  0
LINE
  5
7F
330
36
100
AcDbEntity
  8
0
  6
Continuous
 62
     7
100
AcDbLine
 10
-4087.105113090235
 20
111.310521199479
 30
0.0
 11
-4088.052958553076
 21
111.310521199479
 31
0.0
  0
LINE
  5
80
330
36
100
AcDbEntity
  8
0
  6
Continuous
 62
     7
100
AcDbLine
 10
-4096.775858953364
 20
111.3105517170571
 30
0.0
 11
-4097.570506160498
 21
111.3105517170571
 31
0.0
  0
LINE
  5
81
330
36
100
AcDbEntity
  8
0
  6
Continuous
 62
     7
100
AcDbLine
 10
-4085.52164751792
 20
111.310521199479
 30
0.0
 11
-4085.526454036475
 21
91.31052119947901
 31
0.0
  0
LINE
  5
82
330
36
100
AcDbEntity
  8
0
  6
Continuous
 62
     7
100
AcDbLine
 10
-4105.416773860693
 20
111.3105822346353
 30
0.0
 11
-4105.412089412452
 21
91.31058223463532
 31
0.0
  0
LINE
  5
83
330
36
100
AcDbEntity
  8
0
  6
Continuous
 62
     7
100
AcDbLine
 10
-85.00699455066069
 20
684.0638150034436
 30
0.0
 11
-85.00607902194452
 21
684.0679348761855
 31
0.0
  0
LINE
  5
84
330
36
100
AcDbEntity
  8
0
  6
Continuous
 62
     7
100
AcDbLine
 10
-305.0070032739446
 20
382.0187170219563
 30
0.0
 11
-305.0069944927941
 21
686.0680552040723
 31
0.0
  0
LINE
  5
85
330
36
100
AcDbEntity
  8
0
  6
Continuous
 62
     7
100
AcDbLine
 10
-305.0069945506784
 20
684.0637967331785
 30
0.0
 11
-305.0061095395404
 21
684.0679166059306
 31
0.0
  0
LINE
  5
86
330
36
100
AcDbEntity
  8
0
  6
Continuous
 62
     7
100
AcDbLine
 10
-85.00607859049073
 20
686.0680586912624
 30
0.0
 11
-85.0061913616496
 21
163.2860354623208
 31
0.0
  0
LINE
  5
87
330
36
100
AcDbEntity
  8
0
  6
Continuous
 62
     7
100
AcDbLine
 10
-85.00710670899434
 20
164.1227139292334
 30
0.0
 11
-85.00699455066069
 21
684.0638150034436
 31
0.0
  0
LINE
  5
88
330
36
100
AcDbEntity
  8
0
  6
Continuous
 62
     7
100
AcDbLine
 10
-89.00650993455565
 20
123.3630737053662
 30
0.0
 11
-89.00651060075961
 21
121.3630737053663
 31
0.0
  0
LINE
  5
89
330
36
100
AcDbEntity
  8
0
  6
Continuous
 62
     7
100
AcDbLine
 10
-89.00657163610958
 20
121.3624938714022
 30
0.0
 11
-89.00657096990426
 21
123.3624938714021
 31
0.0
  0
LINE
  5
8A
330
36
100
AcDbEntity
  8
0
  6
Continuous
 62
     7
100
AcDbLine
 10
-1929.005533375248
 20
123.3537949204284
 30
0.0
 11
-1929.005534041452
 21
121.3537949204285
 31
0.0
  0
LINE
  5
8B
330
36
100
AcDbEntity
  8
0
  6
Continuous
 62
     7
100
AcDbLine
 10
-1899.005411304084
 20
123.3563484038863
 30
0.0
 11
-1899.005411559024
 21
122.5909980620894
 31
0.0
  0
LINE
  5
8C
330
36
100
AcDbEntity
  8
0
  6
Continuous
 62
     7
100
AcDbLine
 10
-1899.005411559024
 20
122.5909980620894
 30
0.0
 11
-1899.005411612769
 21
122.4296465694328
 31
0.0
  0
LINE
  5
8D
330
36
100
AcDbEntity
  8
0
  6
Continuous
 62
     7
100
AcDbLine
 10
-1933.006130366882
 20
163.4614032321196
 30
0.0
 11
-1933.006130366018
 21
163.4639972262602
 31
0.0
  0
LINE
  5
8E
330
36
100
AcDbEntity
  8
0
  6
Continuous
 62
     7
100
AcDbLine
 10
-322.9891693040686
 20
382.018640031407
 30
0.0
 11
-318.9571684047455
 21
382.0186620672504
 31
0.0
  0
LINE
  5
8F
330
36
100
AcDbEntity
  8
0
  6
Continuous
 62
     7
100
AcDbLine
 10
-318.9571684047455
 20
382.0186620672504
 30
0.0
 11
-305.0070032739446
 21
382.0187170219563
 31
0.0
  0
LINE
  5
90
330
36
100
AcDbEntity
  8
0
  6
Continuous
 62
     3
100
AcDbLine
 10
-1764.591208762219
 20
309.4610497328545
 30
0.0
 11
-1764.591423648335
 21
309.4608348468521
 31
0.0
  0
LINE
  5
91
330
36
100
AcDbEntity
  8
0
  6
Continuous
 62
     7
100
AcDbLine
 10
-309.0059950664904
 20
309.4610526582403
 30
0.0
 11
-309.0059950664854
 21
309.460795207234
 31
0.0
  0
LINE
  5
92
330
36
100
AcDbEntity
  8
0
  6
Continuous
 62
     7
100
AcDbLine
 10
-1709.00594114758
 20
365.0481513663423
 30
0.0
 11
-1709.005941148201
 21
365.0462887082294
 31
0.0
  0
LINE
  5
93
330
36
100
AcDbEntity
  8
0
  6
Continuous
 62
     7
100
AcDbLine
 10
-1709.00595966376
 20
309.4610538422586
 30
0.0
 11
-1709.005959663835
 21
309.4608324343834
 31
0.0
  0
LINE
  5
94
330
36
100
AcDbEntity
  8
0
  6
Continuous
 62
     7
100
AcDbLine
 10
-309.0059965297523
 20
382.0186396790075
 30
0.0
 11
-311.7442823132606
 21
382.0186397480165
 31
0.0
  0
LINE
  5
95
330
36
100
AcDbEntity
  8
0
  6
Continuous
 62
     7
100
AcDbLine
 10
-311.7442823132606
 20
382.0186397480165
 30
0.0
 11
-1704.852803237065
 21
382.0186748565176
 31
0.0
  0
LINE
  5
96
330
36
100
AcDbEntity
  8
0
  6
Continuous
 62
     7
100
AcDbLine
 10
-1704.852803237065
 20
382.0186748565176
 30
0.0
 11
-1706.267722074916
 21
382.0186748921758
 31
0.0
  0
LINE
  5
97
330
36
100
AcDbEntity
  8
0
  6
Continuous
 62
     7
100
AcDbLine
 10
-1706.267722074916
 20
382.0186748921758
 30
0.0
 11
-1711.555128975449
 21
382.0186750254267
 31
0.0
  0
LINE
  5
98
330
36
100
AcDbEntity
  8
0
  6
Continuous
 62
     7
100
AcDbLine
 10
-1764.592995796578
 20
309.4610495869665
 30
0.0
 11
-1764.591208907887
 21
309.461049587107
 31
0.0
  0
LINE
  5
99
330
36
100
AcDbEntity
  8
0
  6
Continuous
 62
     7
100
AcDbLine
 10
-1709.005941148201
 20
365.0462890809158
 30
0.0
 11
-1709.00594114758
 21
365.0481511269554
 31
0.0
  0
LINE
  5
9A
330
36
100
AcDbEntity
  8
0
  6
Continuous
 62
     7
100
AcDbLine
 10
-3441.964442317724
 20
685.0679674885415
 30
0.0
 11
-3441.864436214209
 21
685.0679674885415
 31
0.0
  0
LINE
  5
9B
330
36
100
AcDbEntity
  8
0
  6
Continuous
 62
     7
100
AcDbLine
 10
-3441.864436214209
 20
685.0679674885415
 30
0.0
 11
-3441.864436214209
 21
163.4617052815103
 31
0.0
  0
LINE
  5
9C
330
36
100
AcDbEntity
  8
0
  6
Continuous
 62
     7
100
AcDbLine
 10
-4296.964411800146
 20
685.0679674885415
 30
0.0
 11
-3441.964442317724
 21
685.0679674885415
 31
0.0
  0
LINE
  5
9D
330
36
100
AcDbEntity
  8
0
  6
Continuous
 62
     7
100
AcDbLine
 10
-4076.96439644362
 20
163.4617052815103
 30
0.0
 11
-4076.964427058935
 21
685.0679674885415
 31
0.0
  0
LINE
  5
9E
330
36
100
AcDbEntity
  8
0
  6
Continuous
 62
     7
100
AcDbLine
 10
-46.92960922609427
 20
112.5903526127224
 30
0.0
 11
-74.2443675256236
 21
112.594115373436
 31
0.0
  0
LINE
  5
9F
330
36
100
AcDbEntity
  8
0
  6
Continuous
 62
     7
100
AcDbLine
 10
-46.24436752690554
 20
112.5902608317325
 30
0.0
 11
-46.92960922609427
 21
112.5903526127224
 31
0.0
  0
LINE
  5
A0
330
36
100
AcDbEntity
  8
0
  6
Continuous
 62
     7
100
AcDbLine
 10
-47.81309361242529
 20
111.0904749773253
 30
0.0
 11
-72.67613072066069
 21
111.093901228006
 31
0.0
  0
LINE
  5
A1
330
36
100
AcDbEntity
  8
0
  6
Continuous
 62
     7
100
AcDbLine
 10
-47.81309361242529
 20
111.0904749773253
 30
0.0
 11
-47.65714878548261
 21
111.0986536363173
 31
0.0
  0
LINE
  5
A2
330
36
100
AcDbEntity
  8
0
  6
Continuous
 62
     7
100
AcDbLine
 10
-47.65714878548261
 20
111.0986536363173
 30
0.0
 11
-47.35209505284138
 21
111.1638085640001
 31
0.0
  0
LINE
  5
A3
330
36
100
AcDbEntity
  8
0
  6
Continuous
 62
     7
100
AcDbLine
 10
-47.35209505284138
 20
111.1638085640001
 30
0.0
 11
-47.06712186582854
 21
111.2913414280593
 31
0.0
  0
LINE
  5
A4
330
36
100
AcDbEntity
  8
0
  6
Continuous
 62
     7
100
AcDbLine
 10
-47.06712186582854
 20
111.2913414280593
 30
0.0
 11
-46.81480246851152
 21
111.47560648073
 31
0.0
  0
LINE
  5
A5
330
36
100
AcDbEntity
  8
0
  6
Continuous
 62
     7
100
AcDbLine
 10
-46.81480246851152
 20
111.47560648073
 30
0.0
 11
-46.60612319166967
 21
111.7086386377809
 31
0.0
  0
LINE
  5
A6
330
36
100
AcDbEntity
  8
0
  6
Continuous
 62
     7
100
AcDbLine
 10
-46.60612319166967
 20
111.7086386377809
 30
0.0
 11
-46.45011724184269
 21
111.9801839959713
 31
0.0
  0
LINE
  5
A7
330
36
100
AcDbEntity
  8
0
  6
Continuous
 62
     7
100
AcDbLine
 10
-46.45011724184269
 20
111.9801839959713
 30
0.0
 11
-46.35374263078666
 21
112.2784017373062
 31
0.0
  0
LINE
  5
A8
330
36
100
AcDbEntity
  8
0
  6
Continuous
 62
     7
100
AcDbLine
 10
-46.35374263078666
 20
112.2784017373062
 30
0.0
 11
-46.24436752690554
 21
112.5902608317325
 31
0.0
  0
LINE
  5
A9
330
36
100
AcDbEntity
  8
0
  6
Continuous
 62
     7
100
AcDbLine
 10
-73.95609873387457
 20
111.8399343692099
 30
0.0
 11
-74.03880132260156
 21
111.9840078830865
 31
0.0
  0
LINE
  5
AA
330
36
100
AcDbEntity
  8
0
  6
Continuous
 62
     7
100
AcDbLine
 10
-74.03880132260156
 20
111.9840078830865
 30
0.0
 11
-74.08531006369367
 21
112.1280203497505
 31
0.0
  0
LINE
  5
AB
330
36
100
AcDbEntity
  8
0
  6
Continuous
 62
     7
100
AcDbLine
 10
-74.08531006369367
 20
112.1280203497505
 30
0.0
 11
-74.13511469981768
 21
112.2822562061843
 31
0.0
  0
LINE
  5
AC
330
36
100
AcDbEntity
  8
0
  6
Continuous
 62
     7
100
AcDbLine
 10
-74.13511469981768
 20
112.2822562061843
 30
0.0
 11
-74.2443675256236
 21
112.594115373436
 31
0.0
  0
LINE
  5
AD
330
36
100
AcDbEntity
  8
0
  6
Continuous
 62
     7
100
AcDbLine
 10
-73.76872088915934
 20
111.584837871247
 30
0.0
 11
-73.8829176240115
 21
111.7124013858487
 31
0.0
  0
LINE
  5
AE
330
36
100
AcDbEntity
  8
0
  6
Continuous
 62
     7
100
AcDbLine
 10
-72.67613072066069
 20
111.093901228006
 30
0.0
 11
-72.83207554213459
 21
111.1021410260453
 31
0.0
  0
LINE
  5
AF
330
36
100
AcDbEntity
  8
0
  6
Continuous
 62
     7
100
AcDbLine
 10
-72.83207554213459
 20
111.1021410260453
 30
0.0
 11
-73.13706819618255
 21
111.1673877096703
 31
0.0
  0
LINE
  5
B0
330
36
100
AcDbEntity
  8
0
  6
Continuous
 62
     7
100
AcDbLine
 10
-73.13706819618255
 20
111.1673877096703
 30
0.0
 11
-73.4219802630555
 21
111.2949817987157
 31
0.0
  0
LINE
  5
B1
330
36
100
AcDbEntity
  8
0
  6
Continuous
 62
     7
100
AcDbLine
 10
-73.4219802630555
 20
111.2949817987157
 30
0.0
 11
-73.67423850242631
 21
111.4793385721966
 31
0.0
  0
LINE
  5
B2
330
36
100
AcDbEntity
  8
0
  6
Continuous
 62
     7
100
AcDbLine
 10
-73.67423850242631
 20
111.4793385721966
 30
0.0
 11
-73.76872088915934
 21
111.584837871247
 31
0.0
  0
LINE
  5
B3
330
36
100
AcDbEntity
  8
0
  6
Continuous
 62
     7
100
AcDbLine
 10
-73.8829176240115
 20
111.7124013858487
 30
0.0
 11
-73.95609873387457
 21
111.8399343692099
 31
0.0
  0
LINE
  5
B4
330
36
100
AcDbEntity
  8
0
  6
Continuous
 62
     7
100
AcDbLine
 10
-46.24436752690554
 20
112.5902608317325
 30
0.0
 11
-51.05082436538032
 21
114.6348486144143
 31
0.0
  0
LINE
  5
B5
330
36
100
AcDbEntity
  8
0
  6
Continuous
 62
     7
100
AcDbLine
 10
-51.05082436538032
 20
114.6348486144143
 30
0.0
 11
-60.24387807915764
 21
116.0921881024214
 31
0.0
  0
LINE
  5
B6
330
36
100
AcDbEntity
  8
0
  6
Continuous
 62
     7
100
AcDbLine
 10
-60.24387807915764
 20
116.0921881024214
 30
0.0
 11
-69.43736000906756
 21
114.6373876979929
 31
0.0
  0
LINE
  5
B7
330
36
100
AcDbEntity
  8
0
  6
Continuous
 62
     7
100
AcDbLine
 10
-69.43736000906756
 20
114.6373876979929
 30
0.0
 11
-74.2443675256236
 21
112.594115373436
 31
0.0
  0
LINE
  5
B8
330
36
100
AcDbEntity
  8
0
  6
Continuous
 62
     7
100
AcDbLine
 10
-85.00607859049073
 20
686.0680586912624
 30
0.0
 11
-1933.006078590603
 21
686.0680293989872
 31
0.0
  0
LINE
  5
B9
330
36
100
AcDbEntity
  8
0
  6
Continuous
 62
     7
100
AcDbLine
 10
-1931.555080562194
 20
163.4614027487718
 30
0.0
 11
-1931.548244624694
 21
163.4614027464947
 31
0.0
  0
LINE
  5
BA
330
36
100
AcDbEntity
  8
0
  6
Continuous
 62
     7
100
AcDbLine
 10
-90.00607835799656
 20
686.0611616393524
 30
0.0
 11
-90.00607835569963
 21
686.0680586120085
 31
0.0
  0
LINE
  5
BB
330
36
100
AcDbEntity
  8
0
  6
Continuous
 62
     7
100
AcDbLine
 10
-1945.312422152512
 20
111.3105284251188
 30
0.0
 11
-1970.175459261875
 21
111.3105672246276
 31
0.0
  0
LINE
  5
BC
330
36
100
AcDbEntity
  8
0
  6
Continuous
 62
     7
100
AcDbLine
 10
-1943.743940207547
 20
112.8105279026541
 30
0.0
 11
-1971.743940207535
 21
112.810567747092
 31
0.0
  0
LINE
  5
BD
330
36
100
AcDbEntity
  8
0
  6
Continuous
 62
     7
100
AcDbLine
 10
-1945.312422152512
 20
111.3105284251188
 30
0.0
 11
-1945.156538360716
 21
111.3187376017091
 31
0.0
  0
LINE
  5
BE
330
36
100
AcDbEntity
  8
0
  6
Continuous
 62
     7
100
AcDbLine
 10
-1945.156538360716
 20
111.3187376017091
 30
0.0
 11
-1944.851484628065
 21
111.3839230469701
 31
0.0
  0
LINE
  5
BF
330
36
100
AcDbEntity
  8
0
  6
Continuous
 62
     7
100
AcDbLine
 10
-1944.851484628065
 20
111.3839230469701
 30
0.0
 11
-1944.566572476198
 21
111.5114864286277
 31
0.0
  0
LINE
  5
C0
330
36
100
AcDbEntity
  8
0
  6
Continuous
 62
     7
100
AcDbLine
 10
-1944.566572476198
 20
111.5114864286277
 30
0.0
 11
-1944.314253078861
 21
111.6958125164546
 31
0.0
  0
LINE
  5
C1
330
36
100
AcDbEntity
  8
0
  6
Continuous
 62
     7
100
AcDbLine
 10
-1944.314253078861
 20
111.6958125164546
 30
0.0
 11
-1944.105634837174
 21
111.928844673526
 31
0.0
  0
LINE
  5
C2
330
36
100
AcDbEntity
  8
0
  6
Continuous
 62
     7
100
AcDbLine
 10
-1944.105634837174
 20
111.928844673526
 30
0.0
 11
-1943.949628887337
 21
112.2004205492944
 31
0.0
  0
LINE
  5
C3
330
36
100
AcDbEntity
  8
0
  6
Continuous
 62
     7
100
AcDbLine
 10
-1943.949628887337
 20
112.2004205492944
 30
0.0
 11
-1943.853315311427
 21
112.4986688082279
 31
0.0
  0
LINE
  5
C4
330
36
100
AcDbEntity
  8
0
  6
Continuous
 62
     7
100
AcDbLine
 10
-1943.853315311427
 20
112.4986688082279
 30
0.0
 11
-1943.743940207547
 21
112.8105279026541
 31
0.0
  0
LINE
  5
C5
330
36
100
AcDbEntity
  8
0
  6
Continuous
 62
     7
100
AcDbLine
 10
-1971.634687381739
 20
112.4986780622622
 30
0.0
 11
-1971.743940207535
 21
112.810567747092
 31
0.0
  0
LINE
  5
C6
330
36
100
AcDbEntity
  8
0
  6
Continuous
 62
     7
100
AcDbLine
 10
-1971.538374004512
 20
112.2004602567424
 30
0.0
 11
-1971.584882745605
 21
112.3444727234065
 31
0.0
  0
LINE
  5
C7
330
36
100
AcDbEntity
  8
0
  6
Continuous
 62
     7
100
AcDbLine
 10
-1971.455610380609
 20
112.0564477780018
 30
0.0
 11
-1971.538374004512
 21
112.2004602567424
 31
0.0
  0
LINE
  5
C8
330
36
100
AcDbEntity
  8
0
  6
Continuous
 62
     7
100
AcDbLine
 10
-1971.584882745605
 20
112.3444727234065
 30
0.0
 11
-1971.634687381739
 21
112.4986780622622
 31
0.0
  0
LINE
  5
C9
330
36
100
AcDbEntity
  8
0
  6
Continuous
 62
     7
100
AcDbLine
 10
-1970.175459261875
 20
111.3105672246276
 30
0.0
 11
-1970.331465118516
 21
111.3187765051091
 31
0.0
  0
LINE
  5
CA
330
36
100
AcDbEntity
  8
0
  6
Continuous
 62
     7
100
AcDbLine
 10
-1970.331465118516
 20
111.3187765051091
 30
0.0
 11
-1970.63651880774
 21
111.3839621535981
 31
0.0
  0
LINE
  5
CB
330
36
100
AcDbEntity
  8
0
  6
Continuous
 62
     7
100
AcDbLine
 10
-1970.63651880774
 20
111.3839621535981
 30
0.0
 11
-1970.921430874623
 21
111.5115257250654
 31
0.0
  0
LINE
  5
CC
330
36
100
AcDbEntity
  8
0
  6
Continuous
 62
     7
100
AcDbLine
 10
-1970.921430874623
 20
111.5115257250654
 30
0.0
 11
-1971.173750149161
 21
111.6958519809885
 31
0.0
  0
LINE
  5
CD
330
36
100
AcDbEntity
  8
0
  6
Continuous
 62
     7
100
AcDbLine
 10
-1971.173750149161
 20
111.6958519809885
 30
0.0
 11
-1971.382368235601
 21
111.9288842770422
 31
0.0
  0
LINE
  5
CE
330
36
100
AcDbEntity
  8
0
  6
Continuous
 62
     7
100
AcDbLine
 10
-1971.382368235601
 20
111.9288842770422
 30
0.0
 11
-1971.455610380609
 21
112.0564477780018
 31
0.0
  0
LINE
  5
CF
330
36
100
AcDbEntity
  8
0
  6
Continuous
 62
     7
100
AcDbLine
 10
-1943.743940207547
 20
112.8105279026541
 30
0.0
 11
-1948.550702222027
 21
114.8544442987188
 31
0.0
  0
LINE
  5
D0
330
36
100
AcDbEntity
  8
0
  6
Continuous
 62
     7
100
AcDbLine
 10
-1948.550702222027
 20
114.8544442987188
 30
0.0
 11
-1957.743939041689
 21
116.3105325660838
 31
0.0
  0
LINE
  5
D1
330
36
100
AcDbEntity
  8
0
  6
Continuous
 62
     7
100
AcDbLine
 10
-1957.743939041689
 20
116.3105325660838
 30
0.0
 11
-1966.937298901702
 21
114.8544809409115
 31
0.0
  0
LINE
  5
D2
330
36
100
AcDbEntity
  8
0
  6
Continuous
 62
     7
100
AcDbLine
 10
-1966.937298901702
 20
114.8544809409115
 30
0.0
 11
-1971.743940207535
 21
112.810567747092
 31
0.0
  0
LINE
  5
D3
330
36
100
AcDbEntity
  8
0
  6
Continuous
 62
     7
100
AcDbLine
 10
-4085.521205245042
 20
111.0911349100025
 30
0.0
 11
-4085.356074397802
 21
111.0911608479165
 31
0.0
  0
LINE
  5
D4
330
36
100
AcDbEntity
  8
0
  6
Continuous
 62
     3
100
AcDbLine
 10
-4105.416722962185
 20
111.0932619171982
 30
0.0
 11
-4105.581446712256
 21
111.093236043229
 31
0.0
  0
LINE
  5
D5
330
36
100
AcDbEntity
  8
0
  6
Continuous
 62
     7
100
AcDbLine
 10
-4105.581492488624
 20
111.0911913654946
 30
0.0
 11
-4105.416722468082
 21
111.0911683597497
 31
0.0
  0
LINE
  5
D6
330
36
100
AcDbEntity
  8
0
  6
Continuous
 62
     3
100
AcDbLine
 10
-4085.356028621436
 20
111.0931750080728
 30
0.0
 11
-4085.521699750887
 21
111.0932010310786
 31
0.0
  0
LINE
  5
D7
330
36
100
AcDbEntity
  8
0
  6
Continuous
 62
     7
100
AcDbLine
 10
-4109.446272807674
 20
112.5922581243195
 30
0.0
 11
-4109.46876055503
 21
112.5922289631509
 31
0.0
  0
LINE
  5
D8
330
36
100
AcDbEntity
  8
0
  6
Continuous
 62
     7
100
AcDbLine
 10
-4081.468760555029
 20
112.5921374104165
 30
0.0
 11
-4081.492163450982
 21
112.5921700943951
 31
0.0
  0
LINE
  5
D9
330
36
100
AcDbEntity
  8
0
  6
Continuous
 62
     7
100
AcDbLine
 10
-4101.650675838233
 20
91.09247310377589
 30
0.0
 11
-4101.968821590186
 21
91.09219844557282
 31
0.0
  0
LINE
  5
DA
330
36
100
AcDbEntity
  8
0
  6
Continuous
 62
     7
100
AcDbLine
 10
-4109.46876055503
 20
112.5922289631509
 30
0.0
 11
-4108.123805110694
 21
111.1004381916665
 31
0.0
  0
LINE
  5
DB
330
36
100
AcDbEntity
  8
0
  6
Continuous
 62
     7
100
AcDbLine
 10
-4108.123805110694
 20
111.1004381916665
 30
0.0
 11
-4107.696589534522
 21
111.0919237873696
 31
0.0
  0
LINE
  5
DC
330
36
100
AcDbEntity
  8
0
  6
Continuous
 62
     7
100
AcDbLine
 10
-4107.696589534522
 20
111.0919237873696
 30
0.0
 11
-4105.581782405616
 21
111.0912218830728
 31
0.0
  0
LINE
  5
DD
330
36
100
AcDbEntity
  8
0
  6
Continuous
 62
     7
100
AcDbLine
 10
-4085.358988826513
 20
111.0911608479165
 30
0.0
 11
-4082.969523494483
 21
111.0922289631509
 31
0.0
  0
LINE
  5
DE
330
36
100
AcDbEntity
  8
0
  6
Continuous
 62
     7
100
AcDbLine
 10
-4082.969523494483
 20
111.0922289631509
 30
0.0
 11
-4081.468760555029
 21
112.5921374104165
 31
0.0
  0
LINE
  5
DF
330
36
100
AcDbEntity
  8
0
  6
Continuous
 62
     7
100
AcDbLine
 10
-4085.521205245042
 20
111.0911349100025
 30
0.0
 11
-4085.358988826513
 21
111.0911608479165
 31
0.0
  0
LINE
  5
E0
330
36
100
AcDbEntity
  8
0
  6
Continuous
 62
     7
100
AcDbLine
 10
-4105.581782405616
 20
111.0912218830728
 30
0.0
 11
-4105.416722482269
 21
111.0911987850487
 31
0.0
  0
LINE
  5
E1
330
36
100
AcDbEntity
  8
0
  6
Continuous
 62
     7
100
AcDbLine
 10
-4109.447231710026
 20
112.6013826671316
 30
0.0
 11
-4109.46876055503
 21
112.5922289631509
 31
0.0
  0
LINE
  5
E2
330
36
100
AcDbEntity
  8
0
  6
Continuous
 62
     7
100
AcDbLine
 10
-4081.468760555029
 20
112.5921374104165
 30
0.0
 11
-4081.491165671396
 21
112.6016638719654
 31
0.0
  0
LINE
  5
E3
330
36
100
AcDbEntity
  8
0
  6
Continuous
 62
     7
100
AcDbLine
 10
-4085.356486385108
 20
111.3104906819009
 30
0.0
 11
-4083.242381160498
 21
111.310521199479
 31
0.0
  0
LINE
  5
E4
330
36
100
AcDbEntity
  8
0
  6
Continuous
 62
     7
100
AcDbLine
 10
-4083.242381160498
 20
111.310521199479
 30
0.0
 11
-4107.969218318702
 21
111.3105822346353
 31
0.0
  0
LINE
  5
E5
330
36
100
AcDbEntity
  8
0
  6
Continuous
 62
     7
100
AcDbLine
 10
-4107.969218318702
 20
111.3105822346353
 30
0.0
 11
-4105.581904475928
 21
111.3105517170571
 31
0.0
  0
LINE
  5
E6
330
36
100
AcDbEntity
  8
0
  6
Continuous
 62
     7
100
AcDbLine
 10
-4085.521647475034
 20
111.3104906819009
 30
0.0
 11
-4085.356486385108
 21
111.3104906819009
 31
0.0
  0
LINE
  5
E7
330
36
100
AcDbEntity
  8
0
  6
Continuous
 62
     7
100
AcDbLine
 10
-4105.581904475928
 20
111.3105517170571
 30
0.0
 11
-4105.416773850162
 21
111.3105517170571
 31
0.0
  0
LINE
  5
E8
330
36
100
AcDbEntity
  8
0
  6
Continuous
 62
     7
100
AcDbLine
 10
-4103.698237483741
 20
112.8105822346353
 30
0.0
 11
-4109.469218318702
 21
112.8105822346353
 31
0.0
  0
LINE
  5
E9
330
36
100
AcDbEntity
  8
0
  6
Continuous
 62
     7
100
AcDbLine
 10
-4081.469218318701
 20
112.8104906819009
 30
0.0
 11
-4103.698237483741
 21
112.8105822346353
 31
0.0
  0
LINE
  5
EA
330
36
100
AcDbEntity
  8
0
  6
Continuous
 62
     7
100
AcDbLine
 10
-4096.859843318702
 20
91.31055171705708
 30
0.0
 11
-4091.828684871436
 21
91.31052119947901
 31
0.0
  0
LINE
  5
EB
330
36
100
AcDbEntity
  8
0
  6
Continuous
 62
     7
100
AcDbLine
 10
-4107.969218318702
 20
111.3105822346353
 30
0.0
 11
-4108.126002376319
 21
111.3187914631509
 31
0.0
  0
LINE
  5
EC
330
36
100
AcDbEntity
  8
0
  6
Continuous
 62
     7
100
AcDbLine
 10
-4108.126002376319
 20
111.3187914631509
 30
0.0
 11
-4108.432734554053
 21
111.384007527604
 31
0.0
  0
LINE
  5
ED
330
36
100
AcDbEntity
  8
0
  6
Continuous
 62
     7
100
AcDbLine
 10
-4108.432734554053
 20
111.384007527604
 30
0.0
 11
-4108.719218318701
 21
111.5115404865884
 31
0.0
  0
LINE
  5
EE
330
36
100
AcDbEntity
  8
0
  6
Continuous
 62
     7
100
AcDbLine
 10
-4108.719218318701
 20
111.5115404865884
 30
0.0
 11
-4108.972910945655
 21
111.6958666584634
 31
0.0
  0
LINE
  5
EF
330
36
100
AcDbEntity
  8
0
  6
Continuous
 62
     7
100
AcDbLine
 10
-4108.972910945655
 20
111.6958666584634
 30
0.0
 11
-4109.182734554053
 21
111.9288988850259
 31
0.0
  0
LINE
  5
F0
330
36
100
AcDbEntity
  8
0
  6
Continuous
 62
     7
100
AcDbLine
 10
-4109.182734554053
 20
111.9288988850259
 30
0.0
 11
-4109.33953387046
 21
112.2004748127603
 31
0.0
  0
LINE
  5
F1
330
36
100
AcDbEntity
  8
0
  6
Continuous
 62
     7
100
AcDbLine
 10
-4109.33953387046
 20
112.2004748127603
 30
0.0
 11
-4109.436442439795
 21
112.4987231037759
 31
0.0
  0
LINE
  5
F2
330
36
100
AcDbEntity
  8
0
  6
Continuous
 62
     7
100
AcDbLine
 10
-4081.965525691748
 20
111.695775105729
 30
0.0
 11
-4082.219218318701
 21
111.5114794514321
 31
0.0
  0
LINE
  5
F3
330
36
100
AcDbEntity
  8
0
  6
Continuous
 62
     7
100
AcDbLine
 10
-4109.436442439795
 20
112.4987231037759
 30
0.0
 11
-4109.469218318702
 21
112.8105822346353
 31
0.0
  0
LINE
  5
F4
330
36
100
AcDbEntity
  8
0
  6
Continuous
 62
     7
100
AcDbLine
 10
-4081.501994197608
 20
112.4986315510415
 30
0.0
 11
-4081.598887508154
 21
112.2003832600259
 31
0.0
  0
LINE
  5
F5
330
36
100
AcDbEntity
  8
0
  6
Continuous
 62
     7
100
AcDbLine
 10
-4081.469218318701
 20
112.8104906819009
 30
0.0
 11
-4081.501994197608
 21
112.4986315510415
 31
0.0
  0
LINE
  5
F6
330
36
100
AcDbEntity
  8
0
  6
Continuous
 62
     7
100
AcDbLine
 10
-4082.219218318701
 20
111.5114794514321
 30
0.0
 11
-4082.505686824561
 21
111.3839159748696
 31
0.0
  0
LINE
  5
F7
330
36
100
AcDbEntity
  8
0
  6
Continuous
 62
     7
100
AcDbLine
 10
-4082.505686824561
 20
111.3839159748696
 30
0.0
 11
-4082.812419002295
 21
111.3187304279946
 31
0.0
  0
LINE
  5
F8
330
36
100
AcDbEntity
  8
0
  6
Continuous
 62
     7
100
AcDbLine
 10
-4082.812419002295
 20
111.3187304279946
 30
0.0
 11
-4083.242381160498
 21
111.310521199479
 31
0.0
  0
LINE
  5
F9
330
36
100
AcDbEntity
  8
0
  6
Continuous
 62
     7
100
AcDbLine
 10
-4081.755686824561
 20
111.9288378498696
 30
0.0
 11
-4081.965525691748
 21
111.695775105729
 31
0.0
  0
LINE
  5
FA
330
36
100
AcDbEntity
  8
0
  6
Continuous
 62
     7
100
AcDbLine
 10
-4081.598887508154
 20
112.2003832600259
 30
0.0
 11
-4081.755686824561
 21
111.9288378498696
 31
0.0
  0
LINE
  5
FB
330
36
100
AcDbEntity
  8
0
  6
Continuous
 62
     7
100
AcDbLine
 10
-4081.469218318701
 20
112.8104906819009
 30
0.0
 11
-4086.275950496436
 21
114.8544359944009
 31
0.0
  0
LINE
  5
FC
330
36
100
AcDbEntity
  8
0
  6
Continuous
 62
     7
100
AcDbLine
 10
-4086.275950496436
 20
114.8544359944009
 30
0.0
 11
-4095.469203059913
 21
116.3105517170571
 31
0.0
  0
LINE
  5
FD
330
36
100
AcDbEntity
  8
0
  6
Continuous
 62
     7
100
AcDbLine
 10
-4095.469203059913
 20
116.3105517170571
 30
0.0
 11
-4104.662455623389
 21
114.8544970295571
 31
0.0
  0
LINE
  5
FE
330
36
100
AcDbEntity
  8
0
  6
Continuous
 62
     7
100
AcDbLine
 10
-4104.662455623389
 20
114.8544970295571
 30
0.0
 11
-4109.469218318702
 21
112.8105822346353
 31
0.0
  0
LINE
  5
FF
330
36
100
AcDbEntity
  8
0
  6
Continuous
 62
     7
100
AcDbLine
 10
-4296.964411800146
 20
685.0679674885415
 30
0.0
 11
-4296.964411800146
 21
163.4617052815103
 31
0.0
  0
LINE
  5
100
330
36
100
AcDbEntity
  8
0
  6
Continuous
 62
     7
100
AcDbLine
 10
-4291.964411800146
 20
158.4616747639321
 30
0.0
 11
-4291.964411800146
 21
158.4617052815103
 31
0.0
  0
LINE
  5
101
330
36
100
AcDbEntity
  8
0
  6
Continuous
 62
     7
100
AcDbLine
 10
-4296.957575862646
 20
681.0680285236979
 30
0.0
 11
-4296.964411800146
 21
681.0680285236979
 31
0.0
  0
LINE
  5
102
330
36
100
AcDbEntity
  8
0
  6
Continuous
 62
     7
100
AcDbLine
 10
-4081.964411800146
 20
686.0680285236979
 30
0.0
 11
-4081.964411800146
 21
686.0490160725259
 31
0.0
  0
LINE
  5
103
330
36
100
AcDbEntity
  8
0
  6
Continuous
 62
     7
100
AcDbLine
 10
-4076.971262996435
 20
681.0680285236979
 30
0.0
 11
-4076.964411800146
 21
681.0680285236979
 31
0.0
  0
LINE
  5
104
330
36
100
AcDbEntity
  8
0
  6
Continuous
 62
     7
100
AcDbLine
 10
-93.00575741655757
 20
0.46073128751721
 30
0.0
 11
-115.0057574166476
 21
0.46046395756099
 31
0.0
  0
LINE
  5
105
330
36
100
AcDbEntity
  8
0
  6
Continuous
 62
     7
100
AcDbLine
 10
-116.5057570835443
 20
1.46046445721419
 30
0.0
 11
-116.5057869349184
 21
3.46046445722419
 31
0.0
  0
LINE
  5
106
330
36
100
AcDbEntity
  8
0
  6
Continuous
 62
     7
100
AcDbLine
 10
-115.0057574166476
 20
0.46046395756099
 30
0.0
 11
-115.0057574148173
 21
0.46595712162349
 31
0.0
  0
LINE
  5
107
330
36
100
AcDbEntity
  8
0
  6
Continuous
 62
     7
100
AcDbLine
 10
-115.0057574166476
 20
0.46046395756099
 30
0.0
 11
-115.5057574166476
 21
0.46046412411209
 31
0.0
  0
LINE
  5
108
330
36
100
AcDbEntity
  8
0
  6
Continuous
 62
     7
100
AcDbLine
 10
-91.5057869311845
 20
3.46048664724901
 30
0.0
 11
-91.50575708345468
 21
1.4607307878639
 31
0.0
  0
LINE
  5
109
330
36
100
AcDbEntity
  8
0
  6
Continuous
 62
     7
100
AcDbLine
 10
-92.50575741655757
 20
0.4607311209661
 30
0.0
 11
-93.00575741655757
 21
0.46073128751721
 31
0.0
  0
LINE
  5
10A
330
36
100
AcDbEntity
  8
0
  6
Continuous
 62
     7
100
AcDbLine
 10
-93.00575741655757
 20
0.46073128751721
 30
0.0
 11
-93.00575741473767
 21
0.46619393400158
 31
0.0
  0
LINE
  5
10B
330
36
100
AcDbEntity
  8
0
  6
Continuous
 62
     7
100
AcDbLine
 10
-1903.005330177113
 20
0.44106653313588
 30
0.0
 11
-1925.005330177193
 21
0.4408297207579
 31
0.0
  0
LINE
  5
10C
330
36
100
AcDbEntity
  8
0
  6
Continuous
 62
     7
100
AcDbLine
 10
-1926.505329844101
 20
1.44079970283292
 30
0.0
 11
-1926.505329174086
 21
3.45224379462968
 31
0.0
  0
LINE
  5
10D
330
36
100
AcDbEntity
  8
0
  6
Continuous
 62
     7
100
AcDbLine
 10
-1925.005330177193
 20
0.4408297207579
 30
0.0
 11
-1925.005330175374
 21
0.44629236724228
 31
0.0
  0
LINE
  5
10E
330
36
100
AcDbEntity
  8
0
  6
Continuous
 62
     7
100
AcDbLine
 10
-1925.005330177193
 20
0.4408297207579
 30
0.0
 11
-1925.505330177203
 21
0.44079936973083
 31
0.0
  0
LINE
  5
10F
330
36
100
AcDbEntity
  8
0
  6
Continuous
 62
     7
100
AcDbLine
 10
-1901.505329174127
 20
3.45211339676382
 30
0.0
 11
-1901.505329844011
 21
1.44106603348268
 31
0.0
  0
LINE
  5
110
330
36
100
AcDbEntity
  8
0
  6
Continuous
 62
     7
100
AcDbLine
 10
-1902.505330177113
 20
0.44106636658489
 30
0.0
 11
-1903.005330177113
 21
0.44106653313588
 31
0.0
  0
LINE
  5
111
330
36
100
AcDbEntity
  8
0
  6
Continuous
 62
     7
100
AcDbLine
 10
-1903.005330177113
 20
0.44106653313588
 30
0.0
 11
-1903.005330175294
 21
0.44652917962031
 31
0.0
  0
LINE
  5
112
330
36
100
AcDbEntity
  8
0
  6
Continuous
 62
     7
100
AcDbLine
 10
-89.00587848725854
 20
3.46164548249288
 30
0.0
 11
-89.00634246066829
 21
93.59697908320288
 31
0.0
  0
LINE
  5
113
330
36
100
AcDbEntity
  8
0
  6
Continuous
 62
     7
100
AcDbLine
 10
-89.00641967351248
 20
108.5969883013693
 30
0.0
 11
-89.00648538720452
 21
121.363076634562
 31
0.0
  0
LINE
  5
114
330
36
100
AcDbEntity
  8
0
  6
Continuous
 62
     7
100
AcDbLine
 10
-89.00649568222752
 20
123.3630734826407
 30
0.0
 11
-89.00650906832561
 21
125.9635680901316
 31
0.0
  0
LINE
  5
115
330
36
100
AcDbEntity
  8
0
  6
Continuous
 62
     7
100
AcDbLine
 10
-91.50668301346468
 20
153.4636299581027
 30
0.0
 11
-116.5066830135143
 21
153.4634856977655
 31
0.0
  0
LINE
  5
116
330
36
100
AcDbEntity
  8
0
  6
Continuous
 62
     7
100
AcDbLine
 10
-89.83383166485646
 20
152.8215090395442
 30
0.0
 11
-89.79898175995368
 21
152.7866591114235
 31
0.0
  0
LINE
  5
117
330
36
100
AcDbEntity
  8
0
  6
Continuous
 62
     7
100
AcDbLine
 10
-89.68108605208226
 20
152.6687633250102
 30
0.0
 11
-89.64877313275065
 21
152.6364503841507
 31
0.0
  0
LINE
  5
118
330
36
100
AcDbEntity
  8
0
  6
Continuous
 62
     7
100
AcDbLine
 10
-90.73410004640527
 20
153.3412847300506
 30
0.0
 11
-90.66214713508452
 21
153.3136596030383
 31
0.0
  0
LINE
  5
119
330
36
100
AcDbEntity
  8
0
  6
Continuous
 62
     7
100
AcDbLine
 10
-90.55915757000639
 20
153.2741184675382
 30
0.0
 11
-90.48983738233164
 21
153.247504131108
 31
0.0
  0
LINE
  5
11A
330
36
100
AcDbEntity
  8
0
  6
Continuous
 62
     7
100
AcDbLine
 10
-91.24533047896648
 20
153.4499274784675
 30
0.0
 11
-91.16134302891351
 21
153.4366271226141
 31
0.0
  0
LINE
  5
11B
330
36
100
AcDbEntity
  8
0
  6
Continuous
 62
     7
100
AcDbLine
 10
-91.06937065164448
 20
153.4220622638693
 30
0.0
 11
-90.98690764103549
 21
153.4090033201207
 31
0.0
  0
LINE
  5
11C
330
36
100
AcDbEntity
  8
0
  6
Continuous
 62
     7
100
AcDbLine
 10
-91.50668301346468
 20
153.4636299581027
 30
0.0
 11
-91.41797273686552
 21
153.4589789576413
 31
0.0
  0
LINE
  5
11D
330
36
100
AcDbEntity
  8
0
  6
Continuous
 62
     7
100
AcDbLine
 10
-91.33219216623138
 20
153.4544815590435
 30
0.0
 11
-91.24533047896648
 21
153.4499274784675
 31
0.0
  0
LINE
  5
11E
330
36
100
AcDbEntity
  8
0
  6
Continuous
 62
     7
100
AcDbLine
 10
-90.98690764103549
 20
153.4090033201207
 30
0.0
 11
-90.90802533357646
 21
153.3878734223008
 31
0.0
  0
LINE
  5
11F
330
36
100
AcDbEntity
  8
0
  6
Continuous
 62
     7
100
AcDbLine
 10
-90.81063597638558
 20
153.3617861128334
 30
0.0
 11
-90.73410004640527
 21
153.3412847300506
 31
0.0
  0
LINE
  5
120
330
36
100
AcDbEntity
  8
0
  6
Continuous
 62
     7
100
AcDbLine
 10
-90.25668312503149
 20
153.1286991218032
 30
0.0
 11
-90.20284699412969
 21
153.0937415419
 31
0.0
  0
LINE
  5
121
330
36
100
AcDbEntity
  8
0
  6
Continuous
 62
     7
100
AcDbLine
 10
-90.08801192103647
 20
153.0191753318826
 30
0.0
 11
-90.03720075062847
 21
152.9861819588494
 31
0.0
  0
LINE
  5
122
330
36
100
AcDbEntity
  8
0
  6
Continuous
 62
     7
100
AcDbLine
 10
-90.48983738233164
 20
153.247504131108
 30
0.0
 11
-90.42706478724358
 21
153.2155180167223
 31
0.0
  0
LINE
  5
123
330
36
100
AcDbEntity
  8
0
  6
Continuous
 62
     7
100
AcDbLine
 10
-90.3165653644196
 20
153.159212439853
 30
0.0
 11
-90.25668312503149
 21
153.1286991218032
 31
0.0
  0
LINE
  5
124
330
36
100
AcDbEntity
  8
0
  6
Continuous
 62
     7
100
AcDbLine
 10
-90.03720075062847
 20
152.9861819588494
 30
0.0
 11
-89.99265354836143
 21
152.9501110003933
 31
0.0
  0
LINE
  5
125
330
36
100
AcDbEntity
  8
0
  6
Continuous
 62
     7
100
AcDbLine
 10
-89.87535006196868
 20
152.8551275004393
 30
0.0
 11
-89.83383166485646
 21
152.8215090395442
 31
0.0
  0
LINE
  5
126
330
36
100
AcDbEntity
  8
0
  6
Continuous
 62
     7
100
AcDbLine
 10
-89.22287003094425
 20
151.9804749004846
 30
0.0
 11
-89.21908610122546
 21
151.9706147482826
 31
0.0
  0
LINE
  5
127
330
36
100
AcDbEntity
  8
0
  6
Continuous
 62
     7
100
AcDbLine
 10
-89.13041643398628
 20
151.739559607304
 30
0.0
 11
-89.12912011231856
 21
151.7361816563657
 31
0.0
  0
LINE
  5
128
330
36
100
AcDbEntity
  8
0
  6
Continuous
 62
     7
100
AcDbLine
 10
-89.48410034892049
 20
152.433111706251
 30
0.0
 11
-89.46686322194364
 21
152.4065543995583
 31
0.0
  0
LINE
  5
129
330
36
100
AcDbEntity
  8
0
  6
Continuous
 62
     7
100
AcDbLine
 10
-89.35551949641058
 20
152.2350067007285
 30
0.0
 11
-89.34164436734227
 21
152.2136292369237
 31
0.0
  0
LINE
  5
12A
330
36
100
AcDbEntity
  8
0
  6
Continuous
 62
     7
100
AcDbLine
 10
-89.64877313275065
 20
152.6364503841507
 30
0.0
 11
-89.62256227342868
 21
152.6040850997538
 31
0.0
  0
LINE
  5
12B
330
36
100
AcDbEntity
  8
0
  6
Continuous
 62
     7
100
AcDbLine
 10
-89.50708596687446
 20
152.4614944484195
 30
0.0
 11
-89.48410034892049
 21
152.433111706251
 31
0.0
  0
LINE
  5
12C
330
36
100
AcDbEntity
  8
0
  6
Continuous
 62
     7
100
AcDbLine
 10
-89.34164436734227
 20
152.2136292369237
 30
0.0
 11
-89.33243554654337
 21
152.1955522973437
 31
0.0
  0
LINE
  5
12D
330
36
100
AcDbEntity
  8
0
  6
Continuous
 62
     7
100
AcDbLine
 10
-89.22990152696957
 20
151.994277745777
 30
0.0
 11
-89.22287003094425
 21
151.9804749004846
 31
0.0
  0
LINE
  5
12E
330
36
100
AcDbEntity
  8
0
  6
Continuous
 62
     7
100
AcDbLine
 10
-89.06137117308253
 20
151.483404534189
 30
0.0
 11
-89.02351400025464
 21
151.2448531304774
 31
0.0
  0
LINE
  5
12F
330
36
100
AcDbEntity
  8
0
  6
Continuous
 62
     7
100
AcDbLine
 10
-89.02351400025464
 20
151.2448531304774
 30
0.0
 11
-89.02035563417348
 21
151.224951151386
 31
0.0
  0
LINE
  5
130
330
36
100
AcDbEntity
  8
0
  6
Continuous
 62
     7
100
AcDbLine
 10
-89.12912011231856
 20
151.7361816563657
 30
0.0
 11
-89.12880946874748
 21
151.7350226184703
 31
0.0
  0
LINE
  5
131
330
36
100
AcDbEntity
  8
0
  6
Continuous
 62
     7
100
AcDbLine
 10
-89.12880946874748
 20
151.7350226184703
 30
0.0
 11
-89.06137117308253
 21
151.483404534189
 31
0.0
  0
LINE
  5
132
330
36
100
AcDbEntity
  8
0
  6
Continuous
 62
     7
100
AcDbLine
 10
-89.02035563417348
 20
151.224951151386
 30
0.0
 11
-89.01961616856033
 21
151.2108170342734
 31
0.0
  0
LINE
  5
133
330
36
100
AcDbEntity
  8
0
  6
Continuous
 62
     7
100
AcDbLine
 10
-89.00697456660646
 20
150.9691859435585
 30
0.0
 11
-89.00668384622031
 21
150.9636291253475
 31
0.0
  0
LINE
  5
134
330
36
100
AcDbEntity
  8
0
  6
Continuous
 62
     7
100
AcDbLine
 10
-89.00650906832561
 20
125.9635680901316
 30
0.0
 11
-89.00668384622031
 21
150.9636291253475
 31
0.0
  0
LINE
  5
135
330
36
100
AcDbEntity
  8
0
  6
Continuous
 62
     7
100
AcDbLine
 10
-89.00650906832561
 20
125.9635680901316
 30
0.0
 11
-89.00657010247869
 21
125.962401500582
 31
0.0
  0
LINE
  5
136
330
36
100
AcDbEntity
  8
0
  6
Continuous
 62
     7
100
AcDbLine
 10
-89.00657010247869
 20
125.962401500582
 30
0.0
 11
-89.00657873149748
 21
125.9622365679582
 31
0.0
  0
LINE
  5
137
330
36
100
AcDbEntity
  8
0
  6
Continuous
 62
     7
100
AcDbLine
 10
-89.06137117341768
 20
151.4823974541109
 30
0.0
 11
-89.12912011266462
 21
151.7351440587095
 31
0.0
  0
LINE
  5
138
330
36
100
AcDbEntity
  8
0
  6
Continuous
 62
     7
100
AcDbLine
 10
-89.12912011266462
 20
151.7351440587095
 30
0.0
 11
-89.2228700312794
 21
151.9794678204065
 31
0.0
  0
LINE
  5
139
330
36
100
AcDbEntity
  8
0
  6
Continuous
 62
     7
100
AcDbLine
 10
-89.2228700312794
 20
151.9794678204065
 30
0.0
 11
-89.34176643799037
 21
152.2126221568862
 31
0.0
  0
LINE
  5
13A
330
36
100
AcDbEntity
  8
0
  6
Continuous
 62
     7
100
AcDbLine
 10
-89.34176643799037
 20
152.2126221568862
 30
0.0
 11
-89.4842224195786
 21
152.4320741086355
 31
0.0
  0
LINE
  5
13B
330
36
100
AcDbEntity
  8
0
  6
Continuous
 62
     7
100
AcDbLine
 10
-89.4842224195786
 20
152.4320741086355
 30
0.0
 11
-89.64889520339739
 21
152.6354433041133
 31
0.0
  0
LINE
  5
13C
330
36
100
AcDbEntity
  8
0
  6
Continuous
 62
     7
100
AcDbLine
 10
-89.64889520339739
 20
152.6354433041133
 30
0.0
 11
-89.83395373551457
 21
152.8204714419286
 31
0.0
  0
LINE
  5
13D
330
36
100
AcDbEntity
  8
0
  6
Continuous
 62
     7
100
AcDbLine
 10
-89.83395373551457
 20
152.8204714419286
 30
0.0
 11
-90.03732282128749
 21
152.9851443612338
 31
0.0
  0
LINE
  5
13E
330
36
100
AcDbEntity
  8
0
  6
Continuous
 62
     7
100
AcDbLine
 10
-90.03732282128749
 20
152.9851443612338
 30
0.0
 11
-90.25680519568959
 21
153.1276615241876
 31
0.0
  0
LINE
  5
13F
330
36
100
AcDbEntity
  8
0
  6
Continuous
 62
     7
100
AcDbLine
 10
-90.25680519568959
 20
153.1276615241876
 30
0.0
 11
-90.4899594529893
 21
153.2464665334924
 31
0.0
  0
LINE
  5
140
330
36
100
AcDbEntity
  8
0
  6
Continuous
 62
     7
100
AcDbLine
 10
-90.4899594529893
 20
153.2464665334924
 30
0.0
 11
-90.73422211706338
 21
153.340247132435
 31
0.0
  0
LINE
  5
141
330
36
100
AcDbEntity
  8
0
  6
Continuous
 62
     7
100
AcDbLine
 10
-90.73422211706338
 20
153.340247132435
 30
0.0
 11
-90.9870297116945
 21
153.4079657225051
 31
0.0
  0
LINE
  5
142
330
36
100
AcDbEntity
  8
0
  6
Continuous
 62
     7
100
AcDbLine
 10
-90.9870297116945
 20
153.4079657225051
 30
0.0
 11
-91.24545254961458
 21
153.4489203984301
 31
0.0
  0
LINE
  5
143
330
36
100
AcDbEntity
  8
0
  6
Continuous
 62
     7
100
AcDbLine
 10
-89.02047770482159
 20
151.2239440713486
 30
0.0
 11
-89.02219148291351
 21
151.2347754280568
 31
0.0
  0
LINE
  5
144
330
36
100
AcDbEntity
  8
0
  6
Continuous
 62
     7
100
AcDbLine
 10
-89.02219148291351
 20
151.2347754280568
 30
0.0
 11
-89.06137117341768
 21
151.4823974541109
 31
0.0
  0
LINE
  5
145
330
36
100
AcDbEntity
  8
0
  6
Continuous
 62
     7
100
AcDbLine
 10
-89.00680591686842
 20
150.9626220453101
 30
0.0
 11
-89.02013300613726
 21
151.2173555140407
 31
0.0
  0
LINE
  5
146
330
36
100
AcDbEntity
  8
0
  6
Continuous
 62
     7
100
AcDbLine
 10
-89.02013300613726
 20
151.2173555140407
 30
0.0
 11
-89.02047770482159
 21
151.2239440713486
 31
0.0
  0
LINE
  5
147
330
36
100
AcDbEntity
  8
0
  6
Continuous
 62
     7
100
AcDbLine
 10
-91.24545254961458
 20
153.4489203984301
 30
0.0
 11
-91.50680508412233
 21
153.4625923604871
 31
0.0
  0
LINE
  5
148
330
36
100
AcDbEntity
  8
0
  6
Continuous
 62
     7
100
AcDbLine
 10
-116.5068050841624
 20
153.462478617728
 30
0.0
 11
-91.50680508412233
 21
153.4625923604871
 31
0.0
  0
LINE
  5
149
330
36
100
AcDbEntity
  8
0
  6
Continuous
 62
     7
100
AcDbLine
 10
-116.5068050841624
 20
153.462478617728
 30
0.0
 11
-116.7681576277896
 21
153.4487763122069
 31
0.0
  0
LINE
  5
14A
330
36
100
AcDbEntity
  8
0
  6
Continuous
 62
     7
100
AcDbLine
 10
-118.1796568605637
 20
152.8203282960521
 30
0.0
 11
-118.2246478989086
 21
152.7753372876804
 31
0.0
  0
LINE
  5
14B
330
36
100
AcDbEntity
  8
0
  6
Continuous
 62
     7
100
AcDbLine
 10
-118.2246478989086
 20
152.7753372876804
 30
0.0
 11
-118.3215325569263
 21
152.6784526942073
 31
0.0
  0
LINE
  5
14C
330
36
100
AcDbEntity
  8
0
  6
Continuous
 62
     7
100
AcDbLine
 10
-118.3215325569263
 20
152.6784526942073
 30
0.0
 11
-118.3647155159574
 21
152.6352697639456
 31
0.0
  0
LINE
  5
14D
330
36
100
AcDbEntity
  8
0
  6
Continuous
 62
     7
100
AcDbLine
 10
-117.2793881327384
 20
153.3401033867957
 30
0.0
 11
-117.3542166923603
 21
153.3113742595086
 31
0.0
  0
LINE
  5
14E
330
36
100
AcDbEntity
  8
0
  6
Continuous
 62
     7
100
AcDbLine
 10
-117.3542166923603
 20
153.3113742595086
 30
0.0
 11
-117.4501824486006
 21
153.2745298722833
 31
0.0
  0
LINE
  5
14F
330
36
100
AcDbEntity
  8
0
  6
Continuous
 62
     7
100
AcDbLine
 10
-117.4501824486006
 20
153.2745298722833
 30
0.0
 11
-117.5236508592893
 21
153.246322950582
 31
0.0
  0
LINE
  5
150
330
36
100
AcDbEntity
  8
0
  6
Continuous
 62
     7
100
AcDbLine
 10
-116.7681576277896
 20
153.4487763122069
 30
0.0
 11
-116.8516578063764
 21
153.4355433176132
 31
0.0
  0
LINE
  5
151
330
36
100
AcDbEntity
  8
0
  6
Continuous
 62
     7
100
AcDbLine
 10
-116.8516578063764
 20
153.4355433176132
 30
0.0
 11
-116.9440716337495
 21
153.4208977000985
 31
0.0
  0
LINE
  5
152
330
36
100
AcDbEntity
  8
0
  6
Continuous
 62
     7
100
AcDbLine
 10
-116.9440716337495
 20
153.4208977000985
 30
0.0
 11
-117.0265804929936
 21
153.4078218084444
 31
0.0
  0
LINE
  5
153
330
36
100
AcDbEntity
  8
0
  6
Continuous
 62
     7
100
AcDbLine
 10
-117.0265804929936
 20
153.4078218084444
 30
0.0
 11
-117.1060949385055
 21
153.3865226390293
 31
0.0
  0
LINE
  5
154
330
36
100
AcDbEntity
  8
0
  6
Continuous
 62
     7
100
AcDbLine
 10
-117.1060949385055
 20
153.3865226390293
 30
0.0
 11
-117.2008202608595
 21
153.3611490018779
 31
0.0
  0
LINE
  5
155
330
36
100
AcDbEntity
  8
0
  6
Continuous
 62
     7
100
AcDbLine
 10
-117.2008202608595
 20
153.3611490018779
 30
0.0
 11
-117.2793881327384
 21
153.3401033867957
 31
0.0
  0
LINE
  5
156
330
36
100
AcDbEntity
  8
0
  6
Continuous
 62
     7
100
AcDbLine
 10
-117.7568051957383
 20
153.1275180966056
 30
0.0
 11
-117.8176905194664
 21
153.087983300381
 31
0.0
  0
LINE
  5
157
330
36
100
AcDbEntity
  8
0
  6
Continuous
 62
     7
100
AcDbLine
 10
-117.8176905194664
 20
153.087983300381
 30
0.0
 11
-117.9173462543904
 21
153.0232736309298
 31
0.0
  0
LINE
  5
158
330
36
100
AcDbEntity
  8
0
  6
Continuous
 62
     7
100
AcDbLine
 10
-117.9173462543904
 20
153.0232736309298
 30
0.0
 11
-117.9762876650866
 21
152.9850010798719
 31
0.0
  0
LINE
  5
159
330
36
100
AcDbEntity
  8
0
  6
Continuous
 62
     7
100
AcDbLine
 10
-117.5236508592893
 20
153.246322950582
 30
0.0
 11
-117.5920695958157
 21
153.2114598717903
 31
0.0
  0
LINE
  5
15A
330
36
100
AcDbEntity
  8
0
  6
Continuous
 62
     7
100
AcDbLine
 10
-117.5920695958157
 20
153.2114598717903
 30
0.0
 11
-117.6901037215603
 21
153.1615061365468
 31
0.0
  0
LINE
  5
15B
330
36
100
AcDbEntity
  8
0
  6
Continuous
 62
     7
100
AcDbLine
 10
-117.6901037215603
 20
153.1615061365468
 30
0.0
 11
-117.7568051957383
 21
153.1275180966056
 31
0.0
  0
LINE
  5
15C
330
36
100
AcDbEntity
  8
0
  6
Continuous
 62
     7
100
AcDbLine
 10
-117.9762876650866
 20
152.9850010798719
 30
0.0
 11
-118.0294225927046
 21
152.9419764889133
 31
0.0
  0
LINE
  5
15D
330
36
100
AcDbEntity
  8
0
  6
Continuous
 62
     7
100
AcDbLine
 10
-118.0294225927046
 20
152.9419764889133
 30
0.0
 11
-118.1282534823145
 21
152.8619508110756
 31
0.0
  0
LINE
  5
15E
330
36
100
AcDbEntity
  8
0
  6
Continuous
 62
     7
100
AcDbLine
 10
-118.1282534823145
 20
152.8619508110756
 30
0.0
 11
-118.1796568605637
 21
152.8203282960521
 31
0.0
  0
LINE
  5
15F
330
36
100
AcDbEntity
  8
0
  6
Continuous
 62
     7
100
AcDbLine
 10
-118.7906190547765
 20
151.9792945640181
 30
0.0
 11
-118.8020107555963
 21
151.9496101648464
 31
0.0
  0
LINE
  5
160
330
36
100
AcDbEntity
  8
0
  6
Continuous
 62
     7
100
AcDbLine
 10
-118.8020107555963
 20
151.9496101648464
 30
0.0
 11
-118.8744482287157
 21
151.7608532003706
 31
0.0
  0
LINE
  5
161
330
36
100
AcDbEntity
  8
0
  6
Continuous
 62
     7
100
AcDbLine
 10
-118.8744482287157
 20
151.7608532003706
 30
0.0
 11
-118.8843691361517
 21
151.7350013823557
 31
0.0
  0
LINE
  5
162
330
36
100
AcDbEntity
  8
0
  6
Continuous
 62
     7
100
AcDbLine
 10
-118.5293884352523
 20
152.4319311957516
 30
0.0
 11
-118.5565840357413
 21
152.3900308923989
 31
0.0
  0
LINE
  5
163
330
36
100
AcDbEntity
  8
0
  6
Continuous
 62
     7
100
AcDbLine
 10
-118.5565840357413
 20
152.3900308923989
 30
0.0
 11
-118.6475466511874
 21
152.2498846513731
 31
0.0
  0
LINE
  5
164
330
36
100
AcDbEntity
  8
0
  6
Continuous
 62
     7
100
AcDbLine
 10
-118.6475466511874
 20
152.2498846513731
 30
0.0
 11
-118.6718445630495
 21
152.212448821329
 31
0.0
  0
LINE
  5
165
330
36
100
AcDbEntity
  8
0
  6
Continuous
 62
     7
100
AcDbLine
 10
-118.3647155159574
 20
152.6352697639456
 30
0.0
 11
-118.4011050977333
 21
152.5903358094904
 31
0.0
  0
LINE
  5
166
330
36
100
AcDbEntity
  8
0
  6
Continuous
 62
     7
100
AcDbLine
 10
-118.4011050977333
 20
152.5903358094904
 30
0.0
 11
-118.4954722379325
 21
152.4738110083583
 31
0.0
  0
LINE
  5
167
330
36
100
AcDbEntity
  8
0
  6
Continuous
 62
     7
100
AcDbLine
 10
-118.4954722379325
 20
152.4738110083583
 30
0.0
 11
-118.5293884352523
 21
152.4319311957516
 31
0.0
  0
LINE
  5
168
330
36
100
AcDbEntity
  8
0
  6
Continuous
 62
     7
100
AcDbLine
 10
-118.6718445630495
 20
152.212448821329
 30
0.0
 11
-118.6900233200026
 21
152.1767639321375
 31
0.0
  0
LINE
  5
169
330
36
100
AcDbEntity
  8
0
  6
Continuous
 62
     7
100
AcDbLine
 10
-118.6900233200026
 20
152.1767639321375
 30
0.0
 11
-118.7742172994294
 21
152.011491200105
 31
0.0
  0
LINE
  5
16A
330
36
100
AcDbEntity
  8
0
  6
Continuous
 62
     7
100
AcDbLine
 10
-118.7742172994294
 20
152.011491200105
 30
0.0
 11
-118.7906190547765
 21
151.9792945640181
 31
0.0
  0
LINE
  5
16B
330
36
100
AcDbEntity
  8
0
  6
Continuous
 62
     7
100
AcDbLine
 10
-118.9521182437893
 20
151.4822243053137
 30
0.0
 11
-118.9545361313976
 21
151.4669884079236
 31
0.0
  0
LINE
  5
16C
330
36
100
AcDbEntity
  8
0
  6
Continuous
 62
     7
100
AcDbLine
 10
-118.9545361313976
 20
151.4669884079236
 30
0.0
 11
-118.9910738177564
 21
151.2367525448936
 31
0.0
  0
LINE
  5
16D
330
36
100
AcDbEntity
  8
0
  6
Continuous
 62
     7
100
AcDbLine
 10
-118.9910738177564
 20
151.2367525448936
 30
0.0
 11
-118.9931339548803
 21
151.2237709498356
 31
0.0
  0
LINE
  5
16E
330
36
100
AcDbEntity
  8
0
  6
Continuous
 62
     7
100
AcDbLine
 10
-118.8843691361517
 20
151.7350013823557
 30
0.0
 11
-118.8904626849985
 21
151.7122658878216
 31
0.0
  0
LINE
  5
16F
330
36
100
AcDbEntity
  8
0
  6
Continuous
 62
     7
100
AcDbLine
 10
-118.8904626849985
 20
151.7122658878216
 30
0.0
 11
-118.9471235306755
 21
151.5008599600908
 31
0.0
  0
LINE
  5
170
330
36
100
AcDbEntity
  8
0
  6
Continuous
 62
     7
100
AcDbLine
 10
-118.9471235306755
 20
151.5008599600908
 30
0.0
 11
-118.9521182437893
 21
151.4822243053137
 31
0.0
  0
LINE
  5
171
330
36
100
AcDbEntity
  8
0
  6
Continuous
 62
     7
100
AcDbLine
 10
-118.9931339548803
 20
151.2237709498356
 30
0.0
 11
-118.9935995455285
 21
151.2148717818306
 31
0.0
  0
LINE
  5
172
330
36
100
AcDbEntity
  8
0
  6
Continuous
 62
     7
100
AcDbLine
 10
-118.9935995455285
 20
151.2148717818306
 30
0.0
 11
-119.0065693396964
 21
150.9669708032045
 31
0.0
  0
LINE
  5
173
330
36
100
AcDbEntity
  8
0
  6
Continuous
 62
     7
100
AcDbLine
 10
-119.0065693396964
 20
150.9669708032045
 30
0.0
 11
-119.0068059169275
 21
150.9624489329053
 31
0.0
  0
LINE
  5
174
330
36
100
AcDbEntity
  8
0
  6
Continuous
 62
     7
100
AcDbLine
 10
-89.00593952280042
 20
3.46048581454448
 30
0.0
 11
-89.00680591686842
 21
150.9626220453101
 31
0.0
  0
LINE
  5
175
330
36
100
AcDbEntity
  8
0
  6
Continuous
 62
     7
100
AcDbLine
 10
-117.0256538782883
 20
3.46043411281488
 30
0.0
 11
-119.0058784876633
 21
3.46043477243188
 31
0.0
  0
LINE
  5
176
330
36
100
AcDbEntity
  8
0
  6
Continuous
 62
     7
100
AcDbLine
 10
-117.0058784924586
 20
3.46043410622769
 30
0.0
 11
-117.0256538782883
 21
3.46043411281488
 31
0.0
  0
LINE
  5
177
330
36
100
AcDbEntity
  8
0
  6
Continuous
 62
     7
100
AcDbLine
 10
-116.5058784876633
 20
3.46043393967659
 30
0.0
 11
-117.0058784924586
 21
3.46043410622769
 31
0.0
  0
LINE
  5
178
330
36
100
AcDbEntity
  8
0
  6
Continuous
 62
     7
100
AcDbLine
 10
-119.0059395228095
 20
3.46046529003041
 30
0.0
 11
-116.5059395228095
 21
3.46046445727512
 31
0.0
  0
LINE
  5
179
330
36
100
AcDbEntity
  8
0
  6
Continuous
 62
     7
100
AcDbLine
 10
-89.00587848766554
 20
3.46042477936788
 30
0.0
 11
-90.98610309703963
 21
3.460425438985
 31
0.0
  0
LINE
  5
17A
330
36
100
AcDbEntity
  8
0
  6
Continuous
 62
     7
100
AcDbLine
 10
-90.98610309703963
 20
3.460425438985
 30
0.0
 11
-91.00587848672058
 21
3.46042544557218
 31
0.0
  0
LINE
  5
17B
330
36
100
AcDbEntity
  8
0
  6
Continuous
 62
     7
100
AcDbLine
 10
-91.00593952280042
 20
3.46048648074878
 30
0.0
 11
-91.00587848672058
 21
3.46042544557218
 31
0.0
  0
LINE
  5
17C
330
36
100
AcDbEntity
  8
0
  6
Continuous
 62
     7
100
AcDbLine
 10
-91.00587848672058
 20
3.46042544557218
 30
0.0
 11
-91.50587848766463
 21
3.46042561212329
 31
0.0
  0
LINE
  5
17D
330
36
100
AcDbEntity
  8
0
  6
Continuous
 62
     7
100
AcDbLine
 10
-91.50593952280042
 20
3.46048664729983
 30
0.0
 11
-89.00593952280042
 21
3.46048581454448
 31
0.0
  0
LINE
  5
17E
330
36
100
AcDbEntity
  8
0
  6
Continuous
 62
     7
100
AcDbLine
 10
-91.50593952280042
 20
3.46048664729983
 30
0.0
 11
-116.5059395228095
 21
3.46046445727512
 31
0.0
  0
LINE
  5
17F
330
36
100
AcDbEntity
  8
0
  6
Continuous
 62
     7
100
AcDbLine
 10
-89.00587848766554
 20
3.46042477936788
 30
0.0
 11
-89.00593952280042
 21
3.46048581454448
 31
0.0
  0
LINE
  5
180
330
36
100
AcDbEntity
  8
0
  6
Continuous
 62
     7
100
AcDbLine
 10
-116.5954866592074
 20
153.4588298614228
 30
0.0
 11
-116.6368710037064
 21
153.4577484364439
 31
0.0
  0
LINE
  5
181
330
36
100
AcDbEntity
  8
0
  6
Continuous
 62
     7
100
AcDbLine
 10
-118.3645934463766
 20
152.6330724982799
 30
0.0
 11
-118.3215325538704
 21
152.6784526972014
 31
0.0
  0
LINE
  5
182
330
36
100
AcDbEntity
  8
0
  6
Continuous
 62
     7
100
AcDbLine
 10
-118.3215325538704
 20
152.6784526972014
 30
0.0
 11
-118.2745055241276
 21
152.7280126538183
 31
0.0
  0
LINE
  5
183
330
36
100
AcDbEntity
  8
0
  6
Continuous
 62
     7
100
AcDbLine
 10
-118.8843691368834
 20
151.7328041167307
 30
0.0
 11
-118.8744482273605
 21
151.7608532039326
 31
0.0
  0
LINE
  5
184
330
36
100
AcDbEntity
  8
0
  6
Continuous
 62
     7
100
AcDbLine
 10
-118.8744482273605
 20
151.7608532039326
 30
0.0
 11
-118.8407289590655
 21
151.8561866705535
 31
0.0
  0
LINE
  5
185
330
36
100
AcDbEntity
  8
0
  6
Continuous
 62
     7
100
AcDbLine
 10
-118.9930729204566
 20
151.2215736841902
 30
0.0
 11
-118.9910738189246
 21
151.2367525374785
 31
0.0
  0
LINE
  5
186
330
36
100
AcDbEntity
  8
0
  6
Continuous
 62
     7
100
AcDbLine
 10
-118.9910738189246
 20
151.2367525374785
 30
0.0
 11
-118.9759830334824
 21
151.3513344206851
 31
0.0
  0
LINE
  5
187
330
36
100
AcDbEntity
  8
0
  6
Continuous
 62
     7
100
AcDbLine
 10
-119.0067448825034
 20
150.96025166726
 30
0.0
 11
-119.0065693393117
 21
150.9669708106792
 31
0.0
  0
LINE
  5
188
330
36
100
AcDbEntity
  8
0
  6
Continuous
 62
     7
100
AcDbLine
 10
-119.0065693393117
 20
150.9669708106792
 30
0.0
 11
-119.0033268701745
 21
151.0910805235433
 31
0.0
  0
LINE
  5
189
330
36
100
AcDbEntity
  8
0
  6
Continuous
 62
     7
100
AcDbLine
 10
-119.0033268701745
 20
151.0910805235433
 30
0.0
 11
-118.9935995457036
 21
151.2148717795728
 31
0.0
  0
LINE
  5
18A
330
36
100
AcDbEntity
  8
0
  6
Continuous
 62
     7
100
AcDbLine
 10
-118.9935995457036
 20
151.2148717795728
 30
0.0
 11
-118.9930729204566
 21
151.2215736841902
 31
0.0
  0
LINE
  5
18B
330
36
100
AcDbEntity
  8
0
  6
Continuous
 62
     7
100
AcDbLine
 10
-118.9521182445205
 20
151.4800270396887
 30
0.0
 11
-118.9471235318765
 21
151.5008599555206
 31
0.0
  0
LINE
  5
18C
330
36
100
AcDbEntity
  8
0
  6
Continuous
 62
     7
100
AcDbLine
 10
-118.9471235318765
 20
151.5008599555206
 30
0.0
 11
-118.9216006239963
 21
151.6073158478826
 31
0.0
  0
LINE
  5
18D
330
36
100
AcDbEntity
  8
0
  6
Continuous
 62
     7
100
AcDbLine
 10
-118.9759830334824
 20
151.3513344206851
 30
0.0
 11
-118.9545361317323
 21
151.4669884061533
 31
0.0
  0
LINE
  5
18E
330
36
100
AcDbEntity
  8
0
  6
Continuous
 62
     7
100
AcDbLine
 10
-118.9545361317323
 20
151.4669884061533
 30
0.0
 11
-118.9521182445205
 21
151.4800270396887
 31
0.0
  0
LINE
  5
18F
330
36
100
AcDbEntity
  8
0
  6
Continuous
 62
     7
100
AcDbLine
 10
-118.9216006239963
 20
151.6073158478826
 30
0.0
 11
-118.8904626857943
 21
151.7122658851616
 31
0.0
  0
LINE
  5
190
330
36
100
AcDbEntity
  8
0
  6
Continuous
 62
     7
100
AcDbLine
 10
-118.8904626857943
 20
151.7122658851616
 30
0.0
 11
-118.8843691368834
 21
151.7328041167307
 31
0.0
  0
LINE
  5
191
330
36
100
AcDbEntity
  8
0
  6
Continuous
 62
     7
100
AcDbLine
 10
-118.6718445637825
 20
152.210251555704
 30
0.0
 11
-118.6475466477446
 21
152.24988465674
 31
0.0
  0
LINE
  5
192
330
36
100
AcDbEntity
  8
0
  6
Continuous
 62
     7
100
AcDbLine
 10
-118.6475466477446
 20
152.24988465674
 30
0.0
 11
-118.6034241164507
 21
152.3218543161162
 31
0.0
  0
LINE
  5
193
330
36
100
AcDbEntity
  8
0
  6
Continuous
 62
     7
100
AcDbLine
 10
-118.7906190555086
 20
151.9770972983931
 30
0.0
 11
-118.7742173018373
 21
152.0114911954811
 31
0.0
  0
LINE
  5
194
330
36
100
AcDbEntity
  8
0
  6
Continuous
 62
     7
100
AcDbLine
 10
-118.7742173018373
 20
152.0114911954811
 30
0.0
 11
-118.7342835669397
 21
152.0952308245494
 31
0.0
  0
LINE
  5
195
330
36
100
AcDbEntity
  8
0
  6
Continuous
 62
     7
100
AcDbLine
 10
-118.8407289590655
 20
151.8561866705535
 30
0.0
 11
-118.8020107563866
 21
151.9496101629664
 31
0.0
  0
LINE
  5
196
330
36
100
AcDbEntity
  8
0
  6
Continuous
 62
     7
100
AcDbLine
 10
-118.8020107563866
 20
151.9496101629664
 30
0.0
 11
-118.7906190555086
 21
151.9770972983931
 31
0.0
  0
LINE
  5
197
330
36
100
AcDbEntity
  8
0
  6
Continuous
 62
     7
100
AcDbLine
 10
-118.7342835669397
 20
152.0952308245494
 30
0.0
 11
-118.6900233206407
 21
152.1767639309879
 31
0.0
  0
LINE
  5
198
330
36
100
AcDbEntity
  8
0
  6
Continuous
 62
     7
100
AcDbLine
 10
-118.6900233206407
 20
152.1767639309879
 30
0.0
 11
-118.6718445637825
 21
152.210251555704
 31
0.0
  0
LINE
  5
199
330
36
100
AcDbEntity
  8
0
  6
Continuous
 62
     7
100
AcDbLine
 10
-118.5293274008386
 20
152.4297034125282
 30
0.0
 11
-118.4954722355064
 21
152.4738110113678
 31
0.0
  0
LINE
  5
19A
330
36
100
AcDbEntity
  8
0
  6
Continuous
 62
     7
100
AcDbLine
 10
-118.4954722355064
 20
152.4738110113678
 30
0.0
 11
-118.4496154521826
 21
152.5335547043353
 31
0.0
  0
LINE
  5
19B
330
36
100
AcDbEntity
  8
0
  6
Continuous
 62
     7
100
AcDbLine
 10
-118.6034241164507
 20
152.3218543161162
 30
0.0
 11
-118.5565840370873
 21
152.3900308903871
 31
0.0
  0
LINE
  5
19C
330
36
100
AcDbEntity
  8
0
  6
Continuous
 62
     7
100
AcDbLine
 10
-118.5565840370873
 20
152.3900308903871
 30
0.0
 11
-118.5293274008386
 21
152.4297034125282
 31
0.0
  0
LINE
  5
19D
330
36
100
AcDbEntity
  8
0
  6
Continuous
 62
     7
100
AcDbLine
 10
-118.4496154521826
 20
152.5335547043353
 30
0.0
 11
-118.4011050956715
 21
152.5903358119761
 31
0.0
  0
LINE
  5
19E
330
36
100
AcDbEntity
  8
0
  6
Continuous
 62
     7
100
AcDbLine
 10
-118.4011050956715
 20
152.5903358119761
 30
0.0
 11
-118.3645934463766
 21
152.6330724982799
 31
0.0
  0
LINE
  5
19F
330
36
100
AcDbEntity
  8
0
  6
Continuous
 62
     7
100
AcDbLine
 10
-117.5235898248643
 20
153.2441256849368
 30
0.0
 11
-117.4501824532636
 21
153.2745298705243
 31
0.0
  0
LINE
  5
1A0
330
36
100
AcDbEntity
  8
0
  6
Continuous
 62
     7
100
AcDbLine
 10
-117.4501824532636
 20
153.2745298705243
 30
0.0
 11
-117.4026791636516
 21
153.2942049903643
 31
0.0
  0
LINE
  5
1A1
330
36
100
AcDbEntity
  8
0
  6
Continuous
 62
     7
100
AcDbLine
 10
-117.9762266306616
 20
152.9828038142266
 30
0.0
 11
-117.9173462550084
 21
153.0232736304132
 31
0.0
  0
LINE
  5
1A2
330
36
100
AcDbEntity
  8
0
  6
Continuous
 62
     7
100
AcDbLine
 10
-117.9173462550084
 20
153.0232736304132
 30
0.0
 11
-117.8683774848755
 21
153.0569309755675
 31
0.0
  0
LINE
  5
1A3
330
36
100
AcDbEntity
  8
0
  6
Continuous
 62
     7
100
AcDbLine
 10
-118.1795958261496
 20
152.8181005128287
 30
0.0
 11
-118.1282534891616
 21
152.8619508054003
 31
0.0
  0
LINE
  5
1A4
330
36
100
AcDbEntity
  8
0
  6
Continuous
 62
     7
100
AcDbLine
 10
-118.1282534891616
 20
152.8619508054003
 30
0.0
 11
-118.0800474579855
 21
152.9031224523252
 31
0.0
  0
LINE
  5
1A5
330
36
100
AcDbEntity
  8
0
  6
Continuous
 62
     7
100
AcDbLine
 10
-118.2745055241276
 20
152.7280126538183
 30
0.0
 11
-118.2246478959696
 21
152.775337290518
 31
0.0
  0
LINE
  5
1A6
330
36
100
AcDbEntity
  8
0
  6
Continuous
 62
     7
100
AcDbLine
 10
-118.2246478959696
 20
152.775337290518
 30
0.0
 11
-118.1795958261496
 21
152.8181005128287
 31
0.0
  0
LINE
  5
1A7
330
36
100
AcDbEntity
  8
0
  6
Continuous
 62
     7
100
AcDbLine
 10
-118.0800474579855
 20
152.9031224523252
 30
0.0
 11
-118.0294225941016
 21
152.9419764877273
 31
0.0
  0
LINE
  5
1A8
330
36
100
AcDbEntity
  8
0
  6
Continuous
 62
     7
100
AcDbLine
 10
-118.0294225941016
 20
152.9419764877273
 30
0.0
 11
-117.9762266306616
 21
152.9828038142266
 31
0.0
  0
LINE
  5
1A9
330
36
100
AcDbEntity
  8
0
  6
Continuous
 62
     7
100
AcDbLine
 10
-117.7567441613146
 20
153.1253208309603
 30
0.0
 11
-117.6901037215753
 21
153.161506136534
 31
0.0
  0
LINE
  5
1AA
330
36
100
AcDbEntity
  8
0
  6
Continuous
 62
     7
100
AcDbLine
 10
-117.6901037215753
 20
153.161506136534
 30
0.0
 11
-117.6417539061404
 21
153.1877597575005
 31
0.0
  0
LINE
  5
1AB
330
36
100
AcDbEntity
  8
0
  6
Continuous
 62
     7
100
AcDbLine
 10
-117.8683774848755
 20
153.0569309755675
 30
0.0
 11
-117.8176905168707
 21
153.0879833020735
 31
0.0
  0
LINE
  5
1AC
330
36
100
AcDbEntity
  8
0
  6
Continuous
 62
     7
100
AcDbLine
 10
-117.8176905168707
 20
153.0879833020735
 30
0.0
 11
-117.7567441613146
 21
153.1253208309603
 31
0.0
  0
LINE
  5
1AD
330
36
100
AcDbEntity
  8
0
  6
Continuous
 62
     7
100
AcDbLine
 10
-117.6417539061404
 20
153.1877597575005
 30
0.0
 11
-117.5920695958303
 21
153.2114598717775
 31
0.0
  0
LINE
  5
1AE
330
36
100
AcDbEntity
  8
0
  6
Continuous
 62
     7
100
AcDbLine
 10
-117.5920695958303
 20
153.2114598717775
 30
0.0
 11
-117.5235898248643
 21
153.2441256849368
 31
0.0
  0
LINE
  5
1AF
330
36
100
AcDbEntity
  8
0
  6
Continuous
 62
     7
100
AcDbLine
 10
-117.0265194585695
 20
153.405624542799
 30
0.0
 11
-116.9440716389013
 21
153.4208976992035
 31
0.0
  0
LINE
  5
1B0
330
36
100
AcDbEntity
  8
0
  6
Continuous
 62
     7
100
AcDbLine
 10
-116.9440716389013
 20
153.4208976992035
 30
0.0
 11
-116.8978573412555
 21
153.4294587284571
 31
0.0
  0
LINE
  5
1B1
330
36
100
AcDbEntity
  8
0
  6
Continuous
 62
     7
100
AcDbLine
 10
-117.2793270983134
 20
153.3379061211505
 30
0.0
 11
-117.2008202586403
 21
153.36114900246
 31
0.0
  0
LINE
  5
1B2
330
36
100
AcDbEntity
  8
0
  6
Continuous
 62
     7
100
AcDbLine
 10
-117.2008202586403
 20
153.36114900246
 30
0.0
 11
-117.1537777695266
 21
153.3750764894859
 31
0.0
  0
LINE
  5
1B3
330
36
100
AcDbEntity
  8
0
  6
Continuous
 62
     7
100
AcDbLine
 10
-117.4026791636516
 20
153.2942049903643
 30
0.0
 11
-117.3542166970246
 21
153.3113742577497
 31
0.0
  0
LINE
  5
1B4
330
36
100
AcDbEntity
  8
0
  6
Continuous
 62
     7
100
AcDbLine
 10
-117.3542166970246
 20
153.3113742577497
 30
0.0
 11
-117.2793270983134
 21
153.3379061211505
 31
0.0
  0
LINE
  5
1B5
330
36
100
AcDbEntity
  8
0
  6
Continuous
 62
     7
100
AcDbLine
 10
-117.1537777695266
 20
153.3750764894859
 30
0.0
 11
-117.1060949362864
 21
153.3865226396114
 31
0.0
  0
LINE
  5
1B6
330
36
100
AcDbEntity
  8
0
  6
Continuous
 62
     7
100
AcDbLine
 10
-117.1060949362864
 20
153.3865226396114
 30
0.0
 11
-117.0265194585695
 21
153.405624542799
 31
0.0
  0
LINE
  5
1B7
330
36
100
AcDbEntity
  8
0
  6
Continuous
 62
     7
100
AcDbLine
 10
-116.7680965933746
 20
153.4465485289835
 30
0.0
 11
-116.6835358461153
 21
153.4532129000393
 31
0.0
  0
LINE
  5
1B8
330
36
100
AcDbEntity
  8
0
  6
Continuous
 62
     7
100
AcDbLine
 10
-116.6835358461153
 20
153.4532129000393
 30
0.0
 11
-116.6376034258865
 21
153.4568329093441
 31
0.0
  0
LINE
  5
1B9
330
36
100
AcDbEntity
  8
0
  6
Continuous
 62
     7
100
AcDbLine
 10
-116.8978573412555
 20
153.4294587284571
 30
0.0
 11
-116.8516578078575
 21
153.4355433173877
 31
0.0
  0
LINE
  5
1BA
330
36
100
AcDbEntity
  8
0
  6
Continuous
 62
     7
100
AcDbLine
 10
-116.8516578078575
 20
153.4355433173877
 30
0.0
 11
-116.7680965933746
 21
153.4465485289835
 31
0.0
  0
LINE
  5
1BB
330
36
100
AcDbEntity
  8
0
  6
Continuous
 62
     7
100
AcDbLine
 10
-116.6376034258865
 20
153.4568329093441
 30
0.0
 11
-116.5915421035093
 21
153.4580359882316
 31
0.0
  0
LINE
  5
1BC
330
36
100
AcDbEntity
  8
0
  6
Continuous
 62
     7
100
AcDbLine
 10
-116.5915421035093
 20
153.4580359882316
 30
0.0
 11
-116.5067440497483
 21
153.4602508345045
 31
0.0
  0
LINE
  5
1BD
330
36
100
AcDbEntity
  8
0
  6
Continuous
 62
     7
100
AcDbLine
 10
-89.00657010380655
 20
125.962591527652
 30
0.0
 11
-89.00674488245431
 21
150.9603942620866
 31
0.0
  0
LINE
  5
1BE
330
36
100
AcDbEntity
  8
0
  6
Continuous
 62
     7
100
AcDbLine
 10
-116.5067440497483
 20
153.4602508345045
 30
0.0
 11
-91.50674404969868
 21
153.4603950948418
 31
0.0
  0
LINE
  5
1BF
330
36
100
AcDbEntity
  8
0
  6
Continuous
 62
     7
100
AcDbLine
 10
-89.00657010380655
 20
125.962591527652
 30
0.0
 11
-89.00657010381656
 21
125.9625610100738
 31
0.0
  0
LINE
  5
1C0
330
36
100
AcDbEntity
  8
0
  6
Continuous
 62
     7
100
AcDbLine
 10
-89.00657010381656
 20
125.9625610100738
 30
0.0
 11
-89.00665905253527
 21
125.9592161120216
 31
0.0
  0
LINE
  5
1C1
330
36
100
AcDbEntity
  8
0
  6
Continuous
 62
     7
100
AcDbLine
 10
-89.03683508390941
 20
151.3523925631254
 30
0.0
 11
-89.06069978713549
 21
151.4810851980278
 31
0.0
  0
LINE
  5
1C2
330
36
100
AcDbEntity
  8
0
  6
Continuous
 62
     7
100
AcDbLine
 10
-89.06069978713549
 20
151.4810851980278
 30
0.0
 11
-89.09121732287031
 21
151.6083435089745
 31
0.0
  0
LINE
  5
1C3
330
36
100
AcDbEntity
  8
0
  6
Continuous
 62
     7
100
AcDbLine
 10
-89.09121732287031
 20
151.6083435089745
 30
0.0
 11
-89.12838769122664
 21
151.7338318026061
 31
0.0
  0
LINE
  5
1C4
330
36
100
AcDbEntity
  8
0
  6
Continuous
 62
     7
100
AcDbLine
 10
-89.73831167611661
 20
152.7290712635856
 30
0.0
 11
-89.79898176085544
 21
152.7866591123403
 31
0.0
  0
LINE
  5
1C5
330
36
100
AcDbEntity
  8
0
  6
Continuous
 62
     7
100
AcDbLine
 10
-89.17208882200248
 20
151.8572143855224
 30
0.0
 11
-89.21908610253831
 21
151.9706147514475
 31
0.0
  0
LINE
  5
1C6
330
36
100
AcDbEntity
  8
0
  6
Continuous
 62
     7
100
AcDbLine
 10
-89.13041643611859
 20
151.7395596128565
 30
0.0
 11
-89.17208882200248
 21
151.8572143855224
 31
0.0
  0
LINE
  5
1C7
330
36
100
AcDbEntity
  8
0
  6
Continuous
 62
     7
100
AcDbLine
 10
-89.40939335438725
 20
152.3228821891785
 30
0.0
 11
-89.46686322037431
 21
152.4065543972791
 31
0.0
  0
LINE
  5
1C8
330
36
100
AcDbEntity
  8
0
  6
Continuous
 62
     7
100
AcDbLine
 10
-89.27853405487667
 20
152.0962586104327
 30
0.0
 11
-89.33243554599767
 21
152.1955522963706
 31
0.0
  0
LINE
  5
1C9
330
36
100
AcDbEntity
  8
0
  6
Continuous
 62
     7
100
AcDbLine
 10
-89.22990153000865
 20
151.9942777517291
 30
0.0
 11
-89.27853405487667
 21
152.0962586104327
 31
0.0
  0
LINE
  5
1CA
330
36
100
AcDbEntity
  8
0
  6
Continuous
 62
     7
100
AcDbLine
 10
-89.3555194998703
 20
152.2350067060167
 30
0.0
 11
-89.40939335438725
 21
152.3228821891785
 31
0.0
  0
LINE
  5
1CB
330
36
100
AcDbEntity
  8
0
  6
Continuous
 62
     7
100
AcDbLine
 10
-89.56320187762049
 20
152.5345826798655
 30
0.0
 11
-89.62256227404669
 21
152.6040851004514
 31
0.0
  0
LINE
  5
1CC
330
36
100
AcDbEntity
  8
0
  6
Continuous
 62
     7
100
AcDbLine
 10
-89.5070859643356
 20
152.4614944453164
 30
0.0
 11
-89.56320187762049
 21
152.5345826798655
 31
0.0
  0
LINE
  5
1CD
330
36
100
AcDbEntity
  8
0
  6
Continuous
 62
     7
100
AcDbLine
 10
-89.68108605369025
 20
152.6687633265482
 30
0.0
 11
-89.73831167611661
 21
152.7290712635856
 31
0.0
  0
LINE
  5
1CE
330
36
100
AcDbEntity
  8
0
  6
Continuous
 62
     7
100
AcDbLine
 10
-90.61013765940152
 20
153.2952336633678
 30
0.0
 11
-90.66214713293357
 21
153.313659602238
 31
0.0
  0
LINE
  5
1CF
330
36
100
AcDbEntity
  8
0
  6
Continuous
 62
     7
100
AcDbLine
 10
-90.14443949625047
 20
153.0579593383208
 30
0.0
 11
-90.20284699602826
 21
153.093741543045
 31
0.0
  0
LINE
  5
1D0
330
36
100
AcDbEntity
  8
0
  6
Continuous
 62
     7
100
AcDbLine
 10
-89.93276962560958
 20
152.9041506740631
 30
0.0
 11
-89.99265354603358
 21
152.9501109985962
 31
0.0
  0
LINE
  5
1D1
330
36
100
AcDbEntity
  8
0
  6
Continuous
 62
     7
100
AcDbLine
 10
-89.87535006273447
 20
152.8551275010168
 30
0.0
 11
-89.93276962560958
 21
152.9041506740631
 31
0.0
  0
LINE
  5
1D2
330
36
100
AcDbEntity
  8
0
  6
Continuous
 62
     7
100
AcDbLine
 10
-90.08801191633756
 20
153.0191753288658
 30
0.0
 11
-90.14443949625047
 21
153.0579593383208
 31
0.0
  0
LINE
  5
1D3
330
36
100
AcDbEntity
  8
0
  6
Continuous
 62
     7
100
AcDbLine
 10
-90.37106298781737
 20
153.1888187888096
 30
0.0
 11
-90.4270647866324
 21
153.2155180164076
 31
0.0
  0
LINE
  5
1D4
330
36
100
AcDbEntity
  8
0
  6
Continuous
 62
     7
100
AcDbLine
 10
-90.31656537418348
 20
153.1592124449407
 30
0.0
 11
-90.37106298781737
 21
153.1888187888096
 31
0.0
  0
LINE
  5
1D5
330
36
100
AcDbEntity
  8
0
  6
Continuous
 62
     7
100
AcDbLine
 10
-90.55915756785635
 20
153.2741184667378
 30
0.0
 11
-90.61013765940152
 21
153.2952336633678
 31
0.0
  0
LINE
  5
1D6
330
36
100
AcDbEntity
  8
0
  6
Continuous
 62
     7
100
AcDbLine
 10
-91.11495939168253
 20
153.4305182553531
 30
0.0
 11
-91.16134302931732
 21
153.4366271226887
 31
0.0
  0
LINE
  5
1D7
330
36
100
AcDbEntity
  8
0
  6
Continuous
 62
     7
100
AcDbLine
 10
-90.85897796449444
 20
153.3761053282883
 30
0.0
 11
-90.90802533694932
 21
153.3878734231858
 31
0.0
  0
LINE
  5
1D8
330
36
100
AcDbEntity
  8
0
  6
Continuous
 62
     7
100
AcDbLine
 10
-90.81063597596358
 20
153.361786112808
 30
0.0
 11
-90.85897796449444
 21
153.3761053282883
 31
0.0
  0
LINE
  5
1D9
330
36
100
AcDbEntity
  8
0
  6
Continuous
 62
     7
100
AcDbLine
 10
-91.06937065622833
 20
153.4220622645205
 30
0.0
 11
-91.11495939168253
 21
153.4305182553531
 31
0.0
  0
LINE
  5
1DA
330
36
100
AcDbEntity
  8
0
  6
Continuous
 62
     7
100
AcDbLine
 10
-91.37521328882349
 20
153.4578620920442
 30
0.0
 11
-91.41797273324846
 21
153.4589789574576
 31
0.0
  0
LINE
  5
1DB
330
36
100
AcDbEntity
  8
0
  6
Continuous
 62
     7
100
AcDbLine
 10
-91.33219216027965
 20
153.4544815586378
 30
0.0
 11
-91.37521328882349
 21
153.4578620920442
 31
0.0
  0
LINE
  5
1DC
330
36
100
AcDbEntity
  8
0
  6
Continuous
 62
     7
100
AcDbLine
 10
-89.83395373625626
 20
152.8182436587255
 30
0.0
 11
-89.79048393981066
 21
152.7770087857441
 31
0.0
  0
LINE
  5
1DD
330
36
100
AcDbEntity
  8
0
  6
Continuous
 62
     7
100
AcDbLine
 10
-89.79048393981066
 20
152.7770087857441
 30
0.0
 11
-89.7389830631405
 21
152.7281557364655
 31
0.0
  0
LINE
  5
1DE
330
36
100
AcDbEntity
  8
0
  6
Continuous
 62
     7
100
AcDbLine
 10
-90.73422211780553
 20
153.3380193492318
 30
0.0
 11
-90.66014901890731
 21
153.3118079949294
 31
0.0
  0
LINE
  5
1DF
330
36
100
AcDbEntity
  8
0
  6
Continuous
 62
     7
100
AcDbLine
 10
-90.66014901890731
 20
153.3118079949294
 30
0.0
 11
-90.6108090464154
 21
153.2943486538258
 31
0.0
  0
LINE
  5
1E0
330
36
100
AcDbEntity
  8
0
  6
Continuous
 62
     7
100
AcDbLine
 10
-91.24545255035628
 20
153.4466926152269
 30
0.0
 11
-91.16225258727855
 21
153.4357349249146
 31
0.0
  0
LINE
  5
1E1
330
36
100
AcDbEntity
  8
0
  6
Continuous
 62
     7
100
AcDbLine
 10
-91.16225258727855
 20
153.4357349249146
 30
0.0
 11
-91.1156918138613
 21
153.4296027282534
 31
0.0
  0
LINE
  5
1E2
330
36
100
AcDbEntity
  8
0
  6
Continuous
 62
     7
100
AcDbLine
 10
-91.50674404969868
 20
153.4603950948418
 30
0.0
 11
-91.42218456985029
 21
153.4581656636635
 31
0.0
  0
LINE
  5
1E3
330
36
100
AcDbEntity
  8
0
  6
Continuous
 62
     7
100
AcDbLine
 10
-91.42218456985029
 20
153.4581656636635
 30
0.0
 11
-91.37594571100362
 21
153.4569465649445
 31
0.0
  0
LINE
  5
1E4
330
36
100
AcDbEntity
  8
0
  6
Continuous
 62
     7
100
AcDbLine
 10
-91.37594571100362
 20
153.4569465649445
 30
0.0
 11
-91.33026843875541
 21
153.4533573158947
 31
0.0
  0
LINE
  5
1E5
330
36
100
AcDbEntity
  8
0
  6
Continuous
 62
     7
100
AcDbLine
 10
-91.33026843875541
 20
153.4533573158947
 30
0.0
 11
-91.24545255035628
 21
153.4466926152269
 31
0.0
  0
LINE
  5
1E6
330
36
100
AcDbEntity
  8
0
  6
Continuous
 62
     7
100
AcDbLine
 10
-90.98696867726949
 20
153.4057684568598
 30
0.0
 11
-90.90788692440447
 21
153.3867660509699
 31
0.0
  0
LINE
  5
1E7
330
36
100
AcDbEntity
  8
0
  6
Continuous
 62
     7
100
AcDbLine
 10
-90.90788692440447
 20
153.3867660509699
 30
0.0
 11
-90.85971038667458
 21
153.3751898011885
 31
0.0
  0
LINE
  5
1E8
330
36
100
AcDbEntity
  8
0
  6
Continuous
 62
     7
100
AcDbLine
 10
-91.1156918138613
 20
153.4296027282534
 30
0.0
 11
-91.0689628248474
 21
153.4209504266113
 31
0.0
  0
LINE
  5
1E9
330
36
100
AcDbEntity
  8
0
  6
Continuous
 62
     7
100
AcDbLine
 10
-91.0689628248474
 20
153.4209504266113
 30
0.0
 11
-90.98696867726949
 21
153.4057684568598
 31
0.0
  0
LINE
  5
1EA
330
36
100
AcDbEntity
  8
0
  6
Continuous
 62
     7
100
AcDbLine
 10
-90.85971038667458
 20
153.3751898011885
 30
0.0
 11
-90.81282998069355
 21
153.3613035160886
 31
0.0
  0
LINE
  5
1EB
330
36
100
AcDbEntity
  8
0
  6
Continuous
 62
     7
100
AcDbLine
 10
-90.81282998069355
 20
153.3613035160886
 30
0.0
 11
-90.73422211780553
 21
153.3380193492318
 31
0.0
  0
LINE
  5
1EC
330
36
100
AcDbEntity
  8
0
  6
Continuous
 62
     7
100
AcDbLine
 10
-90.25674416126458
 20
153.1254642585422
 30
0.0
 11
-90.19741572492967
 21
153.0890979770252
 31
0.0
  0
LINE
  5
1ED
330
36
100
AcDbEntity
  8
0
  6
Continuous
 62
     7
100
AcDbLine
 10
-90.19741572492967
 20
153.0890979770252
 30
0.0
 11
-90.1451719184206
 21
153.0570743287991
 31
0.0
  0
LINE
  5
1EE
330
36
100
AcDbEntity
  8
0
  6
Continuous
 62
     7
100
AcDbLine
 10
-90.48989841857565
 20
153.2442387502689
 30
0.0
 11
-90.42241697972941
 21
153.2120499019758
 31
0.0
  0
LINE
  5
1EF
330
36
100
AcDbEntity
  8
0
  6
Continuous
 62
     7
100
AcDbLine
 10
-90.42241697972941
 20
153.2120499019758
 30
0.0
 11
-90.3717954099975
 21
153.1879032617098
 31
0.0
  0
LINE
  5
1F0
330
36
100
AcDbEntity
  8
0
  6
Continuous
 62
     7
100
AcDbLine
 10
-90.6108090464154
 20
153.2943486538258
 30
0.0
 11
-90.56216241274569
 21
153.2741876624794
 31
0.0
  0
LINE
  5
1F1
330
36
100
AcDbEntity
  8
0
  6
Continuous
 62
     7
100
AcDbLine
 10
-90.56216241274569
 20
153.2741876624794
 30
0.0
 11
-90.48989841857565
 21
153.2442387502689
 31
0.0
  0
LINE
  5
1F2
330
36
100
AcDbEntity
  8
0
  6
Continuous
 62
     7
100
AcDbLine
 10
-90.3717954099975
 20
153.1879032617098
 30
0.0
 11
-90.32208731343962
 21
153.1609263793848
 31
0.0
  0
LINE
  5
1F3
330
36
100
AcDbEntity
  8
0
  6
Continuous
 62
     7
100
AcDbLine
 10
-90.32208731343962
 20
153.1609263793848
 30
0.0
 11
-90.25674416126458
 21
153.1254642585422
 31
0.0
  0
LINE
  5
1F4
330
36
100
AcDbEntity
  8
0
  6
Continuous
 62
     7
100
AcDbLine
 10
-90.03732282202827
 20
152.9829165780306
 30
0.0
 11
-89.98548846957647
 21
152.943172819738
 31
0.0
  0
LINE
  5
1F5
330
36
100
AcDbEntity
  8
0
  6
Continuous
 62
     7
100
AcDbLine
 10
-89.98548846957647
 20
152.943172819738
 30
0.0
 11
-89.93344101262346
 21
152.9032656645211
 31
0.0
  0
LINE
  5
1F6
330
36
100
AcDbEntity
  8
0
  6
Continuous
 62
     7
100
AcDbLine
 10
-90.1451719184206
 20
153.0570743287991
 30
0.0
 11
-90.09552971555149
 21
153.0229400223368
 31
0.0
  0
LINE
  5
1F7
330
36
100
AcDbEntity
  8
0
  6
Continuous
 62
     7
100
AcDbLine
 10
-90.09552971555149
 20
153.0229400223368
 30
0.0
 11
-90.03732282202827
 21
152.9829165780306
 31
0.0
  0
LINE
  5
1F8
330
36
100
AcDbEntity
  8
0
  6
Continuous
 62
     7
100
AcDbLine
 10
-89.93344101262346
 20
152.9032656645211
 30
0.0
 11
-89.88359533265657
 21
152.8606674565307
 31
0.0
  0
LINE
  5
1F9
330
36
100
AcDbEntity
  8
0
  6
Continuous
 62
     7
100
AcDbLine
 10
-89.88359533265657
 20
152.8606674565307
 30
0.0
 11
-89.83395373625626
 21
152.8182436587255
 31
0.0
  0
LINE
  5
1FA
330
36
100
AcDbEntity
  8
0
  6
Continuous
 62
     7
100
AcDbLine
 10
-89.22287003202155
 20
151.9772400372034
 30
0.0
 11
-89.21112362281747
 21
151.9488552423488
 31
0.0
  0
LINE
  5
1FB
330
36
100
AcDbEntity
  8
0
  6
Continuous
 62
     7
100
AcDbLine
 10
-89.21112362281747
 20
151.9488552423488
 30
0.0
 11
-89.17282124418261
 21
151.8562988584226
 31
0.0
  0
LINE
  5
1FC
330
36
100
AcDbEntity
  8
0
  6
Continuous
 62
     7
100
AcDbLine
 10
-89.48422242032029
 20
152.4298463254324
 30
0.0
 11
-89.45836831516044
 21
152.3922461308544
 31
0.0
  0
LINE
  5
1FD
330
36
100
AcDbEntity
  8
0
  6
Continuous
 62
     7
100
AcDbLine
 10
-89.45836831516044
 20
152.3922461308544
 30
0.0
 11
-89.41006474140158
 21
152.3219971796365
 31
0.0
  0
LINE
  5
1FE
330
36
100
AcDbEntity
  8
0
  6
Continuous
 62
     7
100
AcDbLine
 10
-89.64889520413954
 20
152.6332155209102
 30
0.0
 11
-89.61435248709358
 21
152.5927834045194
 31
0.0
  0
LINE
  5
1FF
330
36
100
AcDbEntity
  8
0
  6
Continuous
 62
     7
100
AcDbLine
 10
-89.61435248709358
 20
152.5927834045194
 30
0.0
 11
-89.56387326463346
 21
152.5336976703235
 31
0.0
  0
LINE
  5
200
330
36
100
AcDbEntity
  8
0
  6
Continuous
 62
     7
100
AcDbLine
 10
-89.7389830631405
 20
152.7281557364655
 30
0.0
 11
-89.69013005085162
 21
152.6766713792087
 31
0.0
  0
LINE
  5
201
330
36
100
AcDbEntity
  8
0
  6
Continuous
 62
     7
100
AcDbLine
 10
-89.69013005085162
 20
152.6766713792087
 30
0.0
 11
-89.64889520413954
 21
152.6332155209102
 31
0.0
  0
LINE
  5
202
330
36
100
AcDbEntity
  8
0
  6
Continuous
 62
     7
100
AcDbLine
 10
-89.56387326463346
 20
152.5336976703235
 30
0.0
 11
-89.5165829685925
 21
152.4720390540657
 31
0.0
  0
LINE
  5
203
330
36
100
AcDbEntity
  8
0
  6
Continuous
 62
     7
100
AcDbLine
 10
-89.5165829685925
 20
152.4720390540657
 30
0.0
 11
-89.48422242032029
 21
152.4298463254324
 31
0.0
  0
LINE
  5
204
330
36
100
AcDbEntity
  8
0
  6
Continuous
 62
     7
100
AcDbLine
 10
-89.34170540357627
 20
152.2103943736627
 30
0.0
 11
-89.3239686726547
 21
152.1777209660611
 31
0.0
  0
LINE
  5
205
330
36
100
AcDbEntity
  8
0
  6
Continuous
 62
     7
100
AcDbLine
 10
-89.3239686726547
 20
152.1777209660611
 30
0.0
 11
-89.27926647704635
 21
152.095373600911
 31
0.0
  0
LINE
  5
206
330
36
100
AcDbEntity
  8
0
  6
Continuous
 62
     7
100
AcDbLine
 10
-89.41006474140158
 20
152.3219971796365
 30
0.0
 11
-89.36487302896967
 21
152.2482176189405
 31
0.0
  0
LINE
  5
207
330
36
100
AcDbEntity
  8
0
  6
Continuous
 62
     7
100
AcDbLine
 10
-89.36487302896967
 20
152.2482176189405
 30
0.0
 11
-89.34170540357627
 21
152.2103943736627
 31
0.0
  0
LINE
  5
208
330
36
100
AcDbEntity
  8
0
  6
Continuous
 62
     7
100
AcDbLine
 10
-89.27926647704635
 20
152.095373600911
 30
0.0
 11
-89.2395311600817
 21
152.0121400815637
 31
0.0
  0
LINE
  5
209
330
36
100
AcDbEntity
  8
0
  6
Continuous
 62
     7
100
AcDbLine
 10
-89.2395311600817
 20
152.0121400815637
 30
0.0
 11
-89.22287003202155
 21
151.9772400372034
 31
0.0
  0
LINE
  5
20A
330
36
100
AcDbEntity
  8
0
  6
Continuous
 62
     7
100
AcDbLine
 10
-89.06137117415938
 20
151.4801696709077
 30
0.0
 11
-89.05896942707432
 21
151.4672180260531
 31
0.0
  0
LINE
  5
20B
330
36
100
AcDbEntity
  8
0
  6
Continuous
 62
     7
100
AcDbLine
 10
-89.05896942707432
 20
151.4672180260531
 30
0.0
 11
-89.0375064709333
 21
151.3514770360052
 31
0.0
  0
LINE
  5
20C
330
36
100
AcDbEntity
  8
0
  6
Continuous
 62
     7
100
AcDbLine
 10
-89.12912011339631
 20
151.7329467930845
 30
0.0
 11
-89.12290935426154
 21
151.7119739822654
 31
0.0
  0
LINE
  5
20D
330
36
100
AcDbEntity
  8
0
  6
Continuous
 62
     7
100
AcDbLine
 10
-89.12290935426154
 20
151.7119739822654
 30
0.0
 11
-89.09194974505044
 21
151.6074279818748
 31
0.0
  0
LINE
  5
20E
330
36
100
AcDbEntity
  8
0
  6
Continuous
 62
     7
100
AcDbLine
 10
-89.17282124418261
 20
151.8562988584226
 30
0.0
 11
-89.13926885859064
 21
151.7615929323896
 31
0.0
  0
LINE
  5
20F
330
36
100
AcDbEntity
  8
0
  6
Continuous
 62
     7
100
AcDbLine
 10
-89.13926885859064
 20
151.7615929323896
 30
0.0
 11
-89.12912011339631
 21
151.7329467930845
 31
0.0
  0
LINE
  5
210
330
36
100
AcDbEntity
  8
0
  6
Continuous
 62
     7
100
AcDbLine
 10
-89.09194974505044
 20
151.6074279818748
 30
0.0
 11
-89.06653948575058
 21
151.5016785440978
 31
0.0
  0
LINE
  5
211
330
36
100
AcDbEntity
  8
0
  6
Continuous
 62
     7
100
AcDbLine
 10
-89.06653948575058
 20
151.5016785440978
 30
0.0
 11
-89.06137117415938
 21
151.4801696709077
 31
0.0
  0
LINE
  5
212
330
36
100
AcDbEntity
  8
0
  6
Continuous
 62
     7
100
AcDbLine
 10
-89.02047770556328
 20
151.2217162881454
 30
0.0
 11
-89.02013300641829
 21
151.2173555195227
 31
0.0
  0
LINE
  5
213
330
36
100
AcDbEntity
  8
0
  6
Continuous
 62
     7
100
AcDbLine
 10
-89.02013300641829
 20
151.2173555195227
 30
0.0
 11
-89.01016280762451
 21
151.091223120647
 31
0.0
  0
LINE
  5
214
330
36
100
AcDbEntity
  8
0
  6
Continuous
 62
     7
100
AcDbLine
 10
-89.0375064709333
 20
151.3514770360052
 30
0.0
 11
-89.02219148252152
 21
151.2347754251376
 31
0.0
  0
LINE
  5
215
330
36
100
AcDbEntity
  8
0
  6
Continuous
 62
     7
100
AcDbLine
 10
-89.02219148252152
 20
151.2347754251376
 30
0.0
 11
-89.02047770556328
 21
151.2217162881454
 31
0.0
  0
LINE
  5
216
330
36
100
AcDbEntity
  8
0
  6
Continuous
 62
     7
100
AcDbLine
 10
-89.01016280762451
 20
151.091223120647
 30
0.0
 11
-89.00680591741457
 21
150.9627305139838
 31
0.0
  0
LINE
  5
217
330
36
100
AcDbEntity
  8
0
  6
Continuous
 62
     7
100
AcDbLine
 10
-89.00680591741457
 20
150.9627305139838
 30
0.0
 11
-89.00674488245431
 21
150.9603942620866
 31
0.0
  0
LINE
  5
218
330
36
100
AcDbEntity
  8
0
  6
Continuous
 62
     7
100
AcDbLine
 10
-1901.505451244439
 20
3.45211339680452
 30
0.0
 11
-1899.005451244441
 21
3.45211256404923
 31
0.0
  0
LINE
  5
219
330
36
100
AcDbEntity
  8
0
  6
Continuous
 62
     7
100
AcDbLine
 10
-1901.505451244439
 20
3.45211339680452
 30
0.0
 11
-1926.505451244397
 21
3.45224379467032
 31
0.0
  0
LINE
  5
21A
330
36
100
AcDbEntity
  8
0
  6
Continuous
 62
     7
100
AcDbLine
 10
-1929.005451244388
 20
3.4522751450038
 30
0.0
 11
-1926.505451244397
 21
3.45224379467032
 31
0.0
  0
LINE
  5
21B
330
36
100
AcDbEntity
  8
0
  6
Continuous
 62
     7
100
AcDbLine
 10
-1929.005524181475
 20
150.9542587876144
 30
0.0
 11
-1929.005451244388
 21
3.4522751450038
 31
0.0
  0
LINE
  5
21C
330
36
100
AcDbEntity
  8
0
  6
Continuous
 62
     7
100
AcDbLine
 10
-1899.005451244441
 20
3.45211256404923
 30
0.0
 11
-1899.005524182594
 21
150.95650916429
 31
0.0
  0
LINE
  5
21D
330
36
100
AcDbEntity
  8
0
  6
Continuous
 62
     7
100
AcDbLine
 10
-1926.505523348719
 20
153.4542579548589
 30
0.0
 11
-1926.766875892346
 21
153.4405556493379
 31
0.0
  0
LINE
  5
21E
330
36
100
AcDbEntity
  8
0
  6
Continuous
 62
     7
100
AcDbLine
 10
-1926.766875892346
 20
153.4405556493379
 30
0.0
 11
-1927.02529875755
 21
153.3996011455753
 31
0.0
  0
LINE
  5
21F
330
36
100
AcDbEntity
  8
0
  6
Continuous
 62
     7
100
AcDbLine
 10
-1927.02529875755
 20
153.3996011455753
 30
0.0
 11
-1927.278106397296
 21
153.3318827239267
 31
0.0
  0
LINE
  5
220
330
36
100
AcDbEntity
  8
0
  6
Continuous
 62
     7
100
AcDbLine
 10
-1927.278106397296
 20
153.3318827239267
 30
0.0
 11
-1927.522369123846
 21
153.238102287713
 31
0.0
  0
LINE
  5
221
330
36
100
AcDbEntity
  8
0
  6
Continuous
 62
     7
100
AcDbLine
 10
-1927.522369123846
 20
153.238102287713
 30
0.0
 11
-1927.755523460296
 21
153.1192974337366
 31
0.0
  0
LINE
  5
222
330
36
100
AcDbEntity
  8
0
  6
Continuous
 62
     7
100
AcDbLine
 10
-1927.755523460296
 20
153.1192974337366
 30
0.0
 11
-1927.975005929643
 21
152.9767804170029
 31
0.0
  0
LINE
  5
223
330
36
100
AcDbEntity
  8
0
  6
Continuous
 62
     7
100
AcDbLine
 10
-1927.975005929643
 20
152.9767804170029
 30
0.0
 11
-1928.178375125121
 21
152.8121076331831
 31
0.0
  0
LINE
  5
224
330
36
100
AcDbEntity
  8
0
  6
Continuous
 62
     7
100
AcDbLine
 10
-1928.178375125121
 20
152.8121076331831
 30
0.0
 11
-1928.363433780505
 21
152.6270796186546
 31
0.0
  0
LINE
  5
225
330
36
100
AcDbEntity
  8
0
  6
Continuous
 62
     7
100
AcDbLine
 10
-1928.363433780505
 20
152.6270796186546
 30
0.0
 11
-1928.52810669981
 21
152.4237105328826
 31
0.0
  0
LINE
  5
226
330
36
100
AcDbEntity
  8
0
  6
Continuous
 62
     7
100
AcDbLine
 10
-1928.950836508337
 20
151.4740341600228
 30
0.0
 11
-1928.991852219428
 21
151.2155808045446
 31
0.0
  0
LINE
  5
227
330
36
100
AcDbEntity
  8
0
  6
Continuous
 62
     7
100
AcDbLine
 10
-1928.670562827597
 20
152.2042586760381
 30
0.0
 11
-1928.680541232531
 21
152.1846685092092
 31
0.0
  0
LINE
  5
228
330
36
100
AcDbEntity
  8
0
  6
Continuous
 62
     7
100
AcDbLine
 10
-1928.680541232531
 20
152.1846685092092
 30
0.0
 11
-1928.78170354592
 21
151.9860609552645
 31
0.0
  0
LINE
  5
229
330
36
100
AcDbEntity
  8
0
  6
Continuous
 62
     7
100
AcDbLine
 10
-1928.78170354592
 20
151.9860609552645
 30
0.0
 11
-1928.789337319334
 21
151.971073901149
 31
0.0
  0
LINE
  5
22A
330
36
100
AcDbEntity
  8
0
  6
Continuous
 62
     7
100
AcDbLine
 10
-1928.883087400709
 20
151.7267807194867
 30
0.0
 11
-1928.883398199258
 21
151.7256212464383
 31
0.0
  0
LINE
  5
22B
330
36
100
AcDbEntity
  8
0
  6
Continuous
 62
     7
100
AcDbLine
 10
-1928.883398199258
 20
151.7256212464383
 30
0.0
 11
-1928.950836508337
 21
151.4740341600228
 31
0.0
  0
LINE
  5
22C
330
36
100
AcDbEntity
  8
0
  6
Continuous
 62
     7
100
AcDbLine
 10
-1928.991852219428
 20
151.2155808045446
 30
0.0
 11
-1929.005524181475
 21
150.9542587876144
 31
0.0
  0
LINE
  5
22D
330
36
100
AcDbEntity
  8
0
  6
Continuous
 62
     7
100
AcDbLine
 10
-1928.789337319334
 20
151.971073901149
 30
0.0
 11
-1928.793681520677
 21
151.959753817451
 31
0.0
  0
LINE
  5
22E
330
36
100
AcDbEntity
  8
0
  6
Continuous
 62
     7
100
AcDbLine
 10
-1928.793681520677
 20
151.959753817451
 30
0.0
 11
-1928.881791076791
 21
151.7301586695614
 31
0.0
  0
LINE
  5
22F
330
36
100
AcDbEntity
  8
0
  6
Continuous
 62
     7
100
AcDbLine
 10
-1928.881791076791
 20
151.7301586695614
 30
0.0
 11
-1928.883087400709
 21
151.7267807194867
 31
0.0
  0
LINE
  5
230
330
36
100
AcDbEntity
  8
0
  6
Continuous
 62
     7
100
AcDbLine
 10
-1928.52810669981
 20
152.4237105328826
 30
0.0
 11
-1928.545306709945
 21
152.3972141355658
 31
0.0
  0
LINE
  5
231
330
36
100
AcDbEntity
  8
0
  6
Continuous
 62
     7
100
AcDbLine
 10
-1928.545306709945
 20
152.3972141355658
 30
0.0
 11
-1928.655868060514
 21
152.2268957782272
 31
0.0
  0
LINE
  5
232
330
36
100
AcDbEntity
  8
0
  6
Continuous
 62
     7
100
AcDbLine
 10
-1928.655868060514
 20
152.2268957782272
 30
0.0
 11
-1928.670562827597
 21
152.2042586760381
 31
0.0
  0
LINE
  5
233
330
36
100
AcDbEntity
  8
0
  6
Continuous
 62
     7
100
AcDbLine
 10
-1899.005451243678
 20
3.45440138240849
 30
0.0
 11
-1899.005418265899
 21
102.4564030096222
 31
0.0
  0
LINE
  5
234
330
36
100
AcDbEntity
  8
0
  6
Continuous
 62
     7
100
AcDbLine
 10
-1899.005411612769
 20
122.4296473284652
 30
0.0
 11
-1899.005411304084
 21
123.3563478018717
 31
0.0
  0
LINE
  5
235
330
36
100
AcDbEntity
  8
0
  6
Continuous
 62
     7
100
AcDbLine
 10
-1899.005411304084
 20
123.3563478018717
 30
0.0
 11
-1899.005410438025
 21
125.9563239898236
 31
0.0
  0
LINE
  5
236
330
36
100
AcDbEntity
  8
0
  6
Continuous
 62
     7
100
AcDbLine
 10
-1901.505523349838
 20
153.4565079280869
 30
0.0
 11
-1926.505401277655
 21
153.4565162555995
 31
0.0
  0
LINE
  5
237
330
36
100
AcDbEntity
  8
0
  6
Continuous
 62
     7
100
AcDbLine
 10
-1928.36331170944
 20
152.6293379193952
 30
0.0
 11
-1928.322076838027
 21
152.6705659633955
 31
0.0
  0
LINE
  5
238
330
36
100
AcDbEntity
  8
0
  6
Continuous
 62
     7
100
AcDbLine
 10
-1928.221722879538
 20
152.7709033059041
 30
0.0
 11
-1928.178253054057
 21
152.8143659339237
 31
0.0
  0
LINE
  5
239
330
36
100
AcDbEntity
  8
0
  6
Continuous
 62
     7
100
AcDbLine
 10
-1928.883087399956
 20
151.729039020268
 30
0.0
 11
-1928.871409492517
 21
151.7594692142641
 31
0.0
  0
LINE
  5
23A
330
36
100
AcDbEntity
  8
0
  6
Continuous
 62
     7
100
AcDbLine
 10
-1928.805250079405
 20
151.9318668622374
 30
0.0
 11
-1928.789337318581
 21
151.9733322019302
 31
0.0
  0
LINE
  5
23B
330
36
100
AcDbEntity
  8
0
  6
Continuous
 62
     7
100
AcDbLine
 10
-1928.952243180017
 20
151.4674010505108
 30
0.0
 11
-1928.950836507584
 21
151.4762924608041
 31
0.0
  0
LINE
  5
23C
330
36
100
AcDbEntity
  8
0
  6
Continuous
 62
     7
100
AcDbLine
 10
-1928.950836507584
 20
151.4762924608041
 30
0.0
 11
-1928.946141162565
 21
151.4938090354239
 31
0.0
  0
LINE
  5
23D
330
36
100
AcDbEntity
  8
0
  6
Continuous
 62
     7
100
AcDbLine
 10
-1928.889193701822
 20
151.7062586938331
 30
0.0
 11
-1928.883087399956
 21
151.729039020268
 31
0.0
  0
LINE
  5
23E
330
36
100
AcDbEntity
  8
0
  6
Continuous
 62
     7
100
AcDbLine
 10
-1928.670440756533
 20
152.2065169767787
 30
0.0
 11
-1928.633389937558
 21
152.2635932931694
 31
0.0
  0
LINE
  5
23F
330
36
100
AcDbEntity
  8
0
  6
Continuous
 62
     7
100
AcDbLine
 10
-1928.56967138101
 20
152.3617509208349
 30
0.0
 11
-1928.527984628744
 21
152.4259688336232
 31
0.0
  0
LINE
  5
240
330
36
100
AcDbEntity
  8
0
  6
Continuous
 62
     7
100
AcDbLine
 10
-1928.789337318581
 20
151.9733322019302
 30
0.0
 11
-1928.765450359289
 21
152.0201802783454
 31
0.0
  0
LINE
  5
241
330
36
100
AcDbEntity
  8
0
  6
Continuous
 62
     7
100
AcDbLine
 10
-1928.697405025667
 20
152.1536335550982
 30
0.0
 11
-1928.670440756533
 21
152.2065169767787
 31
0.0
  0
LINE
  5
242
330
36
100
AcDbEntity
  8
0
  6
Continuous
 62
     7
100
AcDbLine
 10
-1928.527984628744
 20
152.4259688336232
 30
0.0
 11
-1928.495147860929
 21
152.4665218491321
 31
0.0
  0
LINE
  5
243
330
36
100
AcDbEntity
  8
0
  6
Continuous
 62
     7
100
AcDbLine
 10
-1928.398310776518
 20
152.586114490159
 30
0.0
 11
-1928.36331170944
 21
152.6293379193952
 31
0.0
  0
LINE
  5
244
330
36
100
AcDbEntity
  8
0
  6
Continuous
 62
     7
100
AcDbLine
 10
-1927.522247052782
 20
153.2403605884536
 30
0.0
 11
-1927.45011308677
 21
153.2680551732718
 31
0.0
  0
LINE
  5
245
330
36
100
AcDbEntity
  8
0
  6
Continuous
 62
     7
100
AcDbLine
 10
-1927.45011308677
 20
153.2680551732718
 30
0.0
 11
-1927.351648397915
 21
153.3058589823214
 31
0.0
  0
LINE
  5
246
330
36
100
AcDbEntity
  8
0
  6
Continuous
 62
     7
100
AcDbLine
 10
-1927.351648397915
 20
153.3058589823214
 30
0.0
 11
-1927.277984326231
 21
153.3341410246673
 31
0.0
  0
LINE
  5
247
330
36
100
AcDbEntity
  8
0
  6
Continuous
 62
     7
100
AcDbLine
 10
-1927.974883858579
 20
152.9790387177435
 30
0.0
 11
-1927.916231838665
 21
153.0171315132435
 31
0.0
  0
LINE
  5
248
330
36
100
AcDbEntity
  8
0
  6
Continuous
 62
     7
100
AcDbLine
 10
-1927.816425442873
 20
153.0819528890484
 30
0.0
 11
-1927.75540138922
 21
153.1215862520553
 31
0.0
  0
LINE
  5
249
330
36
100
AcDbEntity
  8
0
  6
Continuous
 62
     7
100
AcDbLine
 10
-1928.178253054057
 20
152.8143659339237
 30
0.0
 11
-1928.128611432574
 21
152.854561913377
 31
0.0
  0
LINE
  5
24A
330
36
100
AcDbEntity
  8
0
  6
Continuous
 62
     7
100
AcDbLine
 10
-1928.026360027928
 20
152.937357262067
 30
0.0
 11
-1927.974883858579
 21
152.9790387177435
 31
0.0
  0
LINE
  5
24B
330
36
100
AcDbEntity
  8
0
  6
Continuous
 62
     7
100
AcDbLine
 10
-1927.75540138922
 20
153.1215862520553
 30
0.0
 11
-1927.68903815611
 21
153.1553932534361
 31
0.0
  0
LINE
  5
24C
330
36
100
AcDbEntity
  8
0
  6
Continuous
 62
     7
100
AcDbLine
 10
-1927.68903815611
 20
153.1553932534361
 30
0.0
 11
-1927.590043769839
 21
153.2058233364281
 31
0.0
  0
LINE
  5
24D
330
36
100
AcDbEntity
  8
0
  6
Continuous
 62
     7
100
AcDbLine
 10
-1927.590043769839
 20
153.2058233364281
 30
0.0
 11
-1927.522247052782
 21
153.2403605884536
 31
0.0
  0
LINE
  5
24E
330
36
100
AcDbEntity
  8
0
  6
Continuous
 62
     7
100
AcDbLine
 10
-1927.025176686476
 20
153.4018899638941
 30
0.0
 11
-1926.943040315194
 21
153.4148971245455
 31
0.0
  0
LINE
  5
24F
330
36
100
AcDbEntity
  8
0
  6
Continuous
 62
     7
100
AcDbLine
 10
-1926.943040315194
 20
153.4148971245455
 30
0.0
 11
-1926.849591538907
 21
153.4296957238366
 31
0.0
  0
LINE
  5
250
330
36
100
AcDbEntity
  8
0
  6
Continuous
 62
     7
100
AcDbLine
 10
-1926.849591538907
 20
153.4296957238366
 30
0.0
 11
-1926.766753821282
 21
153.4428139500784
 31
0.0
  0
LINE
  5
251
330
36
100
AcDbEntity
  8
0
  6
Continuous
 62
     7
100
AcDbLine
 10
-1927.277984326231
 20
153.3341410246673
 30
0.0
 11
-1927.200121615392
 21
153.3550071506665
 31
0.0
  0
LINE
  5
252
330
36
100
AcDbEntity
  8
0
  6
Continuous
 62
     7
100
AcDbLine
 10
-1927.200121615392
 20
153.3550071506665
 30
0.0
 11
-1927.104588379825
 21
153.3806087320777
 31
0.0
  0
LINE
  5
253
330
36
100
AcDbEntity
  8
0
  6
Continuous
 62
     7
100
AcDbLine
 10
-1927.104588379825
 20
153.3806087320777
 30
0.0
 11
-1927.025176686476
 21
153.4018899638941
 31
0.0
  0
LINE
  5
254
330
36
100
AcDbEntity
  8
0
  6
Continuous
 62
     7
100
AcDbLine
 10
-1926.766753821282
 20
153.4428139500784
 30
0.0
 11
-1926.682314366017
 21
153.4472409787884
 31
0.0
  0
LINE
  5
255
330
36
100
AcDbEntity
  8
0
  6
Continuous
 62
     7
100
AcDbLine
 10
-1926.682314366017
 20
153.4472409787884
 30
0.0
 11
-1926.590077695012
 21
153.4520768033373
 31
0.0
  0
LINE
  5
256
330
36
100
AcDbEntity
  8
0
  6
Continuous
 62
     7
100
AcDbLine
 10
-1926.590077695012
 20
153.4520768033373
 30
0.0
 11
-1926.505401277655
 21
153.4565162555995
 31
0.0
  0
LINE
  5
257
330
36
100
AcDbEntity
  8
0
  6
Continuous
 62
     7
100
AcDbLine
 10
-1899.005410438025
 20
125.9563239898236
 30
0.0
 11
-1899.005402110412
 21
150.956507095291
 31
0.0
  0
LINE
  5
258
330
36
100
AcDbEntity
  8
0
  6
Continuous
 62
     7
100
AcDbLine
 10
-1899.005410438025
 20
125.9563239898236
 30
0.0
 11
-1899.005511819513
 21
125.9543862127473
 31
0.0
  0
LINE
  5
259
330
36
100
AcDbEntity
  8
0
  6
Continuous
 62
     7
100
AcDbLine
 10
-1929.005511806384
 20
125.9279980132481
 30
0.0
 11
-1929.006142861291
 21
125.9521530749284
 31
0.0
  0
LINE
  5
25A
330
36
100
AcDbEntity
  8
0
  6
Continuous
 62
     7
100
AcDbLine
 10
-1929.006142861291
 20
125.9521530749284
 30
0.0
 11
-1929.006142861281
 21
125.9521835925066
 31
0.0
  0
LINE
  5
25B
330
36
100
AcDbEntity
  8
0
  6
Continuous
 62
     7
100
AcDbLine
 10
-1901.506133701065
 20
153.4518997739933
 30
0.0
 11
-1926.506133701065
 21
153.4519081015466
 31
0.0
  0
LINE
  5
25C
330
36
100
AcDbEntity
  8
0
  6
Continuous
 62
     7
100
AcDbLine
 10
-1901.505401278389
 20
153.4543106624212
 30
0.0
 11
-1926.505401278396
 21
153.4542884723964
 31
0.0
  0
LINE
  5
25D
330
36
100
AcDbEntity
  8
0
  6
Continuous
 62
     7
100
AcDbLine
 10
-1929.00613453382
 20
150.9519089343021
 30
0.0
 11
-1929.006142861281
 21
125.9521835925066
 31
0.0
  0
LINE
  5
25E
330
36
100
AcDbEntity
  8
0
  6
Continuous
 62
     7
100
AcDbLine
 10
-1929.00613453382
 20
150.9519089343021
 30
0.0
 11
-1929.002716521491
 21
151.0827377905854
 31
0.0
  0
LINE
  5
25F
330
36
100
AcDbEntity
  8
0
  6
Continuous
 62
     7
100
AcDbLine
 10
-1929.002716521491
 20
151.0827377905854
 30
0.0
 11
-1928.992462571772
 21
151.2132309512323
 31
0.0
  0
LINE
  5
260
330
36
100
AcDbEntity
  8
0
  6
Continuous
 62
     7
100
AcDbLine
 10
-1928.992462571772
 20
151.2132309512323
 30
0.0
 11
-1928.975372684799
 21
151.3429916877271
 31
0.0
  0
LINE
  5
261
330
36
100
AcDbEntity
  8
0
  6
Continuous
 62
     7
100
AcDbLine
 10
-1928.975372684799
 20
151.3429916877271
 30
0.0
 11
-1928.951446860682
 21
151.4716843067105
 31
0.0
  0
LINE
  5
262
330
36
100
AcDbEntity
  8
0
  6
Continuous
 62
     7
100
AcDbLine
 10
-1928.951446860682
 20
151.4716843067105
 30
0.0
 11
-1928.920929240167
 21
151.5989425973262
 31
0.0
  0
LINE
  5
263
330
36
100
AcDbEntity
  8
0
  6
Continuous
 62
     7
100
AcDbLine
 10
-1928.920929240167
 20
151.5989425973262
 30
0.0
 11
-1928.883819823366
 21
151.7244308662151
 31
0.0
  0
LINE
  5
264
330
36
100
AcDbEntity
  8
0
  6
Continuous
 62
     7
100
AcDbLine
 10
-1928.273956210599
 20
152.7196699208807
 30
0.0
 11
-1928.212929630796
 21
152.7775588487075
 31
0.0
  0
LINE
  5
265
330
36
100
AcDbEntity
  8
0
  6
Continuous
 62
     7
100
AcDbLine
 10
-1928.212929630796
 20
152.7775588487075
 30
0.0
 11
-1928.178985477467
 21
152.8097577798708
 31
0.0
  0
LINE
  5
266
330
36
100
AcDbEntity
  8
0
  6
Continuous
 62
     7
100
AcDbLine
 10
-1928.840118610392
 20
151.8478134200175
 30
0.0
 11
-1928.793681520277
 21
151.9597538183918
 31
0.0
  0
LINE
  5
267
330
36
100
AcDbEntity
  8
0
  6
Continuous
 62
     7
100
AcDbLine
 10
-1928.793681520277
 20
151.9597538183918
 30
0.0
 11
-1928.789947671668
 21
151.9687545654148
 31
0.0
  0
LINE
  5
268
330
36
100
AcDbEntity
  8
0
  6
Continuous
 62
     7
100
AcDbLine
 10
-1928.883819823366
 20
151.7244308662151
 30
0.0
 11
-1928.883398199278
 21
151.7256212463723
 31
0.0
  0
LINE
  5
269
330
36
100
AcDbEntity
  8
0
  6
Continuous
 62
     7
100
AcDbLine
 10
-1928.883398199278
 20
151.7256212463723
 30
0.0
 11
-1928.881791074658
 21
151.7301586751139
 31
0.0
  0
LINE
  5
26A
330
36
100
AcDbEntity
  8
0
  6
Continuous
 62
     7
100
AcDbLine
 10
-1928.881791074658
 20
151.7301586751139
 30
0.0
 11
-1928.840118610392
 21
151.8478134200175
 31
0.0
  0
LINE
  5
26B
330
36
100
AcDbEntity
  8
0
  6
Continuous
 62
     7
100
AcDbLine
 10
-1928.602813767767
 20
152.3135115831583
 30
0.0
 11
-1928.545306707626
 21
152.3972141389632
 31
0.0
  0
LINE
  5
26C
330
36
100
AcDbEntity
  8
0
  6
Continuous
 62
     7
100
AcDbLine
 10
-1928.545306707626
 20
152.3972141389632
 30
0.0
 11
-1928.528717052154
 21
152.4213606795703
 31
0.0
  0
LINE
  5
26D
330
36
100
AcDbEntity
  8
0
  6
Continuous
 62
     7
100
AcDbLine
 10
-1928.733673218256
 20
152.0868880915915
 30
0.0
 11
-1928.680541232804
 21
152.1846685086644
 31
0.0
  0
LINE
  5
26E
330
36
100
AcDbEntity
  8
0
  6
Continuous
 62
     7
100
AcDbLine
 10
-1928.680541232804
 20
152.1846685086644
 30
0.0
 11
-1928.671173179943
 21
152.2019088227258
 31
0.0
  0
LINE
  5
26F
330
36
100
AcDbEntity
  8
0
  6
Continuous
 62
     7
100
AcDbLine
 10
-1928.789947671668
 20
151.9687545654148
 30
0.0
 11
-1928.781703547744
 21
151.9860609517134
 31
0.0
  0
LINE
  5
270
330
36
100
AcDbEntity
  8
0
  6
Continuous
 62
     7
100
AcDbLine
 10
-1928.781703547744
 20
151.9860609517134
 30
0.0
 11
-1928.733673218256
 21
152.0868880915915
 31
0.0
  0
LINE
  5
271
330
36
100
AcDbEntity
  8
0
  6
Continuous
 62
     7
100
AcDbLine
 10
-1928.671173179943
 20
152.2019088227258
 30
0.0
 11
-1928.655868058281
 21
152.2268957816805
 31
0.0
  0
LINE
  5
272
330
36
100
AcDbEntity
  8
0
  6
Continuous
 62
     7
100
AcDbLine
 10
-1928.655868058281
 20
152.2268957816805
 30
0.0
 11
-1928.602813767767
 21
152.3135115831583
 31
0.0
  0
LINE
  5
273
330
36
100
AcDbEntity
  8
0
  6
Continuous
 62
     7
100
AcDbLine
 10
-1928.4490051035
 20
152.5252119713773
 30
0.0
 11
-1928.389118913482
 21
152.59535878672
 31
0.0
  0
LINE
  5
274
330
36
100
AcDbEntity
  8
0
  6
Continuous
 62
     7
100
AcDbLine
 10
-1928.389118913482
 20
152.59535878672
 30
0.0
 11
-1928.36404413285
 21
152.6247297653423
 31
0.0
  0
LINE
  5
275
330
36
100
AcDbEntity
  8
0
  6
Continuous
 62
     7
100
AcDbLine
 10
-1928.528717052154
 20
152.4213606795703
 30
0.0
 11
-1928.505191433166
 21
152.4520106130347
 31
0.0
  0
LINE
  5
276
330
36
100
AcDbEntity
  8
0
  6
Continuous
 62
     7
100
AcDbLine
 10
-1928.505191433166
 20
152.4520106130347
 30
0.0
 11
-1928.4490051035
 21
152.5252119713773
 31
0.0
  0
LINE
  5
277
330
36
100
AcDbEntity
  8
0
  6
Continuous
 62
     7
100
AcDbLine
 10
-1928.36404413285
 20
152.6247297653423
 30
0.0
 11
-1928.331845176391
 21
152.6586629925494
 31
0.0
  0
LINE
  5
278
330
36
100
AcDbEntity
  8
0
  6
Continuous
 62
     7
100
AcDbLine
 10
-1928.331845176391
 20
152.6586629925494
 30
0.0
 11
-1928.273956210599
 21
152.7196699208807
 31
0.0
  0
LINE
  5
279
330
36
100
AcDbEntity
  8
0
  6
Continuous
 62
     7
100
AcDbLine
 10
-1927.402007779813
 20
153.285862257386
 30
0.0
 11
-1927.349886188631
 21
153.3043241182865
 31
0.0
  0
LINE
  5
27A
330
36
100
AcDbEntity
  8
0
  6
Continuous
 62
     7
100
AcDbLine
 10
-1927.349886188631
 20
153.3043241182865
 30
0.0
 11
-1927.278716749641
 21
153.3295328706144
 31
0.0
  0
LINE
  5
27B
330
36
100
AcDbEntity
  8
0
  6
Continuous
 62
     7
100
AcDbLine
 10
-1927.867706101036
 20
153.0485882425892
 30
0.0
 11
-1927.809010961505
 21
153.0845662812526
 31
0.0
  0
LINE
  5
27C
330
36
100
AcDbEntity
  8
0
  6
Continuous
 62
     7
100
AcDbLine
 10
-1927.809010961505
 20
153.0845662812526
 30
0.0
 11
-1927.75613381263
 21
153.1169780980024
 31
0.0
  0
LINE
  5
27D
330
36
100
AcDbEntity
  8
0
  6
Continuous
 62
     7
100
AcDbLine
 10
-1928.079498144457
 20
152.8947797193876
 30
0.0
 11
-1928.018791850433
 21
152.9413259350469
 31
0.0
  0
LINE
  5
27E
330
36
100
AcDbEntity
  8
0
  6
Continuous
 62
     7
100
AcDbLine
 10
-1928.018791850433
 20
152.9413259350469
 30
0.0
 11
-1927.975616281989
 21
152.9744305636906
 31
0.0
  0
LINE
  5
27F
330
36
100
AcDbEntity
  8
0
  6
Continuous
 62
     7
100
AcDbLine
 10
-1928.178985477467
 20
152.8097577798708
 30
0.0
 11
-1928.137636371341
 21
152.8450947528672
 31
0.0
  0
LINE
  5
280
330
36
100
AcDbEntity
  8
0
  6
Continuous
 62
     7
100
AcDbLine
 10
-1928.137636371341
 20
152.8450947528672
 30
0.0
 11
-1928.079498144457
 21
152.8947797193876
 31
0.0
  0
LINE
  5
281
330
36
100
AcDbEntity
  8
0
  6
Continuous
 62
     7
100
AcDbLine
 10
-1927.975616281989
 20
152.9744305636906
 30
0.0
 11
-1927.924050933553
 21
153.0098671324907
 31
0.0
  0
LINE
  5
282
330
36
100
AcDbEntity
  8
0
  6
Continuous
 62
     7
100
AcDbLine
 10
-1927.924050933553
 20
153.0098671324907
 30
0.0
 11
-1927.867706101036
 21
153.0485882425892
 31
0.0
  0
LINE
  5
283
330
36
100
AcDbEntity
  8
0
  6
Continuous
 62
     7
100
AcDbLine
 10
-1927.641143557458
 20
153.1794170245426
 30
0.0
 11
-1927.585141740856
 21
153.206116214832
 31
0.0
  0
LINE
  5
284
330
36
100
AcDbEntity
  8
0
  6
Continuous
 62
     7
100
AcDbLine
 10
-1927.585141740856
 20
153.206116214832
 30
0.0
 11
-1927.522979476192
 21
153.2357524344007
 31
0.0
  0
LINE
  5
285
330
36
100
AcDbEntity
  8
0
  6
Continuous
 62
     7
100
AcDbLine
 10
-1927.75613381263
 20
153.1169780980024
 30
0.0
 11
-1927.696073723241
 21
153.1495903180874
 31
0.0
  0
LINE
  5
286
330
36
100
AcDbEntity
  8
0
  6
Continuous
 62
     7
100
AcDbLine
 10
-1927.696073723241
 20
153.1495903180874
 30
0.0
 11
-1927.641143557458
 21
153.1794170245426
 31
0.0
  0
LINE
  5
287
330
36
100
AcDbEntity
  8
0
  6
Continuous
 62
     7
100
AcDbLine
 10
-1927.522979476192
 20
153.2357524344007
 30
0.0
 11
-1927.453148866835
 21
153.2646782044654
 31
0.0
  0
LINE
  5
288
330
36
100
AcDbEntity
  8
0
  6
Continuous
 62
     7
100
AcDbLine
 10
-1927.453148866835
 20
153.2646782044654
 30
0.0
 11
-1927.402007779813
 21
153.285862257386
 31
0.0
  0
LINE
  5
289
330
36
100
AcDbEntity
  8
0
  6
Continuous
 62
     7
100
AcDbLine
 10
-1926.897246992572
 20
153.4211159954992
 30
0.0
 11
-1926.851632666657
 21
153.427123511206
 31
0.0
  0
LINE
  5
28A
330
36
100
AcDbEntity
  8
0
  6
Continuous
 62
     7
100
AcDbLine
 10
-1926.851632666657
 20
153.427123511206
 30
0.0
 11
-1926.767486244692
 21
153.4382057960255
 31
0.0
  0
LINE
  5
28B
330
36
100
AcDbEntity
  8
0
  6
Continuous
 62
     7
100
AcDbLine
 10
-1927.153228455999
 20
153.3667337565484
 30
0.0
 11
-1927.103088543011
 21
153.3787639529075
 31
0.0
  0
LINE
  5
28C
330
36
100
AcDbEntity
  8
0
  6
Continuous
 62
     7
100
AcDbLine
 10
-1927.103088543011
 20
153.3787639529075
 30
0.0
 11
-1927.025909109886
 21
153.3972818098411
 31
0.0
  0
LINE
  5
28D
330
36
100
AcDbEntity
  8
0
  6
Continuous
 62
     7
100
AcDbLine
 10
-1927.278716749641
 20
153.3295328706144
 30
0.0
 11
-1927.202226818886
 21
153.3522082382247
 31
0.0
  0
LINE
  5
28E
330
36
100
AcDbEntity
  8
0
  6
Continuous
 62
     7
100
AcDbLine
 10
-1927.202226818886
 20
153.3522082382247
 30
0.0
 11
-1927.153228455999
 21
153.3667337565484
 31
0.0
  0
LINE
  5
28F
330
36
100
AcDbEntity
  8
0
  6
Continuous
 62
     7
100
AcDbLine
 10
-1927.025909109886
 20
153.3972818098411
 30
0.0
 11
-1926.942875895473
 21
153.4126634084763
 31
0.0
  0
LINE
  5
290
330
36
100
AcDbEntity
  8
0
  6
Continuous
 62
     7
100
AcDbLine
 10
-1926.942875895473
 20
153.4126634084763
 30
0.0
 11
-1926.897246992572
 21
153.4211159954992
 31
0.0
  0
LINE
  5
291
330
36
100
AcDbEntity
  8
0
  6
Continuous
 62
     7
100
AcDbLine
 10
-1926.636993077203
 20
153.4484901763861
 30
0.0
 11
-1926.594233632033
 21
153.449607013313
 31
0.0
  0
LINE
  5
292
330
36
100
AcDbEntity
  8
0
  6
Continuous
 62
     7
100
AcDbLine
 10
-1926.594233632033
 20
153.449607013313
 30
0.0
 11
-1926.506133701065
 21
153.4519081015466
 31
0.0
  0
LINE
  5
293
330
36
100
AcDbEntity
  8
0
  6
Continuous
 62
     7
100
AcDbLine
 10
-1926.767486244692
 20
153.4382057960255
 30
0.0
 11
-1926.679632860494
 21
153.4451296651938
 31
0.0
  0
LINE
  5
294
330
36
100
AcDbEntity
  8
0
  6
Continuous
 62
     7
100
AcDbLine
 10
-1926.679632860494
 20
153.4451296651938
 30
0.0
 11
-1926.636993077203
 21
153.4484901763861
 31
0.0
  0
LINE
  5
295
330
36
100
AcDbEntity
  8
0
  6
Continuous
 62
     7
100
AcDbLine
 10
-1928.180039093091
 20
152.8104439407197
 30
0.0
 11
-1928.221722878716
 21
152.770903306699
 31
0.0
  0
LINE
  5
296
330
36
100
AcDbEntity
  8
0
  6
Continuous
 62
     7
100
AcDbLine
 10
-1928.221722878716
 20
152.770903306699
 30
0.0
 11
-1928.273223787932
 21
152.7220502917305
 31
0.0
  0
LINE
  5
297
330
36
100
AcDbEntity
  8
0
  6
Continuous
 62
     7
100
AcDbLine
 10
-1927.755401389963
 20
153.1193584688522
 30
0.0
 11
-1927.816425445506
 21
153.0819528872785
 31
0.0
  0
LINE
  5
298
330
36
100
AcDbEntity
  8
0
  6
Continuous
 62
     7
100
AcDbLine
 10
-1927.816425445506
 20
153.0819528872785
 30
0.0
 11
-1927.866973678368
 21
153.050968613439
 31
0.0
  0
LINE
  5
299
330
36
100
AcDbEntity
  8
0
  6
Continuous
 62
     7
100
AcDbLine
 10
-1927.975769603786
 20
152.9761620522266
 30
0.0
 11
-1928.026360030927
 21
152.9373572595859
 31
0.0
  0
LINE
  5
29A
330
36
100
AcDbEntity
  8
0
  6
Continuous
 62
     7
100
AcDbLine
 10
-1928.026360030927
 20
152.9373572595859
 30
0.0
 11
-1928.07876572179
 21
152.8971600902374
 31
0.0
  0
LINE
  5
29B
330
36
100
AcDbEntity
  8
0
  6
Continuous
 62
     7
100
AcDbLine
 10
-1927.866973678368
 20
153.050968613439
 30
0.0
 11
-1927.916231842027
 21
153.017131511027
 31
0.0
  0
LINE
  5
29C
330
36
100
AcDbEntity
  8
0
  6
Continuous
 62
     7
100
AcDbLine
 10
-1927.916231842027
 20
153.017131511027
 30
0.0
 11
-1927.974883859311
 21
152.9768414521185
 31
0.0
  0
LINE
  5
29D
330
36
100
AcDbEntity
  8
0
  6
Continuous
 62
     7
100
AcDbLine
 10
-1928.07876572179
 20
152.8971600902374
 30
0.0
 11
-1928.128611430137
 21
152.8545619154543
 31
0.0
  0
LINE
  5
29E
330
36
100
AcDbEntity
  8
0
  6
Continuous
 62
     7
100
AcDbLine
 10
-1928.128611430137
 20
152.8545619154543
 30
0.0
 11
-1928.17673055707
 21
152.8134392782705
 31
0.0
  0
LINE
  5
29F
330
36
100
AcDbEntity
  8
0
  6
Continuous
 62
     7
100
AcDbLine
 10
-1928.365200679569
 20
152.624897519447
 30
0.0
 11
-1928.398310776221
 21
152.5861144905874
 31
0.0
  0
LINE
  5
2A0
330
36
100
AcDbEntity
  8
0
  6
Continuous
 62
     7
100
AcDbLine
 10
-1928.398310776221
 20
152.5861144905874
 30
0.0
 11
-1928.448272680832
 21
152.5275923422271
 31
0.0
  0
LINE
  5
2A1
330
36
100
AcDbEntity
  8
0
  6
Continuous
 62
     7
100
AcDbLine
 10
-1928.273223787932
 20
152.7220502917305
 30
0.0
 11
-1928.32207683452
 21
152.6705659670198
 31
0.0
  0
LINE
  5
2A2
330
36
100
AcDbEntity
  8
0
  6
Continuous
 62
     7
100
AcDbLine
 10
-1928.32207683452
 20
152.6705659670198
 30
0.0
 11
-1928.361617496978
 21
152.6288956015586
 31
0.0
  0
LINE
  5
2A3
330
36
100
AcDbEntity
  8
0
  6
Continuous
 62
     7
100
AcDbLine
 10
-1928.448272680832
 20
152.5275923422271
 30
0.0
 11
-1928.495147863006
 21
152.4665218464655
 31
0.0
  0
LINE
  5
2A4
330
36
100
AcDbEntity
  8
0
  6
Continuous
 62
     7
100
AcDbLine
 10
-1928.495147863006
 20
152.4665218464655
 30
0.0
 11
-1928.52621236448
 21
152.4260500143007
 31
0.0
  0
LINE
  5
2A5
330
36
100
AcDbEntity
  8
0
  6
Continuous
 62
     7
100
AcDbLine
 10
-4291.964411800146
 20
1.44171626783839
 30
0.0
 11
-4291.964411800146
 21
3.45435054518208
 31
0.0
  0
LINE
  5
2A6
330
36
100
AcDbEntity
  8
0
  6
Continuous
 62
     7
100
AcDbLine
 10
-4266.964411800146
 20
1.44168575026032
 30
0.0
 11
-4266.964411800146
 21
3.45422847486958
 31
0.0
  0
LINE
  5
2A7
330
36
100
AcDbEntity
  8
0
  6
Continuous
 62
     7
100
AcDbLine
 10
-3448.460566585302
 20
0.44080074049458
 30
0.0
 11
-3470.460566585302
 21
0.44083125807282
 31
0.0
  0
LINE
  5
2A8
330
36
100
AcDbEntity
  8
0
  6
Continuous
 62
     7
100
AcDbLine
 10
-3470.460566585302
 20
0.46268184401032
 30
0.0
 11
-3470.460566585302
 21
0.44083125807282
 31
0.0
  0
LINE
  5
2A9
330
36
100
AcDbEntity
  8
0
  6
Continuous
 62
     7
100
AcDbLine
 10
-3471.960566585302
 20
1.44083125807282
 30
0.0
 11
-3471.960566585302
 21
3.45233638502589
 31
0.0
  0
LINE
  5
2AA
330
36
100
AcDbEntity
  8
0
  6
Continuous
 62
     7
100
AcDbLine
 10
-3448.460566585302
 20
0.44080074049458
 30
0.0
 11
-3448.460566585302
 21
0.46265132643208
 31
0.0
  0
LINE
  5
2AB
330
36
100
AcDbEntity
  8
0
  6
Continuous
 62
     7
100
AcDbLine
 10
-3446.960566585302
 20
1.44083125807282
 30
0.0
 11
-3446.960566585302
 21
3.45227534986958
 31
0.0
  0
LINE
  5
2AC
330
36
100
AcDbEntity
  8
0
  6
Continuous
 62
     7
100
AcDbLine
 10
-3444.460200374365
 20
153.4542284748696
 30
0.0
 11
-3444.460627620459
 21
3.45224483229151
 31
0.0
  0
LINE
  5
2AD
330
36
100
AcDbEntity
  8
0
  6
Continuous
 62
     7
100
AcDbLine
 10
-3474.460597102881
 20
3.45233638502589
 30
0.0
 11
-3474.460261409521
 21
123.4542589924478
 31
0.0
  0
LINE
  5
2AE
330
36
100
AcDbEntity
  8
0
  6
Continuous
 62
     7
100
AcDbLine
 10
-3471.960597102881
 20
3.45218379713532
 30
0.0
 11
-3472.460597102881
 21
3.45218379713532
 31
0.0
  0
LINE
  5
2AF
330
36
100
AcDbEntity
  8
0
  6
Continuous
 62
     7
100
AcDbLine
 10
-3472.460597102881
 20
3.45218379713532
 30
0.0
 11
-3472.460597102881
 21
3.45233638502589
 31
0.0
  0
LINE
  5
2B0
330
36
100
AcDbEntity
  8
0
  6
Continuous
 62
     7
100
AcDbLine
 10
-3446.960627620459
 20
3.45227534986958
 30
0.0
 11
-3471.960597102881
 21
3.45233638502589
 31
0.0
  0
LINE
  5
2B1
330
36
100
AcDbEntity
  8
0
  6
Continuous
 62
     7
100
AcDbLine
 10
-3474.460597102881
 20
3.45233638502589
 30
0.0
 11
-3471.960597102881
 21
3.45233638502589
 31
0.0
  0
LINE
  5
2B2
330
36
100
AcDbEntity
  8
0
  6
Continuous
 62
     7
100
AcDbLine
 10
-3474.460597102881
 20
3.45233638502589
 30
0.0
 11
-3474.460597102881
 21
3.45218379713532
 31
0.0
  0
LINE
  5
2B3
330
36
100
AcDbEntity
  8
0
  6
Continuous
 62
     7
100
AcDbLine
 10
-3472.480372493506
 20
3.45218379713532
 30
0.0
 11
-3474.460597102881
 21
3.45218379713532
 31
0.0
  0
LINE
  5
2B4
330
36
100
AcDbEntity
  8
0
  6
Continuous
 62
     7
100
AcDbLine
 10
-3472.460597102881
 20
3.45218379713532
 30
0.0
 11
-3472.480372493506
 21
3.45218379713532
 31
0.0
  0
LINE
  5
2B5
330
36
100
AcDbEntity
  8
0
  6
Continuous
 62
     7
100
AcDbLine
 10
-3446.460627620459
 20
3.45224483229151
 30
0.0
 11
-3446.460627620459
 21
3.45212276197901
 31
0.0
  0
LINE
  5
2B6
330
36
100
AcDbEntity
  8
0
  6
Continuous
 62
     7
100
AcDbLine
 10
-3446.460627620459
 20
3.45212276197901
 30
0.0
 11
-3446.960627620459
 21
3.45212276197901
 31
0.0
  0
LINE
  5
2B7
330
36
100
AcDbEntity
  8
0
  6
Continuous
 62
     7
100
AcDbLine
 10
-3446.960627620459
 20
3.45227534986958
 30
0.0
 11
-3444.460627620459
 21
3.45224483229151
 31
0.0
  0
LINE
  5
2B8
330
36
100
AcDbEntity
  8
0
  6
Continuous
 62
     7
100
AcDbLine
 10
-3444.460627620459
 20
3.45212276197901
 30
0.0
 11
-3446.960627620459
 21
3.45212276197901
 31
0.0
  0
LINE
  5
2B9
330
36
100
AcDbEntity
  8
0
  6
Continuous
 62
     7
100
AcDbLine
 10
-3444.460627620459
 20
3.45212276197901
 30
0.0
 11
-3444.460627620459
 21
3.45224483229151
 31
0.0
  0
LINE
  5
2BA
330
36
100
AcDbEntity
  8
0
  6
Continuous
 62
     7
100
AcDbLine
 10
-4266.965418880224
 20
3.45422847486958
 30
0.0
 11
-4264.465418880224
 21
3.45422847486958
 31
0.0
  0
LINE
  5
2BB
330
36
100
AcDbEntity
  8
0
  6
Continuous
 62
     7
100
AcDbLine
 10
-4266.965418880224
 20
3.45422847486958
 30
0.0
 11
-4291.965388362646
 21
3.45435054518208
 31
0.0
  0
LINE
  5
2BC
330
36
100
AcDbEntity
  8
0
  6
Continuous
 62
     7
100
AcDbLine
 10
-4294.465388362646
 20
3.45438106276032
 30
0.0
 11
-4291.965388362646
 21
3.45435054518208
 31
0.0
  0
LINE
  5
2BD
330
36
100
AcDbEntity
  8
0
  6
Continuous
 62
     7
100
AcDbLine
 10
-4264.464778011084
 20
123.4563036701821
 30
0.0
 11
-4264.465418880224
 21
3.45422847486958
 31
0.0
  0
LINE
  5
2BE
330
36
100
AcDbEntity
  8
0
  6
Continuous
 62
     7
100
AcDbLine
 10
-4294.465388362646
 20
3.45438106276032
 30
0.0
 11
-4294.464594905615
 21
153.456517293229
 31
0.0
  0
LINE
  5
2BF
330
36
100
AcDbEntity
  8
0
  6
Continuous
 62
     7
100
AcDbLine
 10
-3444.462519710302
 20
153.4519091389321
 30
0.0
 11
-4294.462367122412
 21
153.4542895100259
 31
0.0
  0
LINE
  5
2C0
330
36
100
AcDbEntity
  8
0
  6
Continuous
 62
     7
100
AcDbLine
 10
-4264.464381289708
 20
123.4563647028859
 30
0.0
 11
-4264.464503352881
 21
3.46133907057282
 31
0.0
  0
LINE
  5
2C1
330
36
100
AcDbEntity
  8
0
  6
Continuous
 62
     7
100
AcDbLine
 10
-3444.45995623374
 20
153.4624682209634
 30
0.0
 11
-3444.459742610693
 21
3.46048457838532
 31
0.0
  0
LINE
  5
2C2
330
36
100
AcDbEntity
  8
0
  6
Continuous
 62
     7
100
AcDbLine
 10
-4294.462031429053
 20
153.4613085529946
 30
0.0
 11
-4177.464413611858
 21
153.4611825358962
 31
0.0
  0
LINE
  5
2C3
330
36
100
AcDbEntity
  8
0
  6
Continuous
 62
     7
100
AcDbLine
 10
-4127.46428444686
 20
153.4611286811997
 30
0.0
 11
-4101.969074838095
 21
153.4611012205352
 31
0.0
  0
LINE
  5
2C4
330
36
100
AcDbEntity
  8
0
  6
Continuous
 62
     7
100
AcDbLine
 10
-4066.86813404867
 20
153.4610634136226
 30
0.0
 11
-3827.964677159093
 21
153.4608060928241
 31
0.0
  0
LINE
  5
2C5
330
36
100
AcDbEntity
  8
0
  6
Continuous
 62
     7
100
AcDbLine
 10
-3695.964187211511
 20
153.4606639162649
 30
0.0
 11
-3611.460128469292
 21
153.4605728976913
 31
0.0
  0
LINE
  5
2C6
330
36
100
AcDbEntity
  8
0
  6
Continuous
 62
     7
100
AcDbLine
 10
-3561.460087966189
 20
153.4605190430903
 30
0.0
 11
-3444.462153499365
 21
153.4603930256509
 31
0.0
  0
LINE
  5
2C7
330
36
100
AcDbEntity
  8
0
  6
Continuous
 62
     7
100
AcDbLine
 10
-3444.462153499365
 20
153.4602404377603
 30
0.0
 11
-3561.460100632175
 21
153.4603664552134
 31
0.0
  0
LINE
  5
2C8
330
36
100
AcDbEntity
  8
0
  6
Continuous
 62
     7
100
AcDbLine
 10
-3611.460115803307
 20
153.4604203097871
 30
0.0
 11
-3695.964187211511
 21
153.4605113283743
 31
0.0
  0
LINE
  5
2C9
330
36
100
AcDbEntity
  8
0
  6
Continuous
 62
     7
100
AcDbLine
 10
-3827.964677159093
 20
153.4606535049335
 30
0.0
 11
-4066.868159380641
 21
153.4609108257592
 31
0.0
  0
LINE
  5
2CA
330
36
100
AcDbEntity
  8
0
  6
Continuous
 62
     7
100
AcDbLine
 10
-4101.969100170065
 20
153.4609486326718
 30
0.0
 11
-4127.46430977883
 21
153.4609760933364
 31
0.0
  0
LINE
  5
2CB
330
36
100
AcDbEntity
  8
0
  6
Continuous
 62
     7
100
AcDbLine
 10
-4177.464400945873
 20
153.4610299479919
 30
0.0
 11
-4294.462031429052
 21
153.461155965104
 31
0.0
  0
LINE
  5
2CC
330
36
100
AcDbEntity
  8
0
  6
Continuous
 62
     7
100
AcDbLine
 10
-4294.462031429053
 20
153.4613085529946
 30
0.0
 11
-4177.464413611858
 21
153.4611825358962
 31
0.0
  0
LINE
  5
2CD
330
36
100
AcDbEntity
  8
0
  6
Continuous
 62
     7
100
AcDbLine
 10
-4127.46428444686
 20
153.4611286811997
 30
0.0
 11
-4101.969074838095
 21
153.4611012205352
 31
0.0
  0
LINE
  5
2CE
330
36
100
AcDbEntity
  8
0
  6
Continuous
 62
     7
100
AcDbLine
 10
-4066.86813404867
 20
153.4610634136226
 30
0.0
 11
-3827.964677159093
 21
153.4608060928241
 31
0.0
  0
LINE
  5
2CF
330
36
100
AcDbEntity
  8
0
  6
Continuous
 62
     7
100
AcDbLine
 10
-3695.964187211511
 20
153.4606639162649
 30
0.0
 11
-3611.460128469292
 21
153.4605728976913
 31
0.0
  0
LINE
  5
2D0
330
36
100
AcDbEntity
  8
0
  6
Continuous
 62
     7
100
AcDbLine
 10
-3561.460087966189
 20
153.4605190430903
 30
0.0
 11
-3444.462153499365
 21
153.4603930256509
 31
0.0
  0
ARC
  5
2D1
330
36
100
AcDbEntity
  8
0
  6
Continuous
 62
     7
100
AcDbCircle
 10
-115.5057570835443
 20
1.46046412411198
 30
0.0
 40
1.000000000000056
100
AcDbArc
 50
179.9999809146493
 51
-90.00001908541331
  0
ARC
  5
2D2
330
36
100
AcDbEntity
  8
0
  6
Continuous
 62
     7
100
AcDbCircle
 10
-92.50575708345468
 20
1.46073112096599
 30
0.0
 40
0.9999999999999413
100
AcDbArc
 50
-90.0000190853897
 51
-0.00001908534406
  0
ARC
  5
2D3
330
36
100
AcDbEntity
  8
0
  6
Continuous
 62
     7
100
AcDbCircle
 10
-1925.505329844101
 20
1.44079936973083
 30
0.0
 40
1.000000000000056
100
AcDbArc
 50
179.9999809146559
 51
-90.00001908533758
  0
ARC
  5
2D4
330
36
100
AcDbEntity
  8
0
  6
Continuous
 62
     7
100
AcDbCircle
 10
-1902.505329844011
 20
1.44106636658489
 30
0.0
 40
1.000000000000056
100
AcDbArc
 50
-90.00001908533758
 51
-0.00001908535067
  0
ARC
  5
2D5
330
36
100
AcDbEntity
  8
0
  6
Continuous
 62
     7
100
AcDbCircle
 10
-4290.964411800146
 20
1.44171626783839
 30
0.0
 40
1.0
100
AcDbArc
 50
180.0
 51
-90.0
  0
ARC
  5
2D6
330
36
100
AcDbEntity
  8
0
  6
Continuous
 62
     7
100
AcDbCircle
 10
-4267.964411800146
 20
1.44168575026032
 30
0.0
 40
0.9999999999999998
100
AcDbArc
 50
-90.0
 51
0.0
  0
ARC
  5
2D7
330
36
100
AcDbEntity
  8
0
  6
Continuous
 62
     7
100
AcDbCircle
 10
-3470.960566585302
 20
1.44083125807282
 30
0.0
 40
1.0
100
AcDbArc
 50
180.0
 51
-90.0
  0
ARC
  5
2D8
330
36
100
AcDbEntity
  8
0
  6
Continuous
 62
     7
100
AcDbCircle
 10
-3447.960566585302
 20
1.44083125807282
 30
0.0
 40
0.9999999999999998
100
AcDbArc
 50
-90.0
 51
0.0
  0
SPLINE
  5
2D9
330
36
100
AcDbEntity
  8
0
  6
Continuous
 62
     7
100
AcDbSpline
210
0.0
220
0.0
230
1.0
 70
     8
 71
     3
 72
    15
 73
    11
 74
     9
 42
0.0000000001
 43
0.0000000001
 44
0.00000001
 40
0.0
 40
0.0
 40
0.0
 40
0.0
 40
1.746486699346731
 40
3.364110518680627
 40
4.798696111159149
 40
6.002199480010054
 40
6.934313965555432
 40
7.563823801765493
 40
7.86964537508651
 40
7.897754212659786
 40
7.897754212659786
 40
7.897754212659786
 40
7.897754212659786
 10
-4093.367533748356
 20
91.09083649927612
 30
0.0
 10
-4092.784933192081
 20
91.09085474376185
 30
0.0
 10
-4091.662718714129
 20
91.09088988658107
 30
0.0
 10
-4090.068908511387
 20
91.09102391710758
 30
0.0
 10
-4088.632150190531
 20
91.09110144230664
 30
0.0
 10
-4087.494109658471
 20
91.09147717872193
 30
0.0
 10
-4086.440370693568
 20
91.09117599531652
 30
0.0
 10
-4086.091780913369
 20
91.09242342400829
 30
0.0
 10
-4085.394270979814
 20
91.09118205316719
 30
0.0
 10
-4085.515769080937
 20
91.09222390267448
 30
0.0
 10
-4085.525996272826
 20
91.09231160112188
 30
0.0
 11
-4093.367533748356
 21
91.09083649927612
 31
0.0
 11
-4091.621047050436
 21
91.09090708555574
 31
0.0
 11
-4090.003423235092
 21
91.09102070161913
 31
0.0
 11
-4088.568837650755
 21
91.09117354257693
 31
0.0
 11
-4087.365334296424
 21
91.09136048959823
 31
0.0
 11
-4086.433219835627
 21
91.0915752818775
 31
0.0
 11
-4085.803710043446
 21
91.09181072585864
 31
0.0
 11
-4085.497888570851
 21
91.09205893650376
 31
0.0
 11
-4085.525996272826
 21
91.09231160112188
 31
0.0
  0
SPLINE
  5
2DA
330
36
100
AcDbEntity
  8
0
  6
Continuous
 62
     7
100
AcDbSpline
210
0.0
220
0.0
230
1.0
 70
     8
 71
     3
 72
    23
 73
    19
 74
    17
 42
0.0000000001
 43
0.0000000001
 44
0.00000001
 40
0.0
 40
0.0
 40
0.0
 40
0.0
 40
0.3993762290337687
 40
1.165498597623516
 40
2.268927359934295
 40
3.667257092793721
 40
5.306752383788842
 40
7.124407702714121
 40
9.050372677328685
 40
11.01063364122435
 40
12.92985928888579
 40
14.73429566346674
 40
16.35459896919245
 40
17.72850326639105
 40
18.80320917450917
 40
19.53741814719533
 40
19.90291342918343
 40
19.92017798292918
 40
19.92017798292918
 40
19.92017798292918
 40
19.92017798292918
 10
-4085.525996272826
 20
91.09231160112188
 30
0.0
 10
-4085.659121650153
 20
91.09240800932102
 30
0.0
 10
-4086.047621088287
 20
91.09268935711478
 30
0.0
 10
-4086.803930164412
 20
91.09285270509184
 30
0.0
 10
-4087.893224079464
 20
91.0930925502183
 30
0.0
 10
-4089.273640255162
 20
91.09326627963088
 30
0.0
 10
-4090.892141916108
 20
91.09341710735744
 30
0.0
 10
-4092.68647818636
 20
91.09351858409391
 30
0.0
 10
-4094.587915935506
 20
91.09357410431693
 30
0.0
 10
-4096.522517815081
 20
91.09357313063339
 30
0.0
 10
-4098.419131419616
 20
91.0935393517502
 30
0.0
 10
-4100.193777719475
 20
91.09339392347167
 30
0.0
 10
-4101.814417288672
 20
91.09340464073512
 30
0.0
 10
-4103.109539480483
 20
91.09278225499887
 30
0.0
 10
-4104.327926784369
 20
91.0937133585218
 30
0.0
 10
-4104.720766142955
 20
91.09109258042933
 30
0.0
 10
-4105.55154886267
 20
91.0942114970203
 30
0.0
 10
-4105.417684901479
 20
91.09216459687208
 30
0.0
 10
-4105.41164690758
 20
91.09207227052451
 30
0.0
 11
-4085.525996272826
 21
91.09231160112188
 31
0.0
 11
-4085.925372413249
 21
91.09257764243608
 31
0.0
 11
-4086.69149474065
 21
91.09282886114113
 31
0.0
 11
-4087.794923479665
 21
91.09305560300408
 31
0.0
 11
-4089.193253199129
 21
91.09324915465265
 31
0.0
 11
-4090.832748482992
 21
91.09340207787025
 31
0.0
 11
-4092.650403798802
 21
91.09350849614847
 31
0.0
 11
-4094.576368772608
 21
91.09356431968132
 31
0.0
 11
-4096.536629736501
 21
91.09356740346451
 31
0.0
 11
-4098.455855383517
 21
91.09351762873496
 31
0.0
 11
-4100.260291755287
 21
91.09341690854771
 31
0.0
 11
-4101.880595054272
 21
91.0932691132633
 31
0.0
 11
-4103.254499338445
 21
91.09307992275271
 31
0.0
 11
-4104.329205223361
 21
91.09285660727593
 31
0.0
 11
-4105.063414153872
 21
91.09260774881599
 31
0.0
 11
-4105.428909339909
 21
91.09234291070771
 31
0.0
 11
-4105.41164690758
 21
91.09207227052451
 31
0.0
  0
SPLINE
  5
2DB
330
36
100
AcDbEntity
  8
0
  6
Continuous
 62
     7
100
AcDbSpline
210
0.0
220
0.0
230
1.0
 70
     8
 71
     3
 72
    15
 73
    11
 74
     9
 42
0.0000000001
 43
0.0000000001
 44
0.00000001
 40
0.0
 40
0.0
 40
0.0
 40
0.0
 40
0.4392790105035331
 40
1.29391030194781
 40
2.526544645313066
 40
4.083307450829693
 40
5.896162068277928
 40
7.885876159790483
 40
9.965489914593837
 40
12.04411333586714
 40
12.04411333586714
 40
12.04411333586714
 40
12.04411333586714
 10
-4105.41164690758
 20
91.09207227052451
 30
0.0
 10
-4105.265220605328
 20
91.09196948432407
 30
0.0
 10
-4104.833917273208
 20
91.09166672430024
 30
0.0
 10
-4103.991735714406
 20
91.09149899821489
 30
0.0
 10
-4102.777059605583
 20
91.09124735905536
 30
0.0
 10
-4101.242975687013
 20
91.09107230389101
 30
0.0
 10
-4099.456531856599
 20
91.09092536711964
 30
0.0
 10
-4097.495804369721
 20
91.09083682435272
 30
0.0
 10
-4095.446487280652
 20
91.0907987533387
 30
0.0
 10
-4094.060408222062
 20
91.09082391929485
 30
0.0
 10
-4093.367533748356
 20
91.09083649927612
 30
0.0
 11
-4105.41164690758
 21
91.09207227052451
 31
0.0
 11
-4104.97236798847
 21
91.09178890721131
 31
0.0
 11
-4104.117736738343
 21
91.09152315797161
 31
0.0
 11
-4102.88510241767
 21
91.09128663754815
 31
0.0
 11
-4101.328339624613
 21
91.09108968287376
 31
0.0
 11
-4099.515485013269
 21
91.09094090214602
 31
0.0
 11
-4097.525770923982
 21
91.09084679751936
 31
0.0
 11
-4095.446157169479
 21
91.09081148220042
 31
0.0
 11
-4093.367533748356
 21
91.09083649927612
 31
0.0
  0
SPLINE
  5
2DC
330
36
100
AcDbEntity
  8
0
  6
Continuous
 62
     7
100
AcDbSpline
210
0.0
220
0.0
230
1.0
 70
    11
 71
     3
 72
   589
 73
   585
 74
   583
 42
0.0000000001
 43
0.0000000001
 44
0.00000001
 40
0.0
 40
0.0
 40
0.0
 40
0.0
 40
0.0003452486483755
 40
0.0013798785770703
 40
0.0031029499335224
 40
0.0055134488313693
 40
0.0086103531590418
 40
0.0123926385573059
 40
0.016859279807476
 40
0.0220092512862733
 40
0.0278415271571857
 40
0.0343550814602511
 40
0.0415488881590858
 40
0.0494219211692852
 40
0.0579731543689162
 40
0.0672015616167439
 40
0.0771061167488067
 40
0.0876857935928775
 40
0.0989395659661131
 40
0.1108664076745443
 40
0.1234652925246996
 40
0.1367351943138954
 40
0.1506750868366026
 40
0.165283943885146
 40
0.1805607392475188
 40
0.1965044467114482
 40
0.2131140400610981
 40
0.2303884930827999
 40
0.248326779556179
 40
0.2669278732652513
 40
0.2861907479885677
 40
0.3061143775075246
 40
0.3266977356019201
 40
0.3479397960482228
 40
0.3698395326251026
 40
0.3923959191098556
 40
0.4156079292802773
 40
0.4394745369137992
 40
0.4639947157848002
 40
0.4891674396700985
 40
0.5149916823471621
 40
0.5414664175895882
 40
0.5685906191744022
 40
0.5963632608748016
 40
0.6247833164692693
 40
0.6538497597288562
 40
0.6835615644299282
 40
0.7139177043487223
 40
0.7449171532577187
 40
0.7765588849320184
 40
0.8088418731466229
 40
0.8417650916746238
 40
0.8774717837971116
 40
0.9138597828301541
 40
0.9509256268428493
 40
0.98866585390784
 40
1.027077002091317
 40
1.066155609466669
 40
1.105898214102664
 40
1.146301354068912
 40
1.187361567435872
 40
1.229075392272122
 40
1.271439366649829
 40
1.314450028635651
 40
1.358103916299837
 40
1.402397567714413
 40
1.447327520946816
 40
1.492890314066264
 40
1.53908248514376
 40
1.585900572245726
 40
1.633341113445828
 40
1.681400646810427
 40
1.730075710410407
 40
1.779362842313894
 40
1.829258580589901
 40
1.879759463309238
 40
1.930862028539965
 40
1.982562814351939
 40
2.034858358814092
 40
2.087745199995335
 40
2.141219875966381
 40
2.195278924794291
 40
2.24991888454793
 40
2.305136293298875
 40
2.360927689114144
 40
2.417289610064378
 40
2.47421859421748
 40
2.531711179643158
 40
2.589763904409293
 40
2.648373306586481
 40
2.707535924242582
 40
2.767248295447264
 40
2.827506958270186
 40
2.888308450780092
 40
2.949649311044806
 40
3.011526077133963
 40
3.073935287117191
 40
3.136873479062295
 40
3.200337191038888
 40
3.279499829656446
 40
3.359345122218071
 40
3.439863603267319
 40
3.521045807343181
 40
3.602882268989184
 40
3.685363522747017
 40
3.768480103158357
 40
3.85222254476669
 40
3.936581382112756
 40
4.021547149737288
 40
4.107110382184644
 40
4.193261613995532
 40
4.279991379709745
 40
4.36729021387252
 40
4.45514865102363
 40
4.543557225705567
 40
4.632506472460817
 40
4.721986925830038
 40
4.811989120354792
 40
4.902503590578451
 40
4.993520871042566
 40
5.08503149628595
 40
5.177026000854687
 40
5.269494919288491
 40
5.362428786127978
 40
5.455818135917402
 40
5.54965350319646
 40
5.643925422507578
 40
5.738624428393175
 40
5.833741055395668
 40
5.929265838053833
 40
6.02518931091281
 40
6.121502008511369
 40
6.218194465393734
 40
6.315257216100489
 40
6.412680795173127
 40
6.510455737154047
 40
6.608572576584736
 40
6.786737386984462
 40
6.965493552518602
 40
7.144778825278727
 40
7.324530957358197
 40
7.504687700844889
 40
7.685186807832116
 40
7.865966030408624
 40
8.046963120668149
 40
8.228115830698956
 40
8.409361912594303
 40
8.590639118443809
 40
8.771885200338453
 40
8.953037910370126
 40
9.134035000628904
 40
9.314814223206238
 40
9.495313330193586
 40
9.675470073680605
 40
9.855222205758334
 40
10.0345074785192
 40
10.21326364405429
 40
10.3914284544538
 40
10.48954529388405
 40
10.58732023586502
 40
10.68474381493818
 40
10.78180656564414
 40
10.87849902252665
 40
10.9748117201263
 40
11.07073519298324
 40
11.16625997564305
 40
11.26137660264451
 40
11.35607560853005
 40
11.45034752784206
 40
11.54418289512163
 40
11.63757224490981
 40
11.7305061117504
 40
11.82297503018401
 40
11.91496953475172
 40
12.00648015999643
 40
12.09749744045968
 40
12.18801191068302
 40
12.278014105208
 40
12.36749455857708
 40
12.45644380533275
 40
12.54485238001429
 40
12.63271081716511
 40
12.72000965132771
 40
12.80673941704321
 40
12.89289064885369
 40
12.9784538813003
 40
13.06341964892512
 40
13.14777848627114
 40
13.23152092787865
 40
13.31463750829112
 40
13.3971187620493
 40
13.47895522369443
 40
13.56013742777093
 40
13.64065590881869
 40
13.72050120138124
 40
13.79966383999898
 40
13.86312755197532
 40
13.92606574392109
 40
13.98847495390409
 40
14.05035171999303
 40
14.11169258025755
 40
14.17249407276683
 40
14.23275273559006
 40
14.29246510679462
 40
14.35162772445155
 40
14.41023712662914
 40
14.46828985139527
 40
14.52578243682098
 40
14.58271142097416
 40
14.63907334192315
 40
14.69486473773905
 40
14.75008214648978
 40
14.80472210624371
 40
14.85878115507152
 40
14.91225583104208
 40
14.96514267222382
 40
15.01743821668608
 40
15.06913900249733
 40
15.12024156772786
 40
15.17074245044755
 40
15.22063818872444
 40
15.26992532062754
 40
15.31860038422722
 40
15.36665991759208
 40
15.41410045879162
 40
15.4609185458945
 40
15.50711071697165
 40
15.55267351009223
 40
15.59760346332268
 40
15.6418971147377
 40
15.68555100240291
 40
15.72856166438806
 40
15.77092563876567
 40
15.81263946360195
 40
15.85369967696817
 40
15.89410281693472
 40
15.9338454215707
 40
15.97292402894618
 40
16.01133517713084
 40
16.04907540419398
 40
16.08614124820726
 40
16.12252924724012
 40
16.15823593936305
 40
16.19115915789145
 40
16.22344214610489
 40
16.25508387777919
 40
16.28608332668891
 40
16.31643946660732
 40
16.34615127130874
 40
16.37521771456894
 40
16.40363777016203
 40
16.4314104118636
 40
16.4585346134485
 40
16.48500934869039
 40
16.51083359136721
 40
16.53600631525302
 40
16.56052649412391
 40
16.58439310175716
 40
16.60760511192762
 40
16.63016149841317
 40
16.6520612349898
 40
16.67330329543571
 40
16.69388665352957
 40
16.71381028304922
 40
16.7330731577731
 40
16.7516742514817
 40
16.76961253795585
 40
16.78688699097684
 40
16.80349658432748
 40
16.81944029179137
 40
16.8347170871536
 40
16.84932594420189
 40
16.86326583672424
 40
16.87653573851298
 40
16.8891346233635
 40
16.90106146507356
 40
16.9123152374456
 40
16.92289491428977
 40
16.93279946942184
 40
16.94202787666914
 40
16.95057910986908
 40
16.95845214287861
 40
16.96564594957807
 40
16.97215950388169
 40
16.97799177975219
 40
16.98314175123052
 40
16.98760839248108
 40
16.99139067787968
 40
16.99448758220718
 40
16.99689808110481
 40
16.99862115246147
 40
16.99965578239033
 40
17.00000103103838
 40
17.00034627968676
 40
17.00138090961545
 40
17.00310398097145
 40
17.00551447986975
 40
17.00861138419651
 40
17.01239366959569
 40
17.01686031084631
 40
17.02201028232465
 40
17.02784255819511
 40
17.03435611249772
 40
17.04154991919837
 40
17.04942295220721
 40
17.05797418540775
 40
17.06720259265421
 40
17.07710714778628
 40
17.08768682463126
 40
17.09894059700358
 40
17.11086743871338
 40
17.12346632356308
 40
17.13673622535273
 40
17.15067611787453
 40
17.16528497492262
 40
17.18056177028544
 40
17.19650547774937
 40
17.21311507109948
 40
17.23038952412072
 40
17.24832781059456
 40
17.26692890430408
 40
17.2861917790274
 40
17.30611540854727
 40
17.3266987666403
 40
17.34794082708615
 40
17.36984056366394
 40
17.39239695014914
 40
17.41560896031956
 40
17.43947556795263
 40
17.46399574682318
 40
17.48916847070938
 40
17.51499271338599
 40
17.54146744862842
 40
17.56859165021233
 40
17.59636429191454
 40
17.62478434750765
 40
17.65385079076769
 40
17.68356259547013
 40
17.71391873538801
 40
17.74491818429746
 40
17.77655991597176
 40
17.80884290418545
 40
17.84176612271391
 40
17.87747281483685
 40
17.9138608138699
 40
17.95092665788305
 40
17.98866688494622
 40
18.0270780331306
 40
18.06615664050596
 40
18.10589924514241
 40
18.1463023851082
 40
18.1873625984747
 40
18.22907642331141
 40
18.27144039768821
 40
18.31445105967312
 40
18.35810494733912
 40
18.40239859875415
 40
18.44732855198565
 40
18.49289134510509
 40
18.53908351618214
 40
18.58590160328592
 40
18.63334214448511
 40
18.68140167784971
 40
18.73007674144924
 40
18.77936387335227
 40
18.82925961162919
 40
18.87976049434807
 40
18.93086305957925
 40
18.98256384539123
 40
19.03485938985338
 40
19.08774623103507
 40
19.14122090700521
 40
19.19527995583312
 40
19.24991991558676
 40
19.30513732433816
 40
19.36092872015388
 40
19.41729064110321
 40
19.47421962525631
 40
19.53171221068153
 40
19.58976493544858
 40
19.64837433762576
 40
19.70753695528232
 40
19.76724932648746
 40
19.82750798930992
 40
19.88830948181892
 40
19.94965034208409
 40
20.0115271081737
 40
20.07393631815602
 40
20.13687451010203
 40
20.20033822207862
 40
20.27950086069664
 40
20.35934615325826
 40
20.43986463430614
 40
20.52104683838201
 40
20.60288330002801
 40
20.6853645537863
 40
20.76848113419855
 40
20.85222357580643
 40
20.93658241315204
 40
21.02154818077748
 40
21.10711141322302
 40
21.19326264503345
 40
21.27999241074948
 40
21.3672912449118
 40
21.45514968206336
 40
21.54355825674485
 40
21.6325075035001
 40
21.72198795686886
 40
21.81199015139362
 40
21.90250462161728
 40
21.99352190208048
 40
22.08503252732477
 40
22.17702703189306
 40
22.2694959503255
 40
22.36242981716635
 40
22.45581916695441
 40
22.54965453423392
 40
22.6439264535464
 40
22.73862545943155
 40
22.83374208643359
 40
22.92926686909221
 40
23.02519034195118
 40
23.12150303954929
 40
23.21819549643166
 40
23.31525824713932
 40
23.4126818262115
 40
23.51045676819197
 40
23.60857360762266
 40
23.78673841802147
 40
23.96549458355652
 40
24.14477985631756
 40
24.32453198839612
 40
24.50468873188235
 40
24.68518783886958
 40
24.86596706144745
 40
25.04696415170698
 40
25.22811686173733
 40
25.40936294363268
 40
25.59064014948173
 40
25.77188623137728
 40
25.95303894140896
 40
26.13403603166728
 40
26.31481525424461
 40
26.4953143612315
 40
26.67547110471852
 40
26.85522323679625
 40
27.03450850955803
 40
27.21326467509266
 40
27.39142948549171
 40
27.48954632492197
 40
27.58732126690339
 40
27.68474484597565
 40
27.78180759668297
 40
27.87850005356411
 40
27.97481275116423
 40
28.07073622402298
 40
28.16626100668097
 40
28.26137763368335
 40
28.35607663956797
 40
28.45034855887998
 40
28.5441839261591
 40
28.63757327594864
 40
28.73050714278832
 40
28.82297606122238
 40
28.91497056578964
 40
29.00648119103435
 40
29.09749847149806
 40
29.1880129417214
 40
29.27801513624592
 40
29.36749558961591
 40
29.45644483637021
 40
29.54485341105221
 40
29.63271184820349
 40
29.72001068236654
 40
29.80674044808113
 40
29.8928916798907
 40
29.97845491233777
 40
30.06342067996304
 40
30.14777951730906
 40
30.23152195891748
 40
30.31463853932904
 40
30.39711979308722
 40
30.47895625473372
 40
30.56013845880931
 40
30.64065693985752
 40
30.72050223241917
 40
30.7996648710369
 40
30.86312858301415
 40
30.92606677495856
 40
30.98847598494247
 40
31.05035275103096
 40
31.11169361129639
 40
31.17249510380566
 40
31.23275376662753
 40
31.29246613783346
 40
31.35162875548947
 40
31.41023815766615
 40
31.46829088243319
 40
31.52578346785844
 40
31.58271245201162
 40
31.63907437296153
 40
31.69486576877698
 40
31.7500831775277
 40
31.80472313728254
 40
31.85878218611035
 40
31.91225686208
 40
31.96514370326219
 40
32.01743924772309
 40
32.06914003353525
 40
32.12024259876669
 40
32.17074348148547
 40
32.22063921976236
 40
32.26992635166546
 40
32.31860141526469
 40
32.36666094863
 40
32.41410148982955
 40
32.46091957693334
 40
32.50711174801049
 40
32.55267454113015
 40
32.59760449436243
 40
32.64189814577564
 40
32.68555203344084
 40
32.72856269542735
 40
32.7709266698045
 40
32.81264049464079
 40
32.85370070800746
 40
32.89410384797401
 40
32.93384645260999
 40
32.97292505998502
 40
33.01133620816968
 40
33.04907643523282
 40
33.08614227924609
 40
33.12253027827941
 40
33.15823697040189
 40
33.19116018893029
 40
33.22344317714418
 40
33.25508490881849
 40
33.2860843577273
 40
33.31644049764662
 40
33.34615230234804
 40
33.3752187456087
 40
33.40363880120133
 40
33.43141144290245
 40
33.45853564448781
 40
33.4850103797297
 40
33.51083462240698
 40
33.53600734629323
 40
33.56052752516413
 40
33.58439413279648
 40
33.60760614296739
 40
33.6301625294534
 40
33.65206226602867
 40
33.67330432647503
 40
33.69388768456844
 40
33.71381131408718
 40
33.73307418881198
 40
33.75167528252058
 40
33.76961356899518
 40
33.78688802201617
 40
33.80349761536681
 40
33.8194413228298
 40
33.83471811819293
 40
33.84932697524032
 40
33.86326686776358
 40
33.87653676955232
 40
33.88913565440283
 40
33.90106249611244
 40
33.91231626848494
 40
33.9228959453291
 40
33.93280050046118
 40
33.94202890770803
 40
33.95058014090842
 40
33.95845317391841
 40
33.96564698061696
 40
33.97216053491967
 40
33.97799281079109
 40
33.98314278226941
 40
33.98760942351997
 40
33.99139170891857
 40
33.99448861324562
 40
33.99689911214371
 40
33.99862218350036
 40
33.99965681342831
 40
34.00000206207682
 40
34.00000206207682
 40
34.00000206207682
 40
34.00000206207682
 10
-4103.968816688559
 20
91.0922156392291
 30
0.0
 10
-4103.968701666062
 20
91.09221180829808
 30
0.0
 10
-4103.968241947888
 20
91.09219649695746
 30
0.0
 10
-4103.967207484812
 20
91.09219505965002
 30
0.0
 10
-4103.965484882655
 20
91.09218089884303
 30
0.0
 10
-4103.963074699424
 20
91.09217263345596
 30
0.0
 10
-4103.95997817138
 20
91.09216158436148
 30
0.0
 10
-4103.956196235342
 20
91.09215147274064
 30
0.0
 10
-4103.951729950255
 20
91.09214096213829
 30
0.0
 10
-4103.946580330506
 20
91.09213055239204
 30
0.0
 10
-4103.940748406183
 20
91.0921200907277
 30
0.0
 10
-4103.934235202182
 20
91.09210963699891
 30
0.0
 10
-4103.927041745113
 20
91.0920991785562
 30
0.0
 10
-4103.919169061061
 20
91.09208872392713
 30
0.0
 10
-4103.910618176283
 20
91.09207827386081
 30
0.0
 10
-4103.901390116987
 20
91.09206783076462
 30
0.0
 10
-4103.891485909401
 20
91.0920573960517
 30
0.0
 10
-4103.880906579747
 20
91.09204697110053
 30
0.0
 10
-4103.869653154251
 20
91.0920365570651
 30
0.0
 10
-4103.857726659137
 20
91.09202615499706
 30
0.0
 10
-4103.845128120636
 20
91.09201576585437
 30
0.0
 10
-4103.831858564967
 20
91.09200539052966
 30
0.0
 10
-4103.81791901836
 20
91.09199502986446
 30
0.0
 10
-4103.803310507042
 20
91.09198468466092
 30
0.0
 10
-4103.788034057242
 20
91.09197435569023
 30
0.0
 10
-4103.77209069518
 20
91.09196404369901
 30
0.0
 10
-4103.755481447093
 20
91.09195374941449
 30
0.0
 10
-4103.738207339196
 20
91.09194347354772
 30
0.0
 10
-4103.720269397727
 20
91.09193321679712
 30
0.0
 10
-4103.70166864891
 20
91.09192297985024
 30
0.0
 10
-4103.682406118965
 20
91.09191276338585
 30
0.0
 10
-4103.662482834127
 20
91.09190256807553
 30
0.0
 10
-4103.641899820622
 20
91.09189239458443
 30
0.0
 10
-4103.620658104672
 20
91.09188224357268
 30
0.0
 10
-4103.598758712513
 20
91.09187211569602
 30
0.0
 10
-4103.576202670362
 20
91.0918620116062
 30
0.0
 10
-4103.552991004455
 20
91.09185193195192
 30
0.0
 10
-4103.529124741015
 20
91.09184187737917
 30
0.0
 10
-4103.504604906267
 20
91.0918318485311
 30
0.0
 10
-4103.479432526443
 20
91.09182184604941
 30
0.0
 10
-4103.453608627768
 20
91.09181187057338
 30
0.0
 10
-4103.427134236468
 20
91.09180192274111
 30
0.0
 10
-4103.400010378773
 20
91.09179200318894
 30
0.0
 10
-4103.372238080907
 20
91.09178211255232
 30
0.0
 10
-4103.3438183691
 20
91.09177225146534
 30
0.0
 10
-4103.314752269575
 20
91.09176242056128
 30
0.0
 10
-4103.285040808565
 20
91.09175262047252
 30
0.0
 10
-4103.254685012294
 20
91.09174285183062
 30
0.0
 10
-4103.223685906988
 20
91.09173311526641
 30
0.0
 10
-4103.192044518878
 20
91.09172341141034
 30
0.0
 10
-4103.159761874185
 20
91.09171374089171
 30
0.0
 10
-4103.126124242672
 20
91.09170389513196
 30
0.0
 10
-4103.091118274208
 20
91.09169388753844
 30
0.0
 10
-4103.054731430569
 20
91.09168373087654
 30
0.0
 10
-4103.01766674191
 20
91.09167362575889
 30
0.0
 10
-4102.979927670161
 20
91.09166357279999
 30
0.0
 10
-4102.941517677255
 20
91.09165357261483
 30
0.0
 10
-4102.902440225123
 20
91.09164362581753
 30
0.0
 10
-4102.862698775695
 20
91.09163373302215
 30
0.0
 10
-4102.8222967909
 20
91.09162389484196
 30
0.0
 10
-4102.781237732679
 20
91.09161411189039
 30
0.0
 10
-4102.739525062951
 20
91.09160438478018
 30
0.0
 10
-4102.697162243654
 20
91.09159471412391
 30
0.0
 10
-4102.654152736721
 20
91.09158510053395
 30
0.0
 10
-4102.610500004077
 20
91.09157554462246
 30
0.0
 10
-4102.566207507658
 20
91.09156604700118
 30
0.0
 10
-4102.521278709395
 20
91.09155660828206
 30
0.0
 10
-4102.475717071216
 20
91.09154722907641
 30
0.0
 10
-4102.429526055056
 20
91.09153790999562
 30
0.0
 10
-4102.382709122845
 20
91.09152865165095
 30
0.0
 10
-4102.335269736515
 20
91.09151945465345
 30
0.0
 10
-4102.287211357994
 20
91.09151031961392
 30
0.0
 10
-4102.238537449217
 20
91.09150124714341
 30
0.0
 10
-4102.189251472115
 20
91.09149223785239
 30
0.0
 10
-4102.139356888616
 20
91.09148329235153
 30
0.0
 10
-4102.088857160655
 20
91.09147441125134
 30
0.0
 10
-4102.037755750162
 20
91.09146559516223
 30
0.0
 10
-4101.986056119067
 20
91.09145684469451
 30
0.0
 10
-4101.933761729303
 20
91.09144816045833
 30
0.0
 10
-4101.8808760428
 20
91.091439543064
 30
0.0
 10
-4101.82740252149
 20
91.09143099312162
 30
0.0
 10
-4101.773344627304
 20
91.09142251124101
 30
0.0
 10
-4101.718705822175
 20
91.09141409803252
 30
0.0
 10
-4101.663489568032
 20
91.09140575410569
 30
0.0
 10
-4101.607699326807
 20
91.09139748007064
 30
0.0
 10
-4101.551338560429
 20
91.09138927653713
 30
0.0
 10
-4101.494410730836
 20
91.09138114411489
 30
0.0
 10
-4101.43691929995
 20
91.09137308341369
 30
0.0
 10
-4101.378867729713
 20
91.09136509504324
 30
0.0
 10
-4101.320259482045
 20
91.09135717961318
 30
0.0
 10
-4101.261098018887
 20
91.09134933773305
 30
0.0
 10
-4101.201386802162
 20
91.09134157001265
 30
0.0
 10
-4101.141129293809
 20
91.09133387706126
 30
0.0
 10
-4101.080328955753
 20
91.09132625948855
 30
0.0
 10
-4101.018989249928
 20
91.09131871790407
 30
0.0
 10
-4100.957113638267
 20
91.09131125291717
 30
0.0
 10
-4100.894705582699
 20
91.09130386513743
 30
0.0
 10
-4100.831768545155
 20
91.09129655517388
 30
0.0
 10
-4100.763247031418
 20
91.09128874717088
 30
0.0
 10
-4100.689089817497
 20
91.09128047664194
 30
0.0
 10
-4100.609247680559
 20
91.09127178179055
 30
0.0
 10
-4100.528732355119
 20
91.09126322116339
 30
0.0
 10
-4100.447553306631
 20
91.091254795417
 30
0.0
 10
-4100.36572000056
 20
91.09124650520835
 30
0.0
 10
-4100.283241902355
 20
91.09123835119428
 30
0.0
 10
-4100.200128477485
 20
91.09123033403159
 30
0.0
 10
-4100.116389191399
 20
91.09122245437698
 30
0.0
 10
-4100.032033509562
 20
91.09121471288717
 30
0.0
 10
-4099.94707089743
 20
91.09120711021873
 30
0.0
 10
-4099.86151082046
 20
91.09119964702822
 30
0.0
 10
-4099.775362744114
 20
91.09119232397217
 30
0.0
 10
-4099.688636133848
 20
91.09118514170712
 30
0.0
 10
-4099.601340455124
 20
91.09117810088938
 30
0.0
 10
-4099.513485173395
 20
91.09117120217542
 30
0.0
 10
-4099.425079754123
 20
91.09116444622163
 30
0.0
 10
-4099.336133662769
 20
91.09115783368426
 30
0.0
 10
-4099.246656364784
 20
91.09115136521965
 30
0.0
 10
-4099.156657325635
 20
91.09114504148401
 30
0.0
 10
-4099.066146010775
 20
91.09113886313364
 30
0.0
 10
-4098.975131885663
 20
91.09113283082463
 30
0.0
 10
-4098.883624415761
 20
91.09112694521329
 30
0.0
 10
-4098.791633066526
 20
91.09112120695562
 30
0.0
 10
-4098.699167303414
 20
91.0911156167078
 30
0.0
 10
-4098.606236591885
 20
91.09111017512602
 30
0.0
 10
-4098.512850397397
 20
91.09110488286615
 30
0.0
 10
-4098.419018185413
 20
91.09109974058441
 30
0.0
 10
-4098.324749421387
 20
91.09109474893681
 30
0.0
 10
-4098.230053570777
 20
91.09108990857925
 30
0.0
 10
-4098.134940099045
 20
91.09108522016783
 30
0.0
 10
-4098.039418471645
 20
91.0910806843585
 30
0.0
 10
-4097.943498154041
 20
91.09107630180719
 30
0.0
 10
-4097.847188611685
 20
91.09107207316981
 30
0.0
 10
-4097.750499310042
 20
91.09106799910238
 30
0.0
 10
-4097.653439714568
 20
91.09106408026068
 30
0.0
 10
-4097.55601929072
 20
91.09106031730089
 30
0.0
 10
-4097.458247503959
 20
91.09105671087789
 30
0.0
 10
-4097.333561973432
 20
91.09105232750702
 30
0.0
 10
-4097.181882701725
 20
91.09104736227869
 30
0.0
 10
-4097.00314728557
 20
91.0910420625228
 30
0.0
 10
-4096.823882762177
 20
91.09103729474974
 30
0.0
 10
-4096.644151379452
 20
91.09103305913418
 30
0.0
 10
-4096.464015385304
 20
91.09102935585329
 30
0.0
 10
-4096.283537027649
 20
91.09102618508268
 30
0.0
 10
-4096.102778554392
 20
91.09102354699816
 30
0.0
 10
-4095.921802213451
 20
91.09102144177471
 30
0.0
 10
-4095.740670252726
 20
91.09101986958716
 30
0.0
 10
-4095.559444920137
 20
91.09101883060993
 30
0.0
 10
-4095.378188463593
 20
91.09101832501702
 30
0.0
 10
-4095.196963130999
 20
91.09101835298205
 30
0.0
 10
-4095.015831170273
 20
91.09101891467829
 30
0.0
 10
-4094.834854829318
 20
91.0910200102786
 30
0.0
 10
-4094.654096356052
 20
91.09102163995547
 30
0.0
 10
-4094.47361799838
 20
91.091023803881
 30
0.0
 10
-4094.293482004217
 20
91.09102650222692
 30
0.0
 10
-4094.11375062147
 20
91.09102973516461
 30
0.0
 10
-4093.934486098052
 20
91.09103350286442
 30
0.0
 10
-4093.755750681871
 20
91.09103780549864
 30
0.0
 10
-4093.604071410139
 20
91.09104192454512
 30
0.0
 10
-4093.479385879588
 20
91.0910456123256
 30
0.0
 10
-4093.381614092809
 20
91.09104867330355
 30
0.0
 10
-4093.284193668943
 20
91.09105189277838
 30
0.0
 10
-4093.187134073447
 20
91.09105527014819
 30
0.0
 10
-4093.090444771783
 20
91.09105880480936
 30
0.0
 10
-4092.994135229406
 20
91.09106249615913
 30
0.0
 10
-4092.898214911779
 20
91.09106634359426
 30
0.0
 10
-4092.802693284355
 20
91.09107034651157
 30
0.0
 10
-4092.707579812598
 20
91.091074504308
 30
0.0
 10
-4092.612883961962
 20
91.09107881638035
 30
0.0
 10
-4092.51861519791
 20
91.09108328212543
 30
0.0
 10
-4092.424782985896
 20
91.09108790093994
 30
0.0
 10
-4092.331396791383
 20
91.09109267222087
 30
0.0
 10
-4092.238466079825
 20
91.09109759536477
 30
0.0
 10
-4092.146000316684
 20
91.09110266976848
 30
0.0
 10
-4092.054008967419
 20
91.09110789482872
 30
0.0
 10
-4091.962501497484
 20
91.09111326994213
 30
0.0
 10
-4091.871487372339
 20
91.09111879450529
 30
0.0
 10
-4091.780976057447
 20
91.09112446791505
 30
0.0
 10
-4091.690977018263
 20
91.09113028956786
 30
0.0
 10
-4091.601499720246
 20
91.09113625886032
 30
0.0
 10
-4091.512553628854
 20
91.09114237518898
 30
0.0
 10
-4091.424148209547
 20
91.09114863795045
 30
0.0
 10
-4091.33629292778
 20
91.09115504654096
 30
0.0
 10
-4091.248997249019
 20
91.0911616003574
 30
0.0
 10
-4091.162270638713
 20
91.09116829879562
 30
0.0
 10
-4091.076122562328
 20
91.09117514125249
 30
0.0
 10
-4090.99056248532
 20
91.09118212712407
 30
0.0
 10
-4090.905599873145
 20
91.09118925580667
 30
0.0
 10
-4090.821244191266
 20
91.09119652669661
 30
0.0
 10
-4090.737504905139
 20
91.09120393919007
 30
0.0
 10
-4090.654391480221
 20
91.09121149268304
 30
0.0
 10
-4090.571913381977
 20
91.09121918657181
 30
0.0
 10
-4090.490080075857
 20
91.09122702025231
 30
0.0
 10
-4090.408901027326
 20
91.09123499312048
 30
0.0
 10
-4090.328385701839
 20
91.09124310457216
 30
0.0
 10
-4090.248543564855
 20
91.09125135400353
 30
0.0
 10
-4090.174386350886
 20
91.09125921082743
 30
0.0
 10
-4090.105864837109
 20
91.09126663656548
 30
0.0
 10
-4090.042927799525
 20
91.09127359541856
 30
0.0
 10
-4089.980519743916
 20
91.0912806350389
 30
0.0
 10
-4089.918644132212
 20
91.09128775483674
 30
0.0
 10
-4089.85730442635
 20
91.09129495422195
 30
0.0
 10
-4089.79650408825
 20
91.09130223260422
 30
0.0
 10
-4089.736246579855
 20
91.09130958939358
 30
0.0
 10
-4089.676535363088
 20
91.09131702399961
 30
0.0
 10
-4089.617373899888
 20
91.0913245358323
 30
0.0
 10
-4089.558765652176
 20
91.09133212430106
 30
0.0
 10
-4089.500714081893
 20
91.09133978881596
 30
0.0
 10
-4089.443222650966
 20
91.09134752878633
 30
0.0
 10
-4089.386294821326
 20
91.09135534362201
 30
0.0
 10
-4089.329934054906
 20
91.09136323273253
 30
0.0
 10
-4089.274143813635
 20
91.09137119552729
 30
0.0
 10
-4089.218927559447
 20
91.091379231416
 30
0.0
 10
-4089.164288754271
 20
91.09138733980797
 30
0.0
 10
-4089.110230860038
 20
91.09139552011253
 30
0.0
 10
-4089.056757338683
 20
91.09140377173918
 30
0.0
 10
-4089.003871652132
 20
91.09141209409708
 30
0.0
 10
-4088.95157726232
 20
91.09142048659545
 30
0.0
 10
-4088.899877631177
 20
91.09142894864348
 30
0.0
 10
-4088.848776220637
 20
91.0914374796503
 30
0.0
 10
-4088.798276492626
 20
91.09144607902474
 30
0.0
 10
-4088.748381909078
 20
91.09145474617576
 30
0.0
 10
-4088.699095931926
 20
91.09146348051226
 30
0.0
 10
-4088.650422023099
 20
91.09147228144292
 30
0.0
 10
-4088.602363644528
 20
91.09148114837629
 30
0.0
 10
-4088.554924258147
 20
91.091490080721
 30
0.0
 10
-4088.508107325884
 20
91.09149907788535
 30
0.0
 10
-4088.461916309673
 20
91.09150813927766
 30
0.0
 10
-4088.416354671444
 20
91.09151726430591
 30
0.0
 10
-4088.371425873128
 20
91.0915264523783
 30
0.0
 10
-4088.327133376656
 20
91.09153570290233
 30
0.0
 10
-4088.283480643963
 20
91.09154501528593
 30
0.0
 10
-4088.240471136973
 20
91.09155438893616
 30
0.0
 10
-4088.198108317624
 20
91.09156382326054
 30
0.0
 10
-4088.156395647847
 20
91.09157331766593
 30
0.0
 10
-4088.115336589565
 20
91.09158287155896
 30
0.0
 10
-4088.074934604721
 20
91.09159248434624
 30
0.0
 10
-4088.035193155237
 20
91.09160215543372
 30
0.0
 10
-4087.99611570305
 20
91.09161188422735
 30
0.0
 10
-4087.957705710087
 20
91.0916216701325
 30
0.0
 10
-4087.919966638286
 20
91.09163151255424
 30
0.0
 10
-4087.88290194957
 20
91.09164141089701
 30
0.0
 10
-4087.846515105874
 20
91.09165136456552
 30
0.0
 10
-4087.811509137356
 20
91.09166117686925
 30
0.0
 10
-4087.777871505785
 20
91.09167083497277
 30
0.0
 10
-4087.745588861042
 20
91.09168032539441
 30
0.0
 10
-4087.713947472877
 20
91.09168985273077
 30
0.0
 10
-4087.682948367517
 20
91.09169941635851
 30
0.0
 10
-4087.652592571192
 20
91.09170901565274
 30
0.0
 10
-4087.622881110127
 20
91.09171864998852
 30
0.0
 10
-4087.593815010549
 20
91.09172831873984
 30
0.0
 10
-4087.565395298688
 20
91.09173802128014
 30
0.0
 10
-4087.537623000766
 20
91.09174775698182
 30
0.0
 10
-4087.510499143017
 20
91.09175752521655
 30
0.0
 10
-4087.48402475166
 20
91.09176732535464
 30
0.0
 10
-4087.458200852931
 20
91.0917771567654
 30
0.0
 10
-4087.43302847305
 20
91.09178701881649
 30
0.0
 10
-4087.408508638249
 20
91.09179691087431
 30
0.0
 10
-4087.384642374754
 20
91.09180683230302
 30
0.0
 10
-4087.361430708787
 20
91.09181678246502
 30
0.0
 10
-4087.338874666584
 20
91.09182676072012
 30
0.0
 10
-4087.316975274365
 20
91.09183676642539
 30
0.0
 10
-4087.295733558364
 20
91.0918467989348
 30
0.0
 10
-4087.275150544798
 20
91.0918568575982
 30
0.0
 10
-4087.255227259906
 20
91.0918669417614
 30
0.0
 10
-4087.235964729904
 20
91.09187705076477
 30
0.0
 10
-4087.217363981029
 20
91.0918871839426
 30
0.0
 10
-4087.1994260395
 20
91.09189734062177
 30
0.0
 10
-4087.18215193155
 20
91.09190752012044
 30
0.0
 10
-4087.165542683404
 20
91.09191772174606
 30
0.0
 10
-4087.149599321286
 20
91.09192794479304
 30
0.0
 10
-4087.134322871428
 20
91.09193818854021
 30
0.0
 10
-4087.119714360051
 20
91.09194845224634
 30
0.0
 10
-4087.105774813389
 20
91.09195873514628
 30
0.0
 10
-4087.092505257662
 20
91.09196903644326
 30
0.0
 10
-4087.079906719099
 20
91.09197935530176
 30
0.0
 10
-4087.067980223936
 20
91.09198969083487
 30
0.0
 10
-4087.056726798358
 20
91.09200004209016
 30
0.0
 10
-4087.046147468729
 20
91.09201040802175
 30
0.0
 10
-4087.036243260799
 20
91.0920207874815
 30
0.0
 10
-4087.027015202411
 20
91.09203117909662
 30
0.0
 10
-4087.018464314353
 20
91.09204158145954
 30
0.0
 10
-4087.010591640873
 20
91.09205199216889
 30
0.0
 10
-4087.003398149089
 20
91.09206241048095
 30
0.0
 10
-4086.996885056473
 20
91.09207282787443
 30
0.0
 10
-4086.991052779649
 20
91.092083257003
 30
0.0
 10
-4086.985904251452
 20
91.09209363802371
 30
0.0
 10
-4086.981434674761
 20
91.09210412370062
 30
0.0
 10
-4086.977662315042
 20
91.09211421424965
 30
0.0
 10
-4086.974539286998
 20
91.09212524599545
 30
0.0
 10
-4086.972197119364
 20
91.0921334981264
 30
0.0
 10
-4086.970320583244
 20
91.092147648894
 30
0.0
 10
-4086.969556314249
 20
91.0921490811841
 30
0.0
 10
-4086.968631632685
 20
91.09216821927332
 30
0.0
 10
-4086.969556314143
 20
91.09218736252107
 30
0.0
 10
-4086.970320583129
 20
91.09218879907488
 30
0.0
 10
-4086.97219711917
 20
91.09220296031121
 30
0.0
 10
-4086.974539286756
 20
91.09221122550849
 30
0.0
 10
-4086.977662314741
 20
91.09222227467703
 30
0.0
 10
-4086.981434674403
 20
91.09223238627104
 30
0.0
 10
-4086.985904251035
 20
91.09224289688268
 30
0.0
 10
-4086.991052779175
 20
91.09225330662576
 30
0.0
 10
-4086.996885055941
 20
91.09226376829116
 30
0.0
 10
-4087.003398148499
 20
91.0922742220196
 30
0.0
 10
-4087.010591640223
 20
91.09228468046243
 30
0.0
 10
-4087.018464313645
 20
91.09229513509153
 30
0.0
 10
-4087.027015201646
 20
91.09230558515776
 30
0.0
 10
-4087.036243259974
 20
91.09231602825403
 30
0.0
 10
-4087.046147467847
 20
91.09232646296684
 30
0.0
 10
-4087.056726797418
 20
91.09233688791811
 30
0.0
 10
-4087.067980222938
 20
91.09234730195348
 30
0.0
 10
-4087.079906718043
 20
91.09235770402154
 30
0.0
 10
-4087.092505256551
 20
91.09236809316433
 30
0.0
 10
-4087.105774812217
 20
91.09237846848893
 30
0.0
 10
-4087.119714358823
 20
91.09238882915413
 30
0.0
 10
-4087.13432287014
 20
91.0923991743577
 30
0.0
 10
-4087.149599319942
 20
91.0924095033284
 30
0.0
 10
-4087.165542682002
 20
91.0924198153196
 30
0.0
 10
-4087.182151930093
 20
91.09243010960418
 30
0.0
 10
-4087.199426037985
 20
91.09244038547082
 30
0.0
 10
-4087.217363979456
 20
91.09245064222154
 30
0.0
 10
-4087.235964728277
 20
91.09246087916841
 30
0.0
 10
-4087.255227258218
 20
91.09247109563273
 30
0.0
 10
-4087.275150543057
 20
91.09248129094311
 30
0.0
 10
-4087.295733556563
 20
91.0924914644342
 30
0.0
 10
-4087.316975272511
 20
91.09250161544591
 30
0.0
 10
-4087.338874664673
 20
91.09251174332265
 30
0.0
 10
-4087.361430706822
 20
91.09252184741246
 30
0.0
 10
-4087.38464237273
 20
91.09253192706665
 30
0.0
 10
-4087.40850863617
 20
91.0925419816395
 30
0.0
 10
-4087.433028470916
 20
91.09255201048748
 30
0.0
 10
-4087.458200850742
 20
91.0925620129692
 30
0.0
 10
-4087.484024749415
 20
91.09257198844522
 30
0.0
 10
-4087.510499140716
 20
91.09258193627754
 30
0.0
 10
-4087.537622998413
 20
91.09259185582968
 30
0.0
 10
-4087.565395296277
 20
91.09260174646629
 30
0.0
 10
-4087.593815008087
 20
91.09261160755328
 30
0.0
 10
-4087.62288110761
 20
91.09262143845737
 30
0.0
 10
-4087.652592568618
 20
91.09263123854611
 30
0.0
 10
-4087.682948364894
 20
91.09264100718805
 30
0.0
 10
-4087.713947470196
 20
91.09265074375227
 30
0.0
 10
-4087.745588858308
 20
91.09266044760825
 30
0.0
 10
-4087.777871502997
 20
91.0926701181269
 30
0.0
 10
-4087.811509134514
 20
91.09267996388668
 30
0.0
 10
-4087.846515102978
 20
91.09268997148018
 30
0.0
 10
-4087.882901946616
 20
91.09270012814211
 30
0.0
 10
-4087.919966635276
 20
91.09271023325977
 30
0.0
 10
-4087.957705707024
 20
91.09272028621861
 30
0.0
 10
-4087.996115699929
 20
91.09273028640382
 30
0.0
 10
-4088.035193152064
 20
91.09274023320108
 30
0.0
 10
-4088.074934601492
 20
91.0927501259965
 30
0.0
 10
-4088.115336586282
 20
91.09275996417665
 30
0.0
 10
-4088.156395644509
 20
91.0927697471283
 30
0.0
 10
-4088.198108314233
 20
91.09277947423844
 30
0.0
 10
-4088.240471133529
 20
91.09278914489475
 30
0.0
 10
-4088.283480640464
 20
91.09279875848466
 30
0.0
 10
-4088.327133373109
 20
91.09280831439622
 30
0.0
 10
-4088.371425869526
 20
91.09281781201739
 30
0.0
 10
-4088.41635466779
 20
91.09282725073662
 30
0.0
 10
-4088.461916305968
 20
91.09283662994223
 30
0.0
 10
-4088.508107322128
 20
91.09284594902303
 30
0.0
 10
-4088.55492425434
 20
91.09285520736771
 30
0.0
 10
-4088.60236364067
 20
91.0928644043652
 30
0.0
 10
-4088.650422019191
 20
91.09287353940471
 30
0.0
 10
-4088.699095927967
 20
91.09288261187531
 30
0.0
 10
-4088.748381905071
 20
91.09289162116629
 30
0.0
 10
-4088.798276488569
 20
91.09290056666717
 30
0.0
 10
-4088.84877621653
 20
91.09290944776731
 30
0.0
 10
-4088.899877627023
 20
91.09291826385649
 30
0.0
 10
-4088.951577258117
 20
91.0929270143242
 30
0.0
 10
-4089.003871647883
 20
91.09293569856037
 30
0.0
 10
-4089.056757334383
 20
91.09294431595464
 30
0.0
 10
-4089.110230855696
 20
91.09295286589715
 30
0.0
 10
-4089.164288749879
 20
91.09296134777762
 30
0.0
 10
-4089.21892755501
 20
91.09296976098622
 30
0.0
 10
-4089.274143809153
 20
91.09297810491299
 30
0.0
 10
-4089.329934050378
 20
91.09298637894804
 30
0.0
 10
-4089.386294816755
 20
91.0929945824816
 30
0.0
 10
-4089.443222646349
 20
91.09300271490376
 30
0.0
 10
-4089.500714077233
 20
91.09301077560498
 30
0.0
 10
-4089.558765647473
 20
91.09301876397549
 30
0.0
 10
-4089.617373895138
 20
91.09302667940555
 30
0.0
 10
-4089.6765353583
 20
91.09303452128563
 30
0.0
 10
-4089.736246575021
 20
91.09304228900611
 30
0.0
 10
-4089.796504083378
 20
91.09304998195749
 30
0.0
 10
-4089.857304421431
 20
91.0930575995301
 30
0.0
 10
-4089.918644127256
 20
91.09306514111465
 30
0.0
 10
-4089.980519738917
 20
91.09307260610154
 30
0.0
 10
-4090.042927794486
 20
91.09307999388129
 30
0.0
 10
-4090.10586483203
 20
91.09308730384484
 30
0.0
 10
-4090.174386345766
 20
91.09309511184783
 30
0.0
 10
-4090.248543559689
 20
91.09310338237677
 30
0.0
 10
-4090.328385696626
 20
91.09311207722816
 30
0.0
 10
-4090.408901022065
 20
91.09312063785532
 30
0.0
 10
-4090.490080070552
 20
91.09312906360171
 30
0.0
 10
-4090.571913376627
 20
91.09313735381039
 30
0.0
 10
-4090.654391474827
 20
91.09314550782437
 30
0.0
 10
-4090.737504899702
 20
91.09315352498713
 30
0.0
 10
-4090.821244185785
 20
91.09316140464168
 30
0.0
 10
-4090.905599867623
 20
91.09316914613149
 30
0.0
 10
-4090.990562479757
 20
91.09317674880001
 30
0.0
 10
-4091.076122556724
 20
91.09318421199045
 30
0.0
 10
-4091.16227063307
 20
91.09319153504649
 30
0.0
 10
-4091.248997243336
 20
91.09319871731162
 30
0.0
 10
-4091.336292922062
 20
91.09320575812927
 30
0.0
 10
-4091.424148203789
 20
91.09321265684324
 30
0.0
 10
-4091.512553623062
 20
91.09321941279706
 30
0.0
 10
-4091.601499714416
 20
91.09322602533442
 30
0.0
 10
-4091.6909770124
 20
91.09323249379904
 30
0.0
 10
-4091.780976051549
 20
91.09323881753466
 30
0.0
 10
-4091.87148736641
 20
91.09324499588507
 30
0.0
 10
-4091.96250149152
 20
91.093251028194
 30
0.0
 10
-4092.054008961422
 20
91.09325691380541
 30
0.0
 10
-4092.146000310659
 20
91.09326265206306
 30
0.0
 10
-4092.23846607377
 20
91.09326824231081
 30
0.0
 10
-4092.331396785298
 20
91.09327368389268
 30
0.0
 10
-4092.424782979784
 20
91.09327897615248
 30
0.0
 10
-4092.518615191772
 20
91.09328411843423
 30
0.0
 10
-4092.612883955796
 20
91.09328911008184
 30
0.0
 10
-4092.707579806408
 20
91.0932939504394
 30
0.0
 10
-4092.80269327814
 20
91.09329863885084
 30
0.0
 10
-4092.898214905538
 20
91.09330317466014
 30
0.0
 10
-4092.994135223146
 20
91.09330755721149
 30
0.0
 10
-4093.090444765498
 20
91.09331178584883
 30
0.0
 10
-4093.187134067141
 20
91.09331585991623
 30
0.0
 10
-4093.284193662616
 20
91.09331977875793
 30
0.0
 10
-4093.381614086464
 20
91.09332354171774
 30
0.0
 10
-4093.479385873225
 20
91.09332714814072
 30
0.0
 10
-4093.604071403752
 20
91.09333153151161
 30
0.0
 10
-4093.755750675458
 20
91.09333649673995
 30
0.0
 10
-4093.934486091612
 20
91.09334179649576
 30
0.0
 10
-4094.113750615007
 20
91.0933465642689
 30
0.0
 10
-4094.293481997734
 20
91.09335079988446
 30
0.0
 10
-4094.473617991878
 20
91.09335450316533
 30
0.0
 10
-4094.654096349534
 20
91.0933576739359
 30
0.0
 10
-4094.834854822792
 20
91.09336031202055
 30
0.0
 10
-4095.015831163733
 20
91.09336241724391
 30
0.0
 10
-4095.196963124458
 20
91.09336398943151
 30
0.0
 10
-4095.378188457044
 20
91.09336502840868
 30
0.0
 10
-4095.559444913592
 20
91.09336553400163
 30
0.0
 10
-4095.740670246184
 20
91.09336550603662
 30
0.0
 10
-4095.921802206912
 20
91.09336494434038
 30
0.0
 10
-4096.102778547866
 20
91.0933638487401
 30
0.0
 10
-4096.283537021132
 20
91.09336221906318
 30
0.0
 10
-4096.464015378802
 20
91.09336005513764
 30
0.0
 10
-4096.644151372966
 20
91.09335735679183
 30
0.0
 10
-4096.823882755714
 20
91.09335412385408
 30
0.0
 10
-4097.003147279132
 20
91.09335035615428
 30
0.0
 10
-4097.181882695313
 20
91.09334605352005
 30
0.0
 10
-4097.333561967043
 20
91.09334193447353
 30
0.0
 10
-4097.458247497596
 20
91.09333824669307
 30
0.0
 10
-4097.556019284371
 20
91.09333518571512
 30
0.0
 10
-4097.653439708243
 20
91.09333196624031
 30
0.0
 10
-4097.750499303736
 20
91.09332858887053
 30
0.0
 10
-4097.847188605401
 20
91.09332505420926
 30
0.0
 10
-4097.943498147778
 20
91.09332136285958
 30
0.0
 10
-4098.039418465406
 20
91.09331751542439
 30
0.0
 10
-4098.134940092827
 20
91.09331351250708
 30
0.0
 10
-4098.230053564586
 20
91.09330935471064
 30
0.0
 10
-4098.32474941522
 20
91.09330504263835
 30
0.0
 10
-4098.419018179274
 20
91.09330057689326
 30
0.0
 10
-4098.512850391287
 20
91.09329595807866
 30
0.0
 10
-4098.606236585802
 20
91.09329118679784
 30
0.0
 10
-4098.699167297358
 20
91.09328626365389
 30
0.0
 10
-4098.791633060499
 20
91.09328118925016
 30
0.0
 10
-4098.883624409767
 20
91.09327596418999
 30
0.0
 10
-4098.975131879702
 20
91.0932705890766
 30
0.0
 10
-4099.066146004843
 20
91.09326506451333
 30
0.0
 10
-4099.156657319737
 20
91.09325939110366
 30
0.0
 10
-4099.24665635892
 20
91.09325356945082
 30
0.0
 10
-4099.336133656938
 20
91.09324760015838
 30
0.0
 10
-4099.42507974833
 20
91.09324148382969
 30
0.0
 10
-4099.513485167638
 20
91.09323522106828
 30
0.0
 10
-4099.601340449402
 20
91.09322881247765
 30
0.0
 10
-4099.688636128167
 20
91.09322225866143
 30
0.0
 10
-4099.77536273847
 20
91.09321556022303
 30
0.0
 10
-4099.861510814854
 20
91.09320871776622
 30
0.0
 10
-4099.947070891864
 20
91.09320173189465
 30
0.0
 10
-4100.032033504039
 20
91.09319460321206
 30
0.0
 10
-4100.116389185917
 20
91.09318733232206
 30
0.0
 10
-4100.200128472046
 20
91.09317991982873
 30
0.0
 10
-4100.28324189696
 20
91.09317236633564
 30
0.0
 10
-4100.365719995208
 20
91.09316467244689
 30
0.0
 10
-4100.447553301327
 20
91.09315683876646
 30
0.0
 10
-4100.528732349858
 20
91.09314886589827
 30
0.0
 10
-4100.609247675346
 20
91.09314075444659
 30
0.0
 10
-4100.689089812328
 20
91.09313250501518
 30
0.0
 10
-4100.763247026298
 20
91.09312464819134
 30
0.0
 10
-4100.831768540075
 20
91.09311722245326
 30
0.0
 10
-4100.894705577659
 20
91.09311026360018
 30
0.0
 10
-4100.957113633269
 20
91.0931032239799
 30
0.0
 10
-4101.018989244969
 20
91.09309610418194
 30
0.0
 10
-4101.080328950837
 20
91.09308890479682
 30
0.0
 10
-4101.141129288932
 20
91.09308162641449
 30
0.0
 10
-4101.20138679733
 20
91.09307426962521
 30
0.0
 10
-4101.261098014095
 20
91.09306683501907
 30
0.0
 10
-4101.320259477297
 20
91.0930593231865
 30
0.0
 10
-4101.378867725005
 20
91.09305173471762
 30
0.0
 10
-4101.43691929529
 20
91.09304407020278
 30
0.0
 10
-4101.494410726216
 20
91.09303633023235
 30
0.0
 10
-4101.551338555857
 20
91.09302851539667
 30
0.0
 10
-4101.607699322278
 20
91.09302062628623
 30
0.0
 10
-4101.663489563549
 20
91.09301266349141
 30
0.0
 10
-4101.718705817736
 20
91.09300462760265
 30
0.0
 10
-4101.773344622914
 20
91.0929965192108
 30
0.0
 10
-4101.827402517145
 20
91.09298833890617
 30
0.0
 10
-4101.880876038503
 20
91.09298008727954
 30
0.0
 10
-4101.933761725051
 20
91.09297176492159
 30
0.0
 10
-4101.986056114864
 20
91.09296337242326
 30
0.0
 10
-4102.037755746005
 20
91.09295491037514
 30
0.0
 10
-4102.088857156548
 20
91.09294637936843
 30
0.0
 10
-4102.139356884558
 20
91.09293777999395
 30
0.0
 10
-4102.189251468105
 20
91.09292911284294
 30
0.0
 10
-4102.238537445258
 20
91.09292037850641
 30
0.0
 10
-4102.287211354083
 20
91.09291157757579
 30
0.0
 10
-4102.335269732655
 20
91.09290271064236
 30
0.0
 10
-4102.382709119036
 20
91.09289377829767
 30
0.0
 10
-4102.429526051299
 20
91.09288478113328
 30
0.0
 10
-4102.47571706751
 20
91.09287571974096
 30
0.0
 10
-4102.521278705742
 20
91.09286659471273
 30
0.0
 10
-4102.566207504055
 20
91.09285740664033
 30
0.0
 10
-4102.610500000527
 20
91.09284815611628
 30
0.0
 10
-4102.654152733223
 20
91.09283884373276
 30
0.0
 10
-4102.69716224021
 20
91.09282947008244
 30
0.0
 10
-4102.73952505956
 20
91.09282003575808
 30
0.0
 10
-4102.78123772934
 20
91.09281054135272
 30
0.0
 10
-4102.822296787618
 20
91.09280098745968
 30
0.0
 10
-4102.862698772465
 20
91.0927913746724
 30
0.0
 10
-4102.902440221947
 20
91.09278170358491
 30
0.0
 10
-4102.941517674135
 20
91.09277197479126
 30
0.0
 10
-4102.979927667097
 20
91.09276218888616
 30
0.0
 10
-4103.017666738899
 20
91.09275234646432
 30
0.0
 10
-4103.054731427616
 20
91.09274244812163
 30
0.0
 10
-4103.091118271311
 20
91.0927324944531
 30
0.0
 10
-4103.12612423983
 20
91.09272268214937
 30
0.0
 10
-4103.1597618714
 20
91.09271302404582
 30
0.0
 10
-4103.192044516142
 20
91.09270353362426
 30
0.0
 10
-4103.223685904309
 20
91.09269400628787
 30
0.0
 10
-4103.254685009666
 20
91.09268444266009
 30
0.0
 10
-4103.285040805994
 20
91.09267484336584
 30
0.0
 10
-4103.314752267058
 20
91.09266520903012
 30
0.0
 10
-4103.343818366635
 20
91.09265554027877
 30
0.0
 10
-4103.372238078498
 20
91.09264583773853
 30
0.0
 10
-4103.400010376417
 20
91.09263610203675
 30
0.0
 10
-4103.42713423417
 20
91.09262633380209
 30
0.0
 10
-4103.453608625523
 20
91.092616533664
 30
0.0
 10
-4103.479432524253
 20
91.09260670225324
 30
0.0
 10
-4103.504604904137
 20
91.09259684020213
 30
0.0
 10
-4103.529124738936
 20
91.09258694814434
 30
0.0
 10
-4103.552991002433
 20
91.09257702671563
 30
0.0
 10
-4103.576202668397
 20
91.09256707655365
 30
0.0
 10
-4103.598758710603
 20
91.09255709829853
 30
0.0
 10
-4103.620658102817
 20
91.09254709259319
 30
0.0
 10
-4103.641899818824
 20
91.09253706008389
 30
0.0
 10
-4103.662482832384
 20
91.09252700142045
 30
0.0
 10
-4103.682406117281
 20
91.09251691725726
 30
0.0
 10
-4103.701668647279
 20
91.09250680825387
 30
0.0
 10
-4103.720269396155
 20
91.09249667507605
 30
0.0
 10
-4103.738207337684
 20
91.09248651839684
 30
0.0
 10
-4103.755481445635
 20
91.09247633889824
 30
0.0
 10
-4103.772090693781
 20
91.09246613727255
 30
0.0
 10
-4103.788034055899
 20
91.09245591422562
 30
0.0
 10
-4103.803310505758
 20
91.09244567047847
 30
0.0
 10
-4103.817919017133
 20
91.09243540677224
 30
0.0
 10
-4103.831858563797
 20
91.09242512387243
 30
0.0
 10
-4103.845128119522
 20
91.09241482257539
 30
0.0
 10
-4103.857726658083
 20
91.09240450371684
 30
0.0
 10
-4103.869653153255
 20
91.0923941681838
 30
0.0
 10
-4103.880906578808
 20
91.09238381692849
 30
0.0
 10
-4103.891485908521
 20
91.0923734509969
 30
0.0
 10
-4103.901390116163
 20
91.09236307153709
 30
0.0
 10
-4103.910618175518
 20
91.09235267992206
 30
0.0
 10
-4103.919169060355
 20
91.09234227755911
 30
0.0
 10
-4103.927041744464
 20
91.09233186684975
 30
0.0
 10
-4103.934235201591
 20
91.09232144853758
 30
0.0
 10
-4103.940748405652
 20
91.09231103114442
 30
0.0
 10
-4103.946580330033
 20
91.09230060201494
 30
0.0
 10
-4103.951729949838
 20
91.09229022099717
 30
0.0
 10
-4103.956196234986
 20
91.09227973531114
 30
0.0
 10
-4103.959978171078
 20
91.09226964478881
 30
0.0
 10
-4103.963074699186
 20
91.09225861296909
 30
0.0
 10
-4103.96548488246
 20
91.09225036102782
 30
0.0
 10
-4103.967207484699
 20
91.09223620983084
 30
0.0
 10
-4103.968241947779
 20
91.09223477829443
 30
0.0
 10
-4103.968701666041
 20
91.09221946951845
 30
0.0
 10
-4103.968816688559
 20
91.0922156392291
 30
0.0
 11
-4103.968816688559
 21
91.0922156392291
 31
0.0
 11
-4103.968471601884
 21
91.09220506493065
 31
0.0
 11
-4103.967437025951
 21
91.09219449476075
 31
0.0
 11
-4103.965713986987
 21
91.09218392934288
 31
0.0
 11
-4103.96330351122
 21
91.0921733693006
 31
0.0
 11
-4103.960206624876
 21
91.0921628152574
 31
0.0
 11
-4103.956424354185
 21
91.09215226783677
 31
0.0
 11
-4103.95195772537
 21
91.09214172766225
 31
0.0
 11
-4103.946807764662
 21
91.09213119535734
 31
0.0
 11
-4103.940975498285
 21
91.09212067154557
 31
0.0
 11
-4103.934461952469
 21
91.09211015685042
 31
0.0
 11
-4103.92726815344
 21
91.09209965189544
 31
0.0
 11
-4103.919395127425
 21
91.09208915730412
 31
0.0
 11
-4103.910843900651
 21
91.09207867369993
 31
0.0
 11
-4103.901615499345
 21
91.09206820170647
 31
0.0
 11
-4103.891710949736
 21
91.09205774194717
 31
0.0
 11
-4103.88113127805
 21
91.09204729504559
 31
0.0
 11
-4103.869877510513
 21
91.09203686162525
 31
0.0
 11
-4103.857950673356
 21
91.09202644230963
 31
0.0
 11
-4103.845351792802
 21
91.09201603772226
 31
0.0
 11
-4103.83208189508
 21
91.09200564848663
 31
0.0
 11
-4103.818142006417
 21
91.09199527522627
 31
0.0
 11
-4103.803533153039
 21
91.09198491856469
 31
0.0
 11
-4103.788256361176
 21
91.09197457912541
 31
0.0
 11
-4103.772312657053
 21
91.09196425753193
 31
0.0
 11
-4103.755703066899
 21
91.09195395440776
 31
0.0
 11
-4103.738428616938
 21
91.09194367037641
 31
0.0
 11
-4103.720490333401
 21
91.0919334060614
 31
0.0
 11
-4103.701889242513
 21
91.09192316208623
 31
0.0
 11
-4103.682626370503
 21
91.09191293907445
 31
0.0
 11
-4103.662702743595
 21
91.09190273764953
 31
0.0
 11
-4103.642119388018
 21
91.09189255843499
 31
0.0
 11
-4103.62087733
 21
91.09188240205434
 31
0.0
 11
-4103.598977595767
 21
91.09187226913112
 31
0.0
 11
-4103.576421211547
 21
91.09186216028881
 31
0.0
 11
-4103.553209203567
 21
91.09185207615091
 31
0.0
 11
-4103.529342598054
 21
91.09184201734099
 31
0.0
 11
-4103.504822421235
 21
91.0918319844825
 31
0.0
 11
-4103.479649699339
 21
91.09182197819899
 31
0.0
 11
-4103.45382545859
 21
91.09181199911396
 31
0.0
 11
-4103.427350725217
 21
91.09180204785093
 31
0.0
 11
-4103.400226525448
 21
91.09179212503338
 31
0.0
 11
-4103.37245388551
 21
91.09178223128485
 31
0.0
 11
-4103.344033831627
 21
91.09177236722886
 31
0.0
 11
-4103.314967390031
 21
91.09176253348889
 31
0.0
 11
-4103.285255586947
 21
91.0917527306885
 31
0.0
 11
-4103.254899448601
 21
91.09174295945115
 31
0.0
 11
-4103.223900001221
 21
91.09173322040039
 31
0.0
 11
-4103.192258271036
 21
91.09172351415968
 31
0.0
 11
-4103.15997528427
 21
91.0917138413526
 31
0.0
 11
-4103.127052067153
 21
91.09170420260261
 31
0.0
 11
-4103.091345376491
 21
91.09169399226775
 31
0.0
 11
-4103.054957378876
 21
91.09168383297461
 31
0.0
 11
-4103.017891536241
 21
91.09167372533206
 31
0.0
 11
-4102.980151310516
 21
91.09166366994904
 31
0.0
 11
-4102.941740163635
 21
91.09165366743443
 31
0.0
 11
-4102.902661557526
 21
91.09164371839712
 31
0.0
 11
-4102.862918954122
 21
91.09163382344606
 31
0.0
 11
-4102.822515815354
 21
91.09162398319008
 31
0.0
 11
-4102.781455603153
 21
91.09161419823812
 31
0.0
 11
-4102.739741779451
 21
91.09160446919908
 31
0.0
 11
-4102.697377806177
 21
91.09159479668185
 31
0.0
 11
-4102.654367145266
 21
91.09158518129533
 31
0.0
 11
-4102.610713258649
 21
91.09157562364844
 31
0.0
 11
-4102.566419608253
 21
91.09156612435004
 31
0.0
 11
-4102.521489656012
 21
91.09155668400908
 31
0.0
 11
-4102.475926863858
 21
91.09154730323442
 31
0.0
 11
-4102.429734693721
 21
91.09153798263499
 31
0.0
 11
-4102.382916607535
 21
91.09152872281968
 31
0.0
 11
-4102.335476067226
 21
91.09151952439736
 31
0.0
 11
-4102.28741653473
 21
91.09151038797695
 31
0.0
 11
-4102.238741471976
 21
91.0915013141674
 31
0.0
 11
-4102.189454340896
 21
91.09149230357754
 31
0.0
 11
-4102.139558603422
 21
91.0914833568163
 31
0.0
 11
-4102.089057721484
 21
91.09147447449256
 31
0.0
 11
-4102.037955157014
 21
91.09146565721525
 31
0.0
 11
-4101.986254371943
 21
91.09145690559326
 31
0.0
 11
-4101.933958828202
 21
91.09144822023548
 31
0.0
 11
-4101.881071987723
 21
91.09143960175081
 31
0.0
 11
-4101.827597312436
 21
91.09143105074817
 31
0.0
 11
-4101.773538264273
 21
91.09142256783642
 31
0.0
 11
-4101.718898305167
 21
91.09141415362453
 31
0.0
 11
-4101.663680897047
 21
91.09140580872132
 31
0.0
 11
-4101.607889501845
 21
91.09139753373573
 31
0.0
 11
-4101.551527581492
 21
91.09138932927669
 31
0.0
 11
-4101.49459859792
 21
91.09138119595303
 31
0.0
 11
-4101.43710601306
 21
91.09137313437371
 31
0.0
 11
-4101.379053288843
 21
91.09136514514761
 31
0.0
 11
-4101.320443887201
 21
91.09135722888362
 31
0.0
 11
-4101.261281270065
 21
91.09134938619064
 31
0.0
 11
-4101.201568899365
 21
91.09134161767761
 31
0.0
 11
-4101.141310237033
 21
91.09133392395336
 31
0.0
 11
-4101.080508745001
 21
91.09132630562684
 31
0.0
 11
-4101.0191678852
 21
91.09131876330696
 31
0.0
 11
-4100.957291119561
 21
91.09131129760257
 31
0.0
 11
-4100.894881910015
 21
91.09130390912262
 31
0.0
 11
-4100.831943718495
 21
91.09129659847598
 31
0.0
 11
-4100.76848000693
 21
91.09128936627155
 31
0.0
 11
-4100.689317368805
 21
91.09128053652378
 31
0.0
 11
-4100.609472076717
 21
91.09127184038472
 31
0.0
 11
-4100.528953596123
 21
91.09126327850999
 31
0.0
 11
-4100.447771392484
 21
91.09125485155525
 31
0.0
 11
-4100.365934931258
 21
91.09124656017606
 31
0.0
 11
-4100.283453677904
 21
91.09123840502812
 31
0.0
 11
-4100.200337097879
 21
91.09123038676702
 31
0.0
 11
-4100.116594656642
 21
91.0912225060484
 31
0.0
 11
-4100.032235819651
 21
91.0912147635279
 31
0.0
 11
-4099.947270052367
 21
91.09120715986113
 31
0.0
 11
-4099.861706820245
 21
91.09119969570372
 31
0.0
 11
-4099.775555588745
 21
91.0911923717113
 31
0.0
 11
-4099.688825823328
 21
91.09118518853951
 31
0.0
 11
-4099.60152698945
 21
91.09117814684394
 31
0.0
 11
-4099.51366855257
 21
91.09117124728029
 31
0.0
 11
-4099.425259978146
 21
91.09116449050413
 31
0.0
 11
-4099.336310731636
 21
91.0911578771711
 31
0.0
 11
-4099.246830278501
 21
91.09115140793682
 31
0.0
 11
-4099.156828084198
 21
91.09114508345694
 31
0.0
 11
-4099.066313614186
 21
91.09113890438708
 31
0.0
 11
-4098.975296333922
 21
91.09113287138285
 31
0.0
 11
-4098.883785708867
 21
91.09112698509993
 31
0.0
 11
-4098.791791204478
 21
91.09112124619387
 31
0.0
 11
-4098.699322286213
 21
91.09111565532035
 31
0.0
 11
-4098.606388419533
 21
91.09111021313503
 31
0.0
 11
-4098.512999069893
 21
91.09110492029345
 31
0.0
 11
-4098.419163702755
 21
91.09109977745131
 31
0.0
 11
-4098.324891783576
 21
91.09109478526422
 31
0.0
 11
-4098.230192777814
 21
91.09108994438779
 31
0.0
 11
-4098.135076150928
 21
91.09108525547765
 31
0.0
 11
-4098.039551368377
 21
91.09108071918948
 31
0.0
 11
-4097.943627895618
 21
91.09107633617882
 31
0.0
 11
-4097.847315198113
 21
91.09107210710137
 31
0.0
 11
-4097.750622741316
 21
91.09106803261274
 31
0.0
 11
-4097.653559990688
 21
91.09106411336853
 31
0.0
 11
-4097.556136411688
 21
91.09106035002441
 31
0.0
 11
-4097.458361469774
 21
91.09105674323598
 31
0.0
 11
-4097.360244630404
 21
91.09105329365889
 31
0.0
 11
-4097.1820798201
 21
91.09104746014583
 31
0.0
 11
-4097.003323654644
 21
91.09104215863765
 31
0.0
 11
-4096.824038381948
 21
91.09103738930801
 31
0.0
 11
-4096.644286249918
 21
91.09103315233047
 31
0.0
 11
-4096.464129506469
 21
91.09102944787874
 31
0.0
 11
-4096.28363039951
 21
91.09102627612639
 31
0.0
 11
-4096.102851176953
 21
91.09102363724712
 31
0.0
 11
-4095.921854086706
 21
91.0910215314145
 31
0.0
 11
-4095.740701376682
 21
91.09101995880219
 31
0.0
 11
-4095.559455294789
 21
91.09101891958382
 31
0.0
 11
-4095.37817808894
 21
91.09101841393303
 31
0.0
 11
-4095.196932007046
 21
91.09101844202344
 31
0.0
 11
-4095.015779297015
 21
91.0910190040287
 31
0.0
 11
-4094.834782206759
 21
91.09102010012244
 31
0.0
 11
-4094.654002984189
 21
91.09102173047826
 31
0.0
 11
-4094.473503877215
 21
91.09102389526983
 31
0.0
 11
-4094.293347133748
 21
91.09102659467078
 31
0.0
 11
-4094.1135950017
 21
91.09102982885473
 31
0.0
 11
-4093.934309728978
 21
91.09103359799531
 31
0.0
 11
-4093.755553563495
 21
91.09103790226615
 31
0.0
 11
-4093.577388753161
 21
91.09104274184091
 31
0.0
 11
-4093.479271913774
 21
91.09104564404794
 31
0.0
 11
-4093.381496971841
 21
91.09104870537367
 31
0.0
 11
-4093.284073392821
 21
91.09105192521524
 31
0.0
 11
-4093.187010642174
 21
91.09105530296989
 31
0.0
 11
-4093.090318185356
 21
91.09105883803473
 31
0.0
 11
-4092.994005487827
 21
91.09106252980699
 31
0.0
 11
-4092.898082015047
 21
91.09106637768383
 31
0.0
 11
-4092.802557232471
 21
91.09107038106241
 31
0.0
 11
-4092.707440605561
 21
91.09107453933994
 31
0.0
 11
-4092.612741599774
 21
91.09107885191358
 31
0.0
 11
-4092.518469680567
 21
91.0910833181805
 31
0.0
 11
-4092.424634313401
 21
91.09108793753785
 31
0.0
 11
-4092.331244963735
 21
91.09109270938288
 31
0.0
 11
-4092.238311097025
 21
91.09109763311271
 31
0.0
 11
-4092.145842178731
 21
91.09110270812452
 31
0.0
 11
-4092.053847674311
 21
91.09110793381554
 31
0.0
 11
-4091.962337049225
 21
91.09111330958289
 31
0.0
 11
-4091.871319768929
 21
91.09111883482376
 31
0.0
 11
-4091.780805298884
 21
91.09112450893535
 31
0.0
 11
-4091.690803104547
 21
91.09113033131482
 31
0.0
 11
-4091.601322651377
 21
91.09113630135933
 31
0.0
 11
-4091.512373404832
 21
91.09114241846606
 31
0.0
 11
-4091.423964830372
 21
91.09114868203224
 31
0.0
 11
-4091.336106393455
 21
91.09115509145498
 31
0.0
 11
-4091.248807559538
 21
91.09116164613151
 31
0.0
 11
-4091.162077794082
 21
91.09116834545895
 31
0.0
 11
-4091.075926562543
 21
91.09117518883454
 31
0.0
 11
-4090.990363330382
 21
91.09118217565542
 31
0.0
 11
-4090.905397563056
 21
91.09118930531878
 31
0.0
 11
-4090.821038726023
 21
91.09119657722178
 31
0.0
 11
-4090.737296284744
 21
91.09120399076163
 31
0.0
 11
-4090.654179704675
 21
91.09121154533546
 31
0.0
 11
-4090.571698451276
 21
91.09121924034048
 31
0.0
 11
-4090.489861990006
 21
91.09122707517389
 31
0.0
 11
-4090.408679786321
 21
91.09123504923281
 31
0.0
 11
-4090.328161305682
 21
91.09124316191445
 31
0.0
 11
-4090.248316013545
 21
91.09125141261598
 31
0.0
 11
-4090.169153375372
 21
91.09125980073458
 31
0.0
 11
-4090.105689663768
 21
91.09126667889034
 31
0.0
 11
-4090.042751472207
 21
91.09127363842006
 31
0.0
 11
-4089.980342262621
 21
91.09128067873417
 31
0.0
 11
-4089.918465496942
 21
91.09128779924305
 31
0.0
 11
-4089.8571246371
 21
91.09129499935717
 31
0.0
 11
-4089.796323145027
 21
91.09130227848689
 31
0.0
 11
-4089.736064482653
 21
91.09130963604267
 31
0.0
 11
-4089.676352111911
 21
91.09131707143487
 31
0.0
 11
-4089.617189494731
 21
91.09132458407396
 31
0.0
 11
-4089.558580093045
 21
91.09133217337028
 31
0.0
 11
-4089.500527368785
 21
91.09133983873431
 31
0.0
 11
-4089.44303478388
 21
91.09134757957644
 31
0.0
 11
-4089.386105800264
 21
91.09135539530709
 31
0.0
 11
-4089.329743879867
 21
91.09136328533667
 31
0.0
 11
-4089.273952484619
 21
91.09137124907555
 31
0.0
 11
-4089.218735076453
 21
91.09137928593422
 31
0.0
 11
-4089.164095117301
 21
91.09138739532305
 31
0.0
 11
-4089.110036069093
 21
91.09139557665245
 31
0.0
 11
-4089.056561393759
 21
91.09140382933285
 31
0.0
 11
-4089.003674553232
 21
91.09141215277464
 31
0.0
 11
-4088.951379009443
 21
91.09142054638824
 31
0.0
 11
-4088.899678224325
 21
91.09142900958409
 31
0.0
 11
-4088.848575659807
 21
91.09143754177261
 31
0.0
 11
-4088.798074777819
 21
91.09144614236415
 31
0.0
 11
-4088.748179040295
 21
91.09145481076916
 31
0.0
 11
-4088.698891909166
 21
91.09146354639807
 31
0.0
 11
-4088.650216846363
 21
91.09147234866127
 31
0.0
 11
-4088.602157313816
 21
91.09148121696917
 31
0.0
 11
-4088.554716773458
 21
91.09149015073221
 31
0.0
 11
-4088.50789868722
 21
91.09149914936077
 31
0.0
 11
-4088.461706517031
 21
91.09150821226528
 31
0.0
 11
-4088.416143724825
 21
91.09151733885615
 31
0.0
 11
-4088.371213772534
 21
91.09152652854384
 31
0.0
 11
-4088.326920122086
 21
91.09153578073865
 31
0.0
 11
-4088.283266235414
 21
91.09154509485111
 31
0.0
 11
-4088.240255574451
 21
91.09155447029157
 31
0.0
 11
-4088.197891601124
 21
91.09156390647046
 31
0.0
 11
-4088.156177777369
 21
91.09157340279819
 31
0.0
 11
-4088.115117565114
 21
91.09158295868518
 31
0.0
 11
-4088.074714426292
 21
91.09159257354183
 31
0.0
 11
-4088.034971822833
 21
91.09160224677856
 31
0.0
 11
-4087.995893216669
 21
91.09161197780578
 31
0.0
 11
-4087.957482069732
 21
91.09162176603391
 31
0.0
 11
-4087.919741843953
 21
91.09163161087336
 31
0.0
 11
-4087.882676001262
 21
91.09164151173457
 31
0.0
 11
-4087.846288003591
 21
91.09165146802789
 31
0.0
 11
-4087.810581312871
 21
91.09166147916378
 31
0.0
 11
-4087.777658095701
 21
91.09167093424311
 31
0.0
 11
-4087.745375108883
 21
91.09168042695124
 31
0.0
 11
-4087.713733378644
 21
91.09168995667037
 31
0.0
 11
-4087.68273393121
 21
91.09169952278276
 31
0.0
 11
-4087.65237779281
 21
91.09170912467054
 31
0.0
 11
-4087.622665989672
 21
91.09171876171602
 31
0.0
 11
-4087.59359954802
 21
91.09172843330136
 31
0.0
 11
-4087.565179494085
 21
91.09173813880875
 31
0.0
 11
-4087.537406854091
 21
91.09174787762044
 31
0.0
 11
-4087.510282654266
 21
91.09175764911865
 31
0.0
 11
-4087.483807920839
 21
91.09176745268557
 31
0.0
 11
-4087.457983680035
 21
91.09177728770344
 31
0.0
 11
-4087.432810958082
 21
91.09178715355442
 31
0.0
 11
-4087.408290781209
 21
91.09179704962079
 31
0.0
 11
-4087.384424175639
 21
91.09180697528473
 31
0.0
 11
-4087.361212167603
 21
91.09181692992844
 31
0.0
 11
-4087.338655783327
 21
91.09182691293415
 31
0.0
 11
-4087.316756049038
 21
91.09183692368406
 31
0.0
 11
-4087.295513990964
 21
91.09184696156042
 31
0.0
 11
-4087.274930635331
 21
91.0918570259454
 31
0.0
 11
-4087.255007008366
 21
91.09186711622124
 31
0.0
 11
-4087.235744136298
 21
91.09187723177014
 31
0.0
 11
-4087.217143045354
 21
91.09188737197432
 31
0.0
 11
-4087.199204761759
 21
91.09189753621598
 31
0.0
 11
-4087.181930311742
 21
91.09190772387737
 31
0.0
 11
-4087.16532072153
 21
91.09191793434066
 31
0.0
 11
-4087.14937701735
 21
91.09192816698808
 31
0.0
 11
-4087.134100225429
 21
91.09193842120186
 31
0.0
 11
-4087.119491371994
 21
91.09194869636417
 31
0.0
 11
-4087.105551483274
 21
91.0919589918573
 31
0.0
 11
-4087.092281585494
 21
91.09196930706337
 31
0.0
 11
-4087.079682704882
 21
91.09197964136463
 31
0.0
 11
-4087.067755867665
 21
91.09198999414335
 31
0.0
 11
-4087.056502100072
 21
91.09200036478165
 31
0.0
 11
-4087.045922428327
 21
91.09201075266179
 31
0.0
 11
-4087.03601787866
 21
91.09202115716599
 31
0.0
 11
-4087.026789477296
 21
91.09203157767647
 31
0.0
 11
-4087.018238250464
 21
91.09204201357539
 31
0.0
 11
-4087.010365224391
 21
91.09205246424503
 31
0.0
 11
-4087.003171425303
 21
91.09206292906755
 31
0.0
 11
-4086.996657879427
 21
91.0920734074252
 31
0.0
 11
-4086.990825612993
 21
91.0920838987002
 31
0.0
 11
-4086.985675652226
 21
91.09209440227471
 31
0.0
 11
-4086.981209023353
 21
91.09210491753099
 31
0.0
 11
-4086.977426752602
 21
91.09211544385124
 31
0.0
 11
-4086.974329866199
 21
91.09212598061767
 31
0.0
 11
-4086.971919390374
 21
91.0921365272125
 31
0.0
 11
-4086.970196351351
 21
91.09214708301794
 31
0.0
 11
-4086.969161775359
 21
91.0921576474162
 31
0.0
 11
-4086.968816688625
 21
91.0921682197895
 31
0.0
 11
-4086.9691617753
 21
91.09217879408794
 31
0.0
 11
-4086.970196351233
 21
91.09218936425788
 31
0.0
 11
-4086.971919390197
 21
91.09219992967573
 31
0.0
 11
-4086.974329865964
 21
91.09221048971799
 31
0.0
 11
-4086.977426752307
 21
91.09222104376121
 31
0.0
 11
-4086.981209022999
 21
91.09223159118184
 31
0.0
 11
-4086.985675651814
 21
91.09224213135636
 31
0.0
 11
-4086.990825612522
 21
91.09225266366126
 31
0.0
 11
-4086.996657878898
 21
91.09226318747304
 31
0.0
 11
-4087.003171424714
 21
91.09227370216817
 31
0.0
 11
-4087.010365223744
 21
91.09228420712319
 31
0.0
 11
-4087.018238249759
 21
91.09229470171452
 31
0.0
 11
-4087.026789476533
 21
91.09230518531868
 31
0.0
 11
-4087.036017877838
 21
91.09231565731216
 31
0.0
 11
-4087.045922427447
 21
91.09232611707142
 31
0.0
 11
-4087.056502099134
 21
91.09233656397301
 31
0.0
 11
-4087.06775586667
 21
91.09234699739336
 31
0.0
 11
-4087.079682703828
 21
91.09235741670898
 31
0.0
 11
-4087.092281584382
 21
91.09236782129636
 31
0.0
 11
-4087.105551482105
 21
91.09237821053198
 31
0.0
 11
-4087.119491370767
 21
91.09238858379233
 31
0.0
 11
-4087.134100224144
 21
91.09239894045392
 31
0.0
 11
-4087.149377016008
 21
91.0924092798932
 31
0.0
 11
-4087.165320720131
 21
91.09241960148668
 31
0.0
 11
-4087.181930310285
 21
91.09242990461087
 31
0.0
 11
-4087.199204760245
 21
91.0924401886422
 31
0.0
 11
-4087.217143043783
 21
91.09245045295722
 31
0.0
 11
-4087.235744134671
 21
91.09246069693238
 31
0.0
 11
-4087.255007006682
 21
91.09247091994416
 31
0.0
 11
-4087.27493063359
 21
91.09248112136909
 31
0.0
 11
-4087.295513989166
 21
91.09249130058363
 31
0.0
 11
-4087.316756047184
 21
91.09250145696427
 31
0.0
 11
-4087.338655781417
 21
91.09251158988751
 31
0.0
 11
-4087.361212165637
 21
91.09252169872983
 31
0.0
 11
-4087.384424173617
 21
91.09253178286768
 31
0.0
 11
-4087.408290779131
 21
91.09254184167763
 31
0.0
 11
-4087.432810955949
 21
91.09255187453611
 31
0.0
 11
-4087.457983677846
 21
91.09256188081963
 31
0.0
 11
-4087.483807918595
 21
91.09257185990467
 31
0.0
 11
-4087.510282651967
 21
91.09258181116769
 31
0.0
 11
-4087.537406851736
 21
91.09259173398523
 31
0.0
 11
-4087.565179491676
 21
91.09260162773376
 31
0.0
 11
-4087.593599545557
 21
91.09261149178977
 31
0.0
 11
-4087.622665987154
 21
91.09262132552973
 31
0.0
 11
-4087.652377790239
 21
91.09263112833014
 31
0.0
 11
-4087.682733928584
 21
91.09264089956747
 31
0.0
 11
-4087.713733375964
 21
91.09265063861827
 31
0.0
 11
-4087.745375106149
 21
91.09266034485894
 31
0.0
 11
-4087.777658092914
 21
91.09267001766602
 31
0.0
 11
-4087.810581310032
 21
91.09267965641601
 31
0.0
 11
-4087.846288000695
 21
91.09268986675087
 31
0.0
 11
-4087.882675998309
 21
91.09270002604403
 31
0.0
 11
-4087.919741840944
 21
91.09271013368657
 31
0.0
 11
-4087.957482066668
 21
91.09272018906958
 31
0.0
 11
-4087.99589321355
 21
91.0927301915842
 31
0.0
 11
-4088.034971819659
 21
91.09274014062149
 31
0.0
 11
-4088.074714423064
 21
91.09275003557258
 31
0.0
 11
-4088.115117561831
 21
91.09275987582858
 31
0.0
 11
-4088.156177774032
 21
91.09276966078053
 31
0.0
 11
-4088.197891597734
 21
91.09277938981956
 31
0.0
 11
-4088.240255571006
 21
91.09278906233679
 31
0.0
 11
-4088.283266231917
 21
91.0927986777233
 31
0.0
 11
-4088.326920118536
 21
91.0928082353702
 31
0.0
 11
-4088.371213768933
 21
91.0928177346686
 31
0.0
 11
-4088.416143721172
 21
91.09282717500958
 31
0.0
 11
-4088.461706513326
 21
91.09283655578422
 31
0.0
 11
-4088.507898683463
 21
91.09284587638368
 31
0.0
 11
-4088.554716769651
 21
91.09285513619899
 31
0.0
 11
-4088.602157309958
 21
91.0928643346213
 31
0.0
 11
-4088.650216842455
 21
91.0928734710417
 31
0.0
 11
-4088.698891905208
 21
91.09288254485128
 31
0.0
 11
-4088.748179036288
 21
91.09289155544113
 31
0.0
 11
-4088.798074773762
 21
91.09290050220238
 31
0.0
 11
-4088.8485756557
 21
91.09290938452611
 31
0.0
 11
-4088.899678220171
 21
91.09291820180344
 31
0.0
 11
-4088.951379005242
 21
91.09292695342543
 31
0.0
 11
-4089.003674548983
 21
91.09293563878322
 31
0.0
 11
-4089.056561389462
 21
91.09294425726787
 31
0.0
 11
-4089.110036064749
 21
91.09295280827054
 31
0.0
 11
-4089.164095112911
 21
91.09296129118228
 31
0.0
 11
-4089.218735072017
 21
91.09296970539418
 31
0.0
 11
-4089.273952480138
 21
91.09297805029738
 31
0.0
 11
-4089.32974387534
 21
91.09298632528297
 31
0.0
 11
-4089.386105795692
 21
91.09299452974202
 31
0.0
 11
-4089.443034779264
 21
91.09300266306565
 31
0.0
 11
-4089.500527364124
 21
91.09301072464498
 31
0.0
 11
-4089.558580088341
 21
91.0930187138711
 31
0.0
 11
-4089.617189489984
 21
91.0930266301351
 31
0.0
 11
-4089.676352107121
 21
91.09303447282807
 31
0.0
 11
-4089.736064477821
 21
91.09304224134112
 31
0.0
 11
-4089.796323140152
 21
91.09304993506535
 31
0.0
 11
-4089.857124632184
 21
91.09305755339187
 31
0.0
 11
-4089.918465491985
 21
91.09306509571177
 31
0.0
 11
-4089.980342257624
 21
91.09307256141614
 31
0.0
 11
-4090.042751467169
 21
91.09307994989609
 31
0.0
 11
-4090.105689658691
 21
91.09308726054275
 31
0.0
 11
-4090.169153370255
 21
91.09309449274716
 31
0.0
 11
-4090.248316008381
 21
91.09310332249493
 31
0.0
 11
-4090.328161300469
 21
91.093112018634
 31
0.0
 11
-4090.408679781061
 21
91.09312058050874
 31
0.0
 11
-4090.4898619847
 21
91.09312900746348
 31
0.0
 11
-4090.571698445926
 21
91.09313729884264
 31
0.0
 11
-4090.654179699281
 21
91.09314545399057
 31
0.0
 11
-4090.737296279307
 21
91.09315347225167
 31
0.0
 11
-4090.821038720544
 21
91.09316135297028
 31
0.0
 11
-4090.905397557534
 21
91.09316909549078
 31
0.0
 11
-4090.990363324819
 21
91.09317669915757
 31
0.0
 11
-4091.075926556939
 21
91.09318416331496
 31
0.0
 11
-4091.162077788438
 21
91.09319148730738
 31
0.0
 11
-4091.248807553857
 21
91.09319867047918
 31
0.0
 11
-4091.336106387735
 21
91.09320571217472
 31
0.0
 11
-4091.423964824616
 21
91.09321261173839
 31
0.0
 11
-4091.512373399039
 21
91.09321936851455
 31
0.0
 11
-4091.601322645548
 21
91.09322598184758
 31
0.0
 11
-4091.690803098683
 21
91.09323245108186
 31
0.0
 11
-4091.780805292986
 21
91.09323877556173
 31
0.0
 11
-4091.871319762999
 21
91.09324495463162
 31
0.0
 11
-4091.962337043262
 21
91.09325098763581
 31
0.0
 11
-4092.053847668317
 21
91.09325687391876
 31
0.0
 11
-4092.145842172706
 21
91.0932626128248
 31
0.0
 11
-4092.23831109097
 21
91.09326820369829
 31
0.0
 11
-4092.331244957651
 21
91.09327364588366
 31
0.0
 11
-4092.424634307289
 21
91.09327893872519
 31
0.0
 11
-4092.518469674428
 21
91.09328408156733
 31
0.0
 11
-4092.612741593608
 21
91.09328907375443
 31
0.0
 11
-4092.707440599369
 21
91.09329391463086
 31
0.0
 11
-4092.802557226256
 21
91.093298603541
 31
0.0
 11
-4092.898082008807
 21
91.09330313982919
 31
0.0
 11
-4092.994005481566
 21
91.09330752283982
 31
0.0
 11
-4093.090318179071
 21
91.09331175191727
 31
0.0
 11
-4093.187010635867
 21
91.0933158264059
 31
0.0
 11
-4093.284073386496
 21
91.09331974565011
 31
0.0
 11
-4093.381496965495
 21
91.09332350899422
 31
0.0
 11
-4093.479271907409
 21
91.09332711578264
 31
0.0
 11
-4093.577388746779
 21
91.09333056535974
 31
0.0
 11
-4093.755553557083
 21
91.09333639887278
 31
0.0
 11
-4093.934309722539
 21
91.09334170038095
 31
0.0
 11
-4094.113594995237
 21
91.09334646971061
 31
0.0
 11
-4094.293347127265
 21
91.09335070668816
 31
0.0
 11
-4094.473503870714
 21
91.09335441113989
 31
0.0
 11
-4094.654002977673
 21
91.09335758289222
 31
0.0
 11
-4094.834782200232
 21
91.09336022177153
 31
0.0
 11
-4095.015779290479
 21
91.09336232760414
 31
0.0
 11
-4095.196932000502
 21
91.09336390021646
 31
0.0
 11
-4095.378178082395
 21
91.09336493943484
 31
0.0
 11
-4095.559455288243
 21
91.09336544508562
 31
0.0
 11
-4095.740701370139
 21
91.09336541699523
 31
0.0
 11
-4095.921854080169
 21
91.09336485498999
 31
0.0
 11
-4096.102851170424
 21
91.09336375889626
 31
0.0
 11
-4096.283630392994
 21
91.09336212854041
 31
0.0
 11
-4096.464129499968
 21
91.09335996374885
 31
0.0
 11
-4096.644286243435
 21
91.09335726434793
 31
0.0
 11
-4096.824038375484
 21
91.09335403016397
 31
0.0
 11
-4097.003323648206
 21
91.09335026102339
 31
0.0
 11
-4097.182079813689
 21
91.09334595675253
 31
0.0
 11
-4097.360244624022
 21
91.09334111717777
 31
0.0
 11
-4097.458361463409
 21
91.09333821497074
 31
0.0
 11
-4097.556136405343
 21
91.09333515364503
 31
0.0
 11
-4097.653559984362
 21
91.09333193380344
 31
0.0
 11
-4097.75062273501
 21
91.09332855604879
 31
0.0
 11
-4097.847315191827
 21
91.09332502098391
 31
0.0
 11
-4097.943627889356
 21
91.09332132921168
 31
0.0
 11
-4098.039551362138
 21
91.09331748133484
 31
0.0
 11
-4098.135076144712
 21
91.09331347795626
 31
0.0
 11
-4098.230192771624
 21
91.09330931967872
 31
0.0
 11
-4098.32489177741
 21
91.0933050071051
 31
0.0
 11
-4098.419163696616
 21
91.09330054083817
 31
0.0
 11
-4098.512999063782
 21
91.09329592148079
 31
0.0
 11
-4098.606388413449
 21
91.0932911496358
 31
0.0
 11
-4098.699322280158
 21
91.09328622590597
 31
0.0
 11
-4098.791791198453
 21
91.09328115089413
 31
0.0
 11
-4098.883785702872
 21
91.09327592520313
 31
0.0
 11
-4098.975296327959
 21
91.09327054943579
 31
0.0
 11
-4099.066313608255
 21
91.09326502419492
 31
0.0
 11
-4099.1568280783
 21
91.09325935008334
 31
0.0
 11
-4099.246830272637
 21
91.09325352770389
 31
0.0
 11
-4099.336310725807
 21
91.09324755765937
 31
0.0
 11
-4099.425259972351
 21
91.09324144055262
 31
0.0
 11
-4099.513668546812
 21
91.09323517698647
 31
0.0
 11
-4099.601526983729
 21
91.09322876756372
 31
0.0
 11
-4099.688825817646
 21
91.09322221288721
 31
0.0
 11
-4099.775555583102
 21
91.09321551355974
 31
0.0
 11
-4099.86170681464
 21
91.09320867018417
 31
0.0
 11
-4099.947270046801
 21
91.09320168336328
 31
0.0
 11
-4100.032235814128
 21
91.09319455369995
 31
0.0
 11
-4100.11659465116
 21
91.09318728179693
 31
0.0
 11
-4100.20033709244
 21
91.09317986825711
 31
0.0
 11
-4100.283453672509
 21
91.09317231368327
 31
0.0
 11
-4100.365934925908
 21
91.09316461867823
 31
0.0
 11
-4100.447771387179
 21
91.09315678384486
 31
0.0
 11
-4100.528953590863
 21
91.09314880978594
 31
0.0
 11
-4100.609472071503
 21
91.0931406971043
 31
0.0
 11
-4100.689317363638
 21
91.09313244640276
 31
0.0
 11
-4100.768480001811
 21
91.09312405828416
 31
0.0
 11
-4100.831943713416
 21
91.0931171801284
 31
0.0
 11
-4100.894881904976
 21
91.09311022059868
 31
0.0
 11
-4100.957291114562
 21
91.09310318028459
 31
0.0
 11
-4101.019167880241
 21
91.09309605977566
 31
0.0
 11
-4101.080508740084
 21
91.09308885966156
 31
0.0
 11
-4101.141310232158
 21
91.09308158053183
 31
0.0
 11
-4101.20156889453
 21
91.09307422297607
 31
0.0
 11
-4101.261281265273
 21
91.09306678758385
 31
0.0
 11
-4101.320443882452
 21
91.09305927494479
 31
0.0
 11
-4101.379053284138
 21
91.09305168564845
 31
0.0
 11
-4101.437106008399
 21
91.0930440202844
 31
0.0
 11
-4101.494598593303
 21
91.09303627944227
 31
0.0
 11
-4101.551527576919
 21
91.09302846371163
 31
0.0
 11
-4101.607889497317
 21
91.09302057368207
 31
0.0
 11
-4101.663680892564
 21
91.09301260994316
 31
0.0
 11
-4101.71889830073
 21
91.09300457308447
 31
0.0
 11
-4101.773538259883
 21
91.09299646369567
 31
0.0
 11
-4101.827597308092
 21
91.09298828236626
 31
0.0
 11
-4101.881071983425
 21
91.09298002968586
 31
0.0
 11
-4101.933958823952
 21
91.09297170624406
 31
0.0
 11
-4101.986254367739
 21
91.09296331263043
 31
0.0
 11
-4102.037955152859
 21
91.09295484943458
 31
0.0
 11
-4102.089057717378
 21
91.09294631724607
 31
0.0
 11
-4102.139558599364
 21
91.09293771665453
 31
0.0
 11
-4102.189454336888
 21
91.09292904824952
 31
0.0
 11
-4102.238741468017
 21
91.09292031262061
 31
0.0
 11
-4102.28741653082
 21
91.09291151035743
 31
0.0
 11
-4102.335476063367
 21
91.09290264204951
 31
0.0
 11
-4102.382916603726
 21
91.09289370828647
 31
0.0
 11
-4102.429734689965
 21
91.09288470965788
 31
0.0
 11
-4102.475926860153
 21
91.09287564675336
 31
0.0
 11
-4102.521489652359
 21
91.09286652016249
 31
0.0
 11
-4102.566419604651
 21
91.09285733047483
 31
0.0
 11
-4102.610713255098
 21
91.09284807827997
 31
0.0
 11
-4102.654367141769
 21
91.09283876416752
 31
0.0
 11
-4102.697377802734
 21
91.09282938872707
 31
0.0
 11
-4102.73974177606
 21
91.09281995254817
 31
0.0
 11
-4102.781455599816
 21
91.09281045622043
 31
0.0
 11
-4102.82251581207
 21
91.09280090033347
 31
0.0
 11
-4102.862918950893
 21
91.09279128547681
 31
0.0
 11
-4102.902661554352
 21
91.09278161224007
 31
0.0
 11
-4102.941740160515
 21
91.09277188121284
 31
0.0
 11
-4102.980151307453
 21
91.09276209298471
 31
0.0
 11
-4103.017891533232
 21
91.09275224814525
 31
0.0
 11
-4103.054957375923
 21
91.09274234728406
 31
0.0
 11
-4103.091345373594
 21
91.09273239099073
 31
0.0
 11
-4103.127052064313
 21
91.09272237985485
 31
0.0
 11
-4103.159975281484
 21
91.0927129247755
 31
0.0
 11
-4103.192258268302
 21
91.0927034320674
 31
0.0
 11
-4103.223899998541
 21
91.09269390234825
 31
0.0
 11
-4103.254899445974
 21
91.09268433623585
 31
0.0
 11
-4103.285255584375
 21
91.09267473434805
 31
0.0
 11
-4103.314967387513
 21
91.09266509730261
 31
0.0
 11
-4103.344033829165
 21
91.09265542571728
 31
0.0
 11
-4103.3724538831
 21
91.09264572020989
 31
0.0
 11
-4103.400226523094
 21
91.09263598139818
 31
0.0
 11
-4103.427350722919
 21
91.09262620989998
 31
0.0
 11
-4103.453825456346
 21
91.09261640633307
 31
0.0
 11
-4103.47964969715
 21
91.0926065713152
 31
0.0
 11
-4103.504822419103
 21
91.0925967054642
 31
0.0
 11
-4103.529342595977
 21
91.09258680939784
 31
0.0
 11
-4103.553209201546
 21
91.09257688373393
 31
0.0
 11
-4103.576421209582
 21
91.09256692909021
 31
0.0
 11
-4103.598977593859
 21
91.09255694608449
 31
0.0
 11
-4103.620877328146
 21
91.09254693533455
 31
0.0
 11
-4103.642119386221
 21
91.09253689745822
 31
0.0
 11
-4103.662702741854
 21
91.09252683307324
 31
0.0
 11
-4103.682626368817
 21
91.0925167427974
 31
0.0
 11
-4103.701889240886
 21
91.0925066272485
 31
0.0
 11
-4103.720490331831
 21
91.09249648704432
 31
0.0
 11
-4103.738428615426
 21
91.09248632280264
 31
0.0
 11
-4103.755703065443
 21
91.09247613514128
 31
0.0
 11
-4103.772312655655
 21
91.09246592467797
 31
0.0
 11
-4103.788256359834
 21
91.09245569203057
 31
0.0
 11
-4103.803533151756
 21
91.09244543781679
 31
0.0
 11
-4103.81814200519
 21
91.09243516265445
 31
0.0
 11
-4103.832081893911
 21
91.09242486716136
 31
0.0
 11
-4103.845351791691
 21
91.09241455195529
 31
0.0
 11
-4103.857950672303
 21
91.09240421765401
 31
0.0
 11
-4103.869877509519
 21
91.09239386487531
 31
0.0
 11
-4103.881131277113
 21
91.092383494237
 31
0.0
 11
-4103.891710948858
 21
91.09237310635686
 31
0.0
 11
-4103.901615498525
 21
91.09236270185264
 31
0.0
 11
-4103.910843899888
 21
91.09235228134219
 31
0.0
 11
-4103.919395126721
 21
91.09234184544326
 31
0.0
 11
-4103.927268152795
 21
91.09233139477361
 31
0.0
 11
-4103.934461951882
 21
91.09232092995107
 31
0.0
 11
-4103.940975497756
 21
91.09231045159342
 31
0.0
 11
-4103.946807764191
 21
91.09229996031844
 31
0.0
 11
-4103.951957724958
 21
91.09228945674391
 31
0.0
 11
-4103.956424353832
 21
91.09227894148764
 31
0.0
 11
-4103.960206624583
 21
91.09226841516738
 31
0.0
 11
-4103.963303510985
 21
91.09225787840094
 31
0.0
 11
-4103.96571398681
 21
91.09224733180609
 31
0.0
 11
-4103.967437025834
 21
91.09223677600066
 31
0.0
 11
-4103.968471601825
 21
91.09222621160239
 31
0.0
 11
-4103.968816688559
 21
91.0922156392291
 31
0.0
  0
SPLINE
  5
2DD
330
36
100
AcDbEntity
  8
0
  6
Continuous
 62
     7
100
AcDbSpline
210
0.0
220
0.0
230
1.0
 70
     8
 71
     3
 72
    20
 73
    16
 74
    14
 42
0.0000000001
 43
0.0000000001
 44
0.00000001
 40
0.0
 40
0.0
 40
0.0
 40
0.0
 40
0.3747290212299939
 40
0.7195929465750637
 40
1.033963779233811
 40
1.3172135224832
 40
1.568714179723474
 40
1.787837754555695
 40
1.94914059119205
 40
2.085430962064743
 40
2.196576320382921
 40
2.282444120787705
 40
2.342901821780497
 40
2.377816897095451
 40
2.387057005576325
 40
2.387057005576325
 40
2.387057005576325
 40
2.387057005576325
 10
-4085.356074397836
 20
111.0911493018753
 30
0.0
 10
-4085.231164726416
 20
111.0911734099974
 30
0.0
 10
-4084.991300415352
 20
111.0912197048761
 30
0.0
 10
-4084.646645830748
 20
111.091296510946
 30
0.0
 10
-4084.332484340239
 20
111.0913752059893
 30
0.0
 10
-4084.049443940354
 20
111.0914560708281
 30
0.0
 10
-4083.798152629817
 20
111.0915390443614
 30
0.0
 10
-4083.587510286111
 20
111.0916198021362
 30
0.0
 10
-4083.415271384205
 20
111.0916997588715
 30
0.0
 10
-4083.279025194177
 20
111.0917705119564
 30
0.0
 10
-4083.167924101097
 20
111.0918544790897
 30
0.0
 10
-4083.082100362523
 20
111.0919040169722
 30
0.0
 10
-4083.021687208895
 20
111.0920295595871
 30
0.0
 10
-4082.986815753085
 20
111.0920048768352
 30
0.0
 10
-4082.972097942032
 20
111.0921397122346
 30
0.0
 10
-4082.969018027987
 20
111.0921679284849
 30
0.0
 11
-4085.356074397836
 21
111.0911493018753
 31
0.0
 11
-4084.981345383965
 21
111.0912235675631
 31
0.0
 11
-4084.636481467187
 21
111.0913004384017
 31
0.0
 11
-4084.322110644532
 21
111.0913797453328
 31
0.0
 11
-4084.038860913029
 21
111.0914613192982
 31
0.0
 11
-4083.787360269707
 21
111.0915449912394
 31
0.0
 11
-4083.568236711595
 21
111.0916305920981
 31
0.0
 11
-4083.406933892229
 21
111.0917052346135
 31
0.0
 11
-4083.270643542295
 21
111.0917807818372
 31
0.0
 11
-4083.159498210189
 21
111.0918571149094
 31
0.0
 11
-4083.073630444308
 21
111.0919341149702
 31
0.0
 11
-4083.01317279305
 21
111.0920116631596
 31
0.0
 11
-4082.978257804811
 21
111.0920896406178
 31
0.0
 11
-4082.969018027987
 21
111.0921679284849
 31
0.0
  0
SPLINE
  5
2DE
330
36
100
AcDbEntity
  8
0
  6
Continuous
 62
     3
100
AcDbSpline
210
0.0
220
0.0
230
1.0
 70
     8
 71
     3
 72
    20
 73
    16
 74
    14
 42
0.0000000001
 43
0.0000000001
 44
0.00000001
 40
0.0
 40
0.0
 40
0.0
 40
0.0
 40
0.0159252639886459
 40
0.0564760896026981
 40
0.121520084301746
 40
0.2109247854695922
 40
0.3245577207766579
 40
0.462286415061237
 40
0.6239783920382117
 40
0.8422532679882658
 40
1.091546228730076
 40
1.371262881310388
 40
1.680808832599482
 40
2.019589689355748
 40
2.387011058269344
 40
2.387011058269344
 40
2.387011058269344
 40
2.387011058269344
 10
-4082.969018027987
 20
111.0921679284849
 30
0.0
 10
-4082.974326379892
 20
111.0921957728793
 30
0.0
 10
-4082.993151496895
 20
111.092294518025
 30
0.0
 10
-4083.033658293158
 20
111.0923234269343
 30
0.0
 10
-4083.098658013337
 20
111.0924152582541
 30
0.0
 10
-4083.188018563224
 20
111.0924796778361
 30
0.0
 10
-4083.301607303055
 20
111.0925566141459
 30
0.0
 10
-4083.439291824039
 20
111.0926288814228
 30
0.0
 10
-4083.611856987252
 20
111.0927072461389
 30
0.0
 10
-4083.821610243778
 20
111.0927877175852
 30
0.0
 10
-4084.070705059768
 20
111.092870176298
 30
0.0
 10
-4084.350223569786
 20
111.0929508897798
 30
0.0
 10
-4084.65957138
 20
111.0930296210772
 30
0.0
 10
-4084.998154096934
 20
111.0931067037427
 30
0.0
 10
-4085.233554834196
 20
111.0931534245415
 30
0.0
 10
-4085.356028621427
 20
111.0931777323378
 30
0.0
 11
-4082.969018027987
 21
111.0921679284849
 31
0.0
 11
-4082.984943107032
 21
111.0922446783363
 31
0.0
 11
-4083.02549386039
 21
111.0923212291086
 31
0.0
 11
-4083.090537810409
 21
111.0923974684601
 31
0.0
 11
-4083.17994247943
 21
111.092473284049
 31
0.0
 11
-4083.293575389802
 21
111.0925485635338
 31
0.0
 11
-4083.431304063866
 21
111.0926231945726
 31
0.0
 11
-4083.592996023969
 21
111.0926970648239
 31
0.0
 11
-4083.811270883408
 21
111.0927819638094
 31
0.0
 11
-4084.060563830266
 21
111.0928651637731
 31
0.0
 11
-4084.34028047102
 21
111.0929465026613
 31
0.0
 11
-4084.649826412148
 21
111.0930258184204
 31
0.0
 11
-4084.988607260124
 21
111.0931029489971
 31
0.0
 11
-4085.356028621427
 21
111.0931777323378
 31
0.0
  0
SPLINE
  5
2DF
330
36
100
AcDbEntity
  8
0
  6
Continuous
 62
     3
100
AcDbSpline
210
0.0
220
0.0
230
1.0
 70
     8
 71
     3
 72
   102
 73
    98
 74
    96
 42
0.0000000001
 43
0.0000000001
 44
0.00000001
 40
0.0
 40
0.0
 40
0.0
 40
0.0
 40
0.0653016554328065
 40
0.1297603473556222
 40
0.1933733756104212
 40
0.2561380400392102
 40
0.3180516404822108
 40
0.3791114767815005
 40
0.4393148487782861
 40
0.4986590563156347
 40
0.5571413992330196
 40
0.6147591773726897
 40
0.671509690576944
 40
0.7273902386863165
 40
0.7823981215450365
 40
0.8365306389919383
 40
0.8897850908713788
 40
0.9421587770232389
 40
0.9936489972911134
 40
1.044253051516861
 40
1.093968239542427
 40
1.142791861210765
 40
1.190721216363109
 40
1.237753604842628
 40
1.28388632649261
 40
1.329116681154655
 40
1.373441968674146
 40
1.416859488891164
 40
1.459366541649599
 40
1.500960426793528
 40
1.54163844416814
 40
1.581397893614304
 40
1.62023607497859
 40
1.658150288106023
 40
1.695137832836474
 40
1.731196009021061
 40
1.766322116500359
 40
1.800513455123546
 40
1.833767324735715
 40
1.86608102518339
 40
1.897451856313679
 40
1.927877117976174
 40
1.957354110018492
 40
1.98588013229001
 40
2.013452484642001
 40
2.040068466925949
 40
2.065725378995552
 40
2.090420520705109
 40
2.114151191909772
 40
2.136440177502124
 40
2.157780709799624
 40
2.17817278880232
 40
2.197616414517873
 40
2.216111586954003
 40
2.233658306128376
 40
2.250256572056906
 40
2.265906384767822
 40
2.280607744294344
 40
2.294360650684337
 40
2.307165103997213
 40
2.319021104312129
 40
2.329928651734545
 40
2.339887746403162
 40
2.348898388508332
 40
2.356960578311859
 40
2.364074316187901
 40
2.370239602695742
 40
2.375456438702681
 40
2.379724825671748
 40
2.383044766334662
 40
2.385416266719583
 40
2.386839344946591
 40
2.387314127846739
 40
2.387788275150268
 40
2.389210717532444
 40
2.391581582122571
 40
2.394900887094468
 40
2.399168638515444
 40
2.404384839155773
 40
2.410549490512684
 40
2.417662593493769
 40
2.425724148692116
 40
2.43473415651926
 40
2.444692617274352
 40
2.455599531183244
 40
2.467454898421955
 40
2.480258719131427
 40
2.494010993427209
 40
2.508711721406914
 40
2.524360903151156
 40
2.540958538732264
 40
2.558504628213028
 40
2.576999171650288
 40
2.596442169092632
 40
2.616833620587795
 40
2.638173526177087
 40
2.660461885899662
 40
2.660461885899662
 40
2.660461885899662
 40
2.660461885899662
 10
-4105.581446712262
 20
111.0932341575525
 30
0.0
 10
-4105.603213930354
 20
111.0932300603737
 30
0.0
 10
-4105.646467378707
 20
111.0932219189057
 30
0.0
 10
-4105.710925169377
 20
111.0932094889122
 30
0.0
 10
-4105.774537296355
 20
111.0931969993462
 30
0.0
 10
-4105.837301059471
 20
111.0931844304869
 30
0.0
 10
-4105.899213758571
 20
111.0931717885647
 30
0.0
 10
-4105.960272693494
 20
111.0931590729943
 30
0.0
 10
-4106.02047516408
 20
111.0931462849799
 30
0.0
 10
-4106.079818470172
 20
111.0931334252565
 30
0.0
 10
-4106.138299911607
 20
111.0931204946823
 30
0.0
 10
-4106.195916788227
 20
111.0931074940834
 30
0.0
 10
-4106.252666399874
 20
111.0930944242946
 30
0.0
 10
-4106.308546046386
 20
111.0930812861489
 30
0.0
 10
-4106.363553027608
 20
111.0930680804797
 30
0.0
 10
-4106.417684643376
 20
111.0930548081212
 30
0.0
 10
-4106.470938193529
 20
111.0930414699072
 30
0.0
 10
-4106.523310977917
 20
111.0930280666723
 30
0.0
 10
-4106.57480029637
 20
111.0930145992514
 30
0.0
 10
-4106.625403448734
 20
111.0930010684797
 30
0.0
 10
-4106.675117734849
 20
111.0929874751928
 30
0.0
 10
-4106.723940454556
 20
111.092973820227
 30
0.0
 10
-4106.771868907693
 20
111.092960104419
 30
0.0
 10
-4106.818900394103
 20
111.0929463286059
 30
0.0
 10
-4106.865032213627
 20
111.0929324936259
 30
0.0
 10
-4106.910261666104
 20
111.0929186003174
 30
0.0
 10
-4106.954586051375
 20
111.0929046495199
 30
0.0
 10
-4106.998002669281
 20
111.0928906420738
 30
0.0
 10
-4107.040508819661
 20
111.0928765788204
 30
0.0
 10
-4107.082101802358
 20
111.0928624606021
 30
0.0
 10
-4107.122778917211
 20
111.0928482882627
 30
0.0
 10
-4107.162537464061
 20
111.092834062647
 30
0.0
 10
-4107.20137474275
 20
111.0928197846019
 30
0.0
 10
-4107.239288053118
 20
111.0928054549755
 30
0.0
 10
-4107.276274695003
 20
111.0927910746185
 30
0.0
 10
-4107.312331968248
 20
111.0927766443835
 30
0.0
 10
-4107.347457172693
 20
111.0927621651258
 30
0.0
 10
-4107.381647608181
 20
111.0927476377037
 30
0.0
 10
-4107.414900574549
 20
111.092733062979
 30
0.0
 10
-4107.447213371637
 20
111.0927184418173
 30
0.0
 10
-4107.478583299291
 20
111.0927037750891
 30
0.0
 10
-4107.509007657347
 20
111.09268906367
 30
0.0
 10
-4107.538483745648
 20
111.092674308442
 30
0.0
 10
-4107.567008864033
 20
111.0926595102945
 30
0.0
 10
-4107.594580312343
 20
111.0926446701256
 30
0.0
 10
-4107.62119539042
 20
111.0926297888434
 30
0.0
 10
-4107.646851398104
 20
111.09261486737
 30
0.0
 10
-4107.671545635236
 20
111.0925999066379
 30
0.0
 10
-4107.695117230032
 20
111.0925850075891
 30
0.0
 10
-4107.717570621506
 20
111.0925701819897
 30
0.0
 10
-4107.738911148718
 20
111.0925554437394
 30
0.0
 10
-4107.759303222386
 20
111.092540685324
 30
0.0
 10
-4107.778746842495
 20
111.0925259078118
 30
0.0
 10
-4107.797242009023
 20
111.0925111123172
 30
0.0
 10
-4107.814788721959
 20
111.0924963000101
 30
0.0
 10
-4107.831386981272
 20
111.0924814721335
 30
0.0
 10
-4107.847036787
 20
111.0924666300228
 30
0.0
 10
-4107.861738138929
 20
111.0924517751465
 30
0.0
 10
-4107.875491037718
 20
111.0924369091185
 30
0.0
 10
-4107.888295481085
 20
111.0924220338725
 30
0.0
 10
-4107.9001514766
 20
111.0924071513882
 30
0.0
 10
-4107.911058999162
 20
111.092392265068
 30
0.0
 10
-4107.921018130906
 20
111.0923773759284
 30
0.0
 10
-4107.930028606319
 20
111.0923624961222
 30
0.0
 10
-4107.93809127077
 20
111.0923476074778
 30
0.0
 10
-4107.945203483007
 20
111.0923327954671
 30
0.0
 10
-4107.951373301603
 20
111.0923178418472
 30
0.0
 10
-4107.956576895147
 20
111.0923034594466
 30
0.0
 10
-4107.960881809412
 20
111.0922877437513
 30
0.0
 10
-4107.96410800115
 20
111.0922759916435
 30
0.0
 10
-4107.966691380906
 20
111.0922558591939
 30
0.0
 10
-4107.967742753005
 20
111.0922538052022
 30
0.0
 10
-4107.969014416978
 20
111.0922266157155
 30
0.0
 10
-4107.967743777352
 20
111.0921993683655
 30
0.0
 10
-4107.966692455819
 20
111.092197347811
 30
0.0
 10
-4107.964109991032
 20
111.0921771782206
 30
0.0
 10
-4107.960884322173
 20
111.0921654188692
 30
0.0
 10
-4107.956580085251
 20
111.0921496750687
 30
0.0
 10
-4107.951377112587
 20
111.0921352652215
 30
0.0
 10
-4107.945207934095
 20
111.0921202766832
 30
0.0
 10
-4107.938096355237
 20
111.0921054251909
 30
0.0
 10
-4107.930034325966
 20
111.0920904915206
 30
0.0
 10
-4107.921024484749
 20
111.0920755614714
 30
0.0
 10
-4107.911065987036
 20
111.0920606167687
 30
0.0
 10
-4107.900159098044
 20
111.0920456695992
 30
0.0
 10
-4107.888303735682
 20
111.0920307209701
 30
0.0
 10
-4107.875499924989
 20
111.0920157742869
 30
0.0
 10
-4107.861747658364
 20
111.0920008315283
 30
0.0
 10
-4107.847046938055
 20
111.0919858946312
 30
0.0
 10
-4107.831397763364
 20
111.0919709651977
 30
0.0
 10
-4107.814800134471
 20
111.0919560447443
 30
0.0
 10
-4107.797254051298
 20
111.091941134413
 30
0.0
 10
-4107.778759513838
 20
111.0919262362303
 30
0.0
 10
-4107.759316522079
 20
111.0919113482075
 30
0.0
 10
-4107.738925075981
 20
111.0918964841396
 30
0.0
 10
-4107.717585175569
 20
111.091881594364
 30
0.0
 10
-4107.703042423632
 20
111.0918719949774
 30
0.0
 10
-4107.695612972009
 20
111.0918670909414
 30
0.0
 11
-4105.581446712262
 21
111.0932341575525
 31
0.0
 11
-4105.646748366528
 21
111.0932218154922
 31
0.0
 11
-4105.711207057255
 21
111.0932093967027
 31
0.0
 11
-4105.774820084283
 21
111.0931969020138
 31
0.0
 11
-4105.837584747453
 21
111.0931843322549
 31
0.0
 11
-4105.899498346605
 21
111.0931716882557
 31
0.0
 11
-4105.96055818158
 21
111.0931589708459
 31
0.0
 11
-4106.020761552218
 21
111.093146180855
 31
0.0
 11
-4106.080105758361
 21
111.0931333191127
 31
0.0
 11
-4106.138588099849
 21
111.0931203864486
 31
0.0
 11
-4106.196205876521
 21
111.0931073836922
 31
0.0
 11
-4106.25295638822
 21
111.0930943116733
 31
0.0
 11
-4106.308836934784
 21
111.0930811712215
 31
0.0
 11
-4106.363844816057
 21
111.0930679631663
 31
0.0
 11
-4106.417977331877
 21
111.0930546883374
 31
0.0
 11
-4106.471231782085
 21
111.0930413475644
 31
0.0
 11
-4106.523605466521
 21
111.0930279416768
 31
0.0
 11
-4106.575095685027
 21
111.0930144715045
 31
0.0
 11
-4106.625699737443
 21
111.0930009378769
 31
0.0
 11
-4106.675414923609
 21
111.0929873416236
 31
0.0
 11
-4106.724238543367
 21
111.0929736835744
 31
0.0
 11
-4106.772167896556
 21
111.0929599645588
 31
0.0
 11
-4106.819200283017
 21
111.0929461854064
 31
0.0
 11
-4106.865333002592
 21
111.0929323469469
 31
0.0
 11
-4106.910563355119
 21
111.0929184500098
 31
0.0
 11
-4106.954888640442
 21
111.0929044954248
 31
0.0
 11
-4106.998306158398
 21
111.0928904840215
 31
0.0
 11
-4107.040813208829
 21
111.0928764166295
 31
0.0
 11
-4107.082407091575
 21
111.0928622940785
 31
0.0
 11
-4107.123085106479
 21
111.0928481171981
 31
0.0
 11
-4107.162844553379
 21
111.0928338868178
 31
0.0
 11
-4107.201682732117
 21
111.0928196037673
 31
0.0
 11
-4107.239596942534
 21
111.0928052688762
 31
0.0
 11
-4107.276584484467
 21
111.0927908829742
 31
0.0
 11
-4107.312642657762
 21
111.0927764468908
 31
0.0
 11
-4107.347768762254
 21
111.0927619614557
 31
0.0
 11
-4107.381960097789
 21
111.0927474274985
 31
0.0
 11
-4107.415213964204
 21
111.0927328458488
 31
0.0
 11
-4107.44752766134
 21
111.0927182173363
 31
0.0
 11
-4107.478898489038
 21
111.0927035427904
 31
0.0
 11
-4107.50932374714
 21
111.092688823041
 31
0.0
 11
-4107.538800735485
 21
111.0926740589175
 31
0.0
 11
-4107.567326753913
 21
111.0926592512496
 31
0.0
 11
-4107.594899102266
 21
111.092644400867
 31
0.0
 11
-4107.621515080384
 21
111.0926295085992
 31
0.0
 11
-4107.647171988107
 21
111.0926145752759
 31
0.0
 11
-4107.671867125278
 21
111.0925996017266
 31
0.0
 11
-4107.695597791733
 21
111.0925845887811
 31
0.0
 11
-4107.717886772458
 21
111.0925698580851
 31
0.0
 11
-4107.739227299656
 21
111.0925551049566
 31
0.0
 11
-4107.759619373306
 21
111.0925403302558
 31
0.0
 11
-4107.779062993393
 21
111.0925255348429
 31
0.0
 11
-4107.797558159895
 21
111.0925107195783
 31
0.0
 11
-4107.815104872799
 21
111.0924958853222
 31
0.0
 11
-4107.831703132082
 21
111.092481032935
 31
0.0
 11
-4107.847352937729
 21
111.0924661632769
 31
0.0
 11
-4107.862054289719
 21
111.0924512772082
 31
0.0
 11
-4107.875807188036
 21
111.0924363755893
 31
0.0
 11
-4107.88861163266
 21
111.0924214592803
 31
0.0
 11
-4107.900467623575
 21
111.0924065291415
 31
0.0
 11
-4107.911375160761
 21
111.0923915860334
 31
0.0
 11
-4107.921334244201
 21
111.0923766308161
 31
0.0
 11
-4107.930344873877
 21
111.0923616643499
 31
0.0
 11
-4107.938407049769
 21
111.0923466874952
 31
0.0
 11
-4107.945520771859
 21
111.0923317011122
 31
0.0
 11
-4107.951686040132
 21
111.0923167060612
 31
0.0
 11
-4107.956902854566
 21
111.0923017032025
 31
0.0
 11
-4107.961171215144
 21
111.0922866933963
 31
0.0
 11
-4107.964491121848
 21
111.0922716775031
 31
0.0
 11
-4107.966862574661
 21
111.092256656383
 31
0.0
 11
-4107.968285573563
 21
111.0922416308963
 31
0.0
 11
-4107.968760118536
 21
111.0922266019034
 31
0.0
 11
-4107.968286209562
 21
111.0922115702645
 31
0.0
 11
-4107.966863846625
 21
111.0921965368399
 31
0.0
 11
-4107.964493029704
 21
111.0921815024898
 31
0.0
 11
-4107.96117375878
 21
111.0921664680747
 31
0.0
 11
-4107.956906033838
 21
111.0921514344548
 31
0.0
 11
-4107.951689854857
 21
111.0921364024903
 31
0.0
 11
-4107.945525221821
 21
111.0921213730415
 31
0.0
 11
-4107.938412134711
 21
111.0921063469688
 31
0.0
 11
-4107.930350593509
 21
111.0920913251324
 31
0.0
 11
-4107.921340598196
 21
111.0920763083927
 31
0.0
 11
-4107.911382148754
 21
111.0920612976098
 31
0.0
 11
-4107.900475245165
 21
111.0920462936441
 31
0.0
 11
-4107.888619887411
 21
111.0920312973559
 31
0.0
 11
-4107.875816075473
 21
111.0920163096055
 31
0.0
 11
-4107.862063809334
 21
111.0920013312531
 31
0.0
 11
-4107.847363088975
 21
111.091986363159
 31
0.0
 11
-4107.831713914378
 21
111.0919714061836
 31
0.0
 11
-4107.815116285526
 21
111.0919564611871
 31
0.0
 11
-4107.797570202399
 21
111.0919415290298
 31
0.0
 11
-4107.779075664978
 21
111.091926610572
 31
0.0
 11
-4107.759632673248
 21
111.091911706674
 31
0.0
 11
-4107.739241227188
 21
111.091896818196
 31
0.0
 11
-4107.717901326781
 21
111.0918819459984
 31
0.0
 11
-4107.695612972009
 21
111.0918670909414
 31
0.0
  0
SPLINE
  5
2E0
330
36
100
AcDbEntity
  8
0
  6
Continuous
 62
     7
100
AcDbSpline
210
0.0
220
0.0
230
1.0
 70
     8
 71
     3
 72
     9
 73
     5
 74
     3
 42
0.0000000001
 43
0.0000000001
 44
0.00000001
 40
0.0
 40
0.0
 40
0.0
 40
0.0
 40
0.8075212156072805
 40
2.114120595482636
 40
2.114120595482636
 40
2.114120595482636
 40
2.114120595482636
 10
-4107.695612972009
 20
111.0918670909414
 30
0.0
 10
-4107.426439261282
 20
111.0917424344897
 30
0.0
 10
-4106.721732468923
 20
111.0914160792597
 30
0.0
 10
-4106.017025610837
 20
111.0912860743018
 30
0.0
 10
-4105.581492488584
 20
111.0912057267579
 30
0.0
 11
-4107.695612972009
 21
111.0918670909414
 31
0.0
 11
-4106.888091830238
 21
111.0915217686341
 31
0.0
 11
-4105.581492488584
 21
111.0912057267579
 31
0.0
  0
SPLINE
  5
2E1
330
36
100
AcDbEntity
  8
0
  6
Continuous
 62
     7
100
AcDbSpline
210
0.0
220
0.0
230
1.0
 70
    11
 71
     3
 72
   578
 73
   574
 74
   572
 42
0.0000000001
 43
0.0000000001
 44
0.00000001
 40
0.0
 40
0.0
 40
0.0
 40
0.0
 40
0.0001962248141212
 40
0.0007842380689128
 40
0.0017634366909243
 40
0.0031331784046857
 40
0.0048928165857494
 40
0.0070417034133983
 40
0.0095791906181454
 40
0.0125046297099822
 40
0.0158173720923732
 40
0.0195167690970565
 40
0.0236021720198574
 40
0.028072932130214
 40
0.0329284006759835
 40
0.0381679288960344
 40
0.0437908680191823
 40
0.0497965692656404
 40
0.0561843838532112
 40
0.0629536629930044
 40
0.070103757895751
 40
0.0776340197678934
 40
0.0855437998138861
 40
0.0938324492383848
 40
0.1024993192419865
 40
0.1115437610260033
 40
0.1209651257908238
 40
0.1307627647351488
 40
0.1409360290579273
 40
0.1514842699566339
 40
0.1624068386291673
 40
0.1737030862730066
 40
0.1853723640834472
 40
0.1974140232581948
 40
0.2098274149928571
 40
0.2226118904837055
 40
0.2357668009249753
 40
0.2492914975125282
 40
0.2631853314438732
 40
0.2774476539127282
 40
0.2920778161126739
 40
0.3070751692389865
 40
0.3224390644886505
 40
0.3381688530549113
 40
0.3542638861318337
 40
0.3707235149143091
 40
0.3875470905962441
 40
0.4047339643732963
 40
0.422283487438332
 40
0.4401950109859794
 40
0.4584678862099045
 40
0.4771014643064538
 40
0.4960950964673818
 40
0.5154481338871307
 40
0.5368053394795394
 40
0.5585549642491242
 40
0.5806947224691457
 40
0.6032223284119087
 40
0.6261354963524044
 40
0.6494319405646754
 40
0.6731093753227277
 40
0.6971655148978059
 40
0.7215980735656704
 40
0.7464047655993248
 40
0.7715833052726551
 40
0.7971314068586127
 40
0.8230467846310356
 40
0.8493271528619208
 40
0.8759702258277927
 40
0.9029737177987901
 40
0.930335343050491
 40
0.9580528158548192
 40
0.9861238504864108
 40
1.014546161218978
 40
1.043317462323492
 40
1.072435468075456
 40
1.101897892746726
 40
1.131702450612781
 40
1.161846855944546
 40
1.192328823016571
 40
1.223146066101579
 40
1.25429629947319
 40
1.285777237405021
 40
1.317586594168858
 40
1.349722084039208
 40
1.382181421288755
 40
1.414962320191991
 40
1.448062495020675
 40
1.48147966004838
 40
1.515211529548671
 40
1.549255817793291
 40
1.583610239058522
 40
1.618272507614278
 40
1.653240337735923
 40
1.68851144369518
 40
1.724083539767404
 40
1.759954340223401
 40
1.7961215593367
 40
1.832582911380827
 40
1.869336110630212
 40
1.906378871356558
 40
1.943708907832469
 40
1.992521813853026
 40
2.041728824721157
 40
2.091322903753081
 40
2.141297014261367
 40
2.191644119559486
 40
2.242357182964537
 40
2.293429167788154
 40
2.344853037345604
 40
2.396621754950323
 40
2.448728283915744
 40
2.501165587557112
 40
2.553926629188755
 40
2.607004372123177
 40
2.660391779675605
 40
2.714081815160353
 40
2.768067441891729
 40
2.822341623183128
 40
2.876897322347938
 40
2.931727502701367
 40
2.986825127556796
 40
3.042183160227606
 40
3.097794564029901
 40
3.153652302275236
 40
3.20974933827971
 40
3.266078635356693
 40
3.322633156821369
 40
3.379405865984373
 40
3.436389726162707
 40
3.493577700668822
 40
3.550962752817896
 40
3.608537845925106
 40
3.666295943300171
 40
3.724230008261904
 40
3.782333004121842
 40
3.840597894194247
 40
3.899017641793384
 40
3.957585210232607
 40
4.035110017629821
 40
4.112698095135983
 40
4.190332204148955
 40
4.267995106069779
 40
4.345669562296763
 40
4.423338334231852
 40
4.500984183273349
 40
4.578589870821829
 40
4.656138158276047
 40
4.733611807035666
 40
4.810993578502623
 40
4.888266234074307
 40
4.96541253515084
 40
5.042415243132795
 40
5.119257119419842
 40
5.195920925411197
 40
5.272389422506989
 40
5.348645372106897
 40
5.424671535610604
 40
5.5004506744178
 40
5.575965549928633
 40
5.651198923542352
 40
5.726133556660485
 40
5.800752210680475
 40
5.87503764700387
 40
5.948972627029497
 40
6.022539912157105
 40
6.095722263787363
 40
6.142053140893528
 40
6.188154413182085
 40
6.234022397776243
 40
6.279653411793299
 40
6.32504377235601
 40
6.370189796584861
 40
6.415087801602155
 40
6.459734104526563
 40
6.504125022479027
 40
6.548256872580495
 40
6.592125971953281
 40
6.635728637716515
 40
6.679061186991607
 40
6.722119936899968
 40
6.764901204560737
 40
6.807401307095333
 40
6.849616561626083
 40
6.891543285272138
 40
6.933177795155379
 40
6.974516408395872
 40
7.015555442114598
 40
7.05629121343254
 40
7.096720039470231
 40
7.136838237349118
 40
7.176642124189745
 40
7.21612801711175
 40
7.255292233238869
 40
7.294131089689389
 40
7.332640903585237
 40
7.370817992047441
 40
7.408658672196125
 40
7.446159261151872
 40
7.483316076037551
 40
7.520125433971487
 40
7.556583652077474
 40
7.59268704747431
 40
7.628431937283078
 40
7.663814638625325
 40
7.698831468621699
 40
7.733478744393315
 40
7.767752783061754
 40
7.801649901747244
 40
7.83516641757003
 40
7.868298647652187
 40
7.896555232619165
 40
7.924488417915662
 40
7.952096868057167
 40
7.979379247564177
 40
8.006334220954017
 40
8.032960452745385
 40
8.059256607456987
 40
8.085221349607998
 40
8.110853343714416
 40
8.1361512542968
 40
8.161113745872086
 40
8.185739482959948
 40
8.210027130078711
 40
8.233975351746262
 40
8.2575828124805
 40
8.280848176802074
 40
8.3037701092271
 40
8.326347274276264
 40
8.348578336466634
 40
8.370461960317572
 40
8.391996810345738
 40
8.413181551073729
 40
8.434014847016437
 40
8.454495362694699
 40
8.474621762625743
 40
8.494392711330015
 40
8.513806873324363
 40
8.532862913129767
 40
8.551559495263614
 40
8.569895284245156
 40
8.587868944593698
 40
8.605479140827239
 40
8.622724537466565
 40
8.63960379903026
 40
8.656115590036979
 40
8.672258575005461
 40
8.688031418457264
 40
8.70343278490995
 40
8.718461338883467
 40
8.733115744898793
 40
8.747394667474314
 40
8.761296771130839
 40
8.774820720389348
 40
8.787965179768284
 40
8.800728813789938
 40
8.813110286973664
 40
8.825108263842271
 40
8.836721408916153
 40
8.84794838671697
 40
8.858787861766798
 40
8.869238498590002
 40
8.879293177626181
 40
8.888945669642958
 40
8.89819597464337
 40
8.907044092635397
 40
8.915490023627571
 40
8.923533767628726
 40
8.931175324650523
 40
8.938414694704141
 40
8.945251877804337
 40
8.951686873970449
 40
8.957719683221681
 40
8.963350305584015
 40
8.968578741090232
 40
8.973404989776871
 40
8.977829051695727
 40
8.981850926911768
 40
8.985470615511616
 40
8.988688117613917
 40
8.991503433388814
 40
8.993916563092432
 40
8.99592750713129
 40
8.997536266222248
 40
8.998742841792646
 40
8.999547237415305
 40
8.999949467382129
 40
8.999955340035717
 40
9.000357570001651
 40
9.00116196562478
 40
9.002368541195189
 40
9.003977300285696
 40
9.005988244325001
 40
9.008401374028145
 40
9.011216689803009
 40
9.014434191905712
 40
9.018053880505034
 40
9.022075755720985
 40
9.026499817639728
 40
9.031326066327592
 40
9.036554501833187
 40
9.042185124195781
 40
9.048217933447239
 40
9.054652929612633
 40
9.061490112712983
 40
9.068729482767628
 40
9.076371039788135
 40
9.084414783789322
 40
9.092860714781484
 40
9.101708832773905
 40
9.110959137774207
 40
9.120611629790366
 40
9.130666308827237
 40
9.141116945649696
 40
9.151956420700499
 40
9.16318339850174
 40
9.174796543575491
 40
9.18679452044341
 40
9.199175993627256
 40
9.211939627648924
 40
9.22508408702822
 40
9.23860803628607
 40
9.252510139943189
 40
9.266789062519189
 40
9.281443468533515
 40
9.296472022507279
 40
9.311873388960093
 40
9.327646232411901
 40
9.343789217380721
 40
9.360301008387197
 40
9.377180269950976
 40
9.394425666589804
 40
9.412035862824078
 40
9.430009523172766
 40
9.448345312153863
 40
9.46704189428713
 40
9.486097934092269
 40
9.505512096087122
 40
9.5252830447913
 40
9.545409444723013
 40
9.565889960400888
 40
9.586723256343516
 40
9.607907997070821
 40
9.629442847099968
 40
9.651326470951277
 40
9.673557533140951
 40
9.696134698189717
 40
9.719056630615093
 40
9.742321994936399
 40
9.765929455671115
 40
9.789877677338977
 40
9.814165324457427
 40
9.838791061545717
 40
9.863753553121256
 40
9.889051463703266
 40
9.914683457809588
 40
9.940648199959869
 40
9.966944354671472
 40
9.993570586463568
 40
10.02052555985304
 40
10.04780793935995
 40
10.07541638950208
 40
10.1033495747981
 40
10.13160615976487
 40
10.16473838984732
 40
10.19825490567054
 40
10.23215202435481
 40
10.26642606302353
 40
10.30107333879558
 40
10.33609016879208
 40
10.37147287013505
 40
10.40721775994332
 40
10.4433211553398
 40
10.47977937344466
 40
10.51658873137942
 40
10.55374554626514
 40
10.59124613522153
 40
10.62908681536961
 40
10.6672639038318
 40
10.70577371772821
 40
10.74461257417851
 40
10.78377679030553
 40
10.82326268322801
 40
10.86306657006787
 40
10.90318476794701
 40
10.94361359398507
 40
10.98434936530304
 40
11.02538839902145
 40
11.06672701226219
 40
11.10836152214533
 40
11.15028824579139
 40
11.19250350032133
 40
11.23500360285704
 40
11.27778487051812
 40
11.32084362042597
 40
11.36417616970065
 40
11.40777883546447
 40
11.45164793483611
 40
11.4957797849388
 40
11.54017070289121
 40
11.58481700581565
 40
11.62971501083215
 40
11.67486103506119
 40
11.72025139562417
 40
11.76588240964158
 40
11.81175039423434
 40
11.85785166652385
 40
11.90418254362968
 40
11.97736489525983
 40
12.0509321803877
 40
12.12486716041305
 40
12.19915259673561
 40
12.27377125075604
 40
12.34870588387406
 40
12.42393925748758
 40
12.49945413299855
 40
12.57523327180671
 40
12.65125943531036
 40
12.72751538491056
 40
12.80398388200563
 40
12.88064768799752
 40
12.95748956428454
 40
13.03449227226635
 40
13.11163857334354
 40
13.18891122891532
 40
13.26629300038089
 40
13.34376664914128
 40
13.42131493659569
 40
13.49892062414379
 40
13.57656647318569
 40
13.65423524512061
 40
13.7319097013482
 40
13.80957260326861
 40
13.88720671228194
 40
13.96479478978833
 40
14.04231959718518
 40
14.10088716562499
 40
14.15930691322413
 40
14.21757180329596
 40
14.27567479915564
 40
14.33360886411745
 40
14.39136696149293
 40
14.44894205459815
 40
14.5063271067483
 40
14.56351508125492
 40
14.62049894143319
 40
14.67727165059647
 40
14.73382617206086
 40
14.79015546913699
 40
14.84625250514096
 40
14.90211024338796
 40
14.95772164718954
 40
15.01307967986091
 40
15.06817730471633
 40
15.12300748506921
 40
15.17756318423383
 40
15.2318373655254
 40
15.2858229922564
 40
15.33951302774114
 40
15.39290043529393
 40
15.44597817822908
 40
15.49873921986001
 40
15.55117652350104
 40
15.6032830524674
 40
15.65505177007254
 40
15.70647563962897
 40
15.75754762445285
 40
15.80826068785765
 40
15.8586077931559
 40
15.90858190366562
 40
15.95817598269573
 40
16.00738299356516
 40
16.0561958995856
 40
16.09352593606146
 40
16.13056869678748
 40
16.16732189603626
 40
16.20378324808133
 40
16.2399504671953
 40
16.27582126765079
 40
16.31139336372133
 40
16.34666446968136
 40
16.38163229980261
 40
16.41629456835953
 40
16.45064898962293
 40
16.48469327786911
 40
16.51842514736979
 40
16.55184231239763
 40
16.58494248722529
 40
16.61772338612907
 40
16.65018272337891
 40
16.6823182132484
 40
16.71412757001296
 40
16.74560850794526
 40
16.7767587413162
 40
16.80757598440211
 40
16.83805795147299
 40
16.86820235680519
 40
16.89800691467054
 40
16.92746933934269
 40
16.95658734509441
 40
16.98535864620026
 40
17.01378095693121
 40
17.04185199156279
 40
17.0695694643687
 40
17.09693108961904
 40
17.12393458159119
 40
17.15057765455617
 40
17.17685802278778
 40
17.2027734005589
 40
17.22832150214516
 40
17.25350004181859
 40
17.27830673385214
 40
17.30273929252061
 40
17.3267954320961
 40
17.35047286685344
 40
17.37376931106572
 40
17.39668247900603
 40
17.41921008495023
 40
17.44134984316878
 40
17.46309946793852
 40
17.48445667353089
 40
17.50380971095193
 40
17.5228033431113
 40
17.54143692120708
 40
17.55970979643194
 40
17.57762131997949
 40
17.59517084304523
 40
17.61235771682197
 40
17.62918129250347
 40
17.64564092128541
 40
17.6617359543626
 40
17.67746574292811
 40
17.69282963817784
 40
17.70782699130594
 40
17.72245715350484
 40
17.73671947597346
 40
17.75061330990448
 40
17.76413800649253
 40
17.7772929169342
 40
17.79007739242537
 40
17.80249078415935
 40
17.81453244333425
 40
17.82620172114475
 40
17.83749796878858
 40
17.84842053746011
 40
17.85896877835956
 40
17.8691420426821
 40
17.87893968162612
 40
17.88836104639146
 40
17.89740548817503
 40
17.90607235817903
 40
17.91436100760295
 40
17.92227078764922
 40
17.92980104952157
 40
17.93695114442357
 40
17.94372042356437
 40
17.95010823815108
 40
17.95611393939845
 40
17.96173687851972
 40
17.96697640674059
 40
17.97183187528712
 40
17.97630263539638
 40
17.98038803831986
 40
17.98408743532428
 40
17.98740017770546
 40
17.99032561679878
 40
17.99286310400315
 40
17.99501199083222
 40
17.99677162901194
 40
17.99814137072707
 40
17.99912056934769
 40
17.99970858260288
 40
17.99990480741739
 40
17.99990480741739
 40
17.99990480741739
 40
17.99990480741739
 10
-4099.968816779519
 20
91.09220447246173
 30
0.0
 10
-4099.968751403219
 20
91.09220237095299
 30
0.0
 10
-4099.968490118307
 20
91.0921939719991
 30
0.0
 10
-4099.967902228557
 20
91.09219318371987
 30
0.0
 10
-4099.966923313497
 20
91.09218541674136
 30
0.0
 10
-4099.965553774076
 20
91.09218088349334
 30
0.0
 10
-4099.96379437027
 20
91.09217482404056
 30
0.0
 10
-4099.961645703566
 20
91.09216927905082
 30
0.0
 10
-4099.959108440089
 20
91.09216351575174
 30
0.0
 10
-4099.956183222372
 20
91.0921578082112
 30
0.0
 10
-4099.952870701273
 20
91.09215207270698
 30
0.0
 10
-4099.949171524889
 20
91.09214634207258
 30
0.0
 10
-4099.945086342232
 20
91.09214060940083
 30
0.0
 10
-4099.940615802031
 20
91.0921348793897
 30
0.0
 10
-4099.93576055311
 20
91.09212915247454
 30
0.0
 10
-4099.930521244267
 20
91.0921234299985
 30
0.0
 10
-4099.924898524305
 20
91.09211771276031
 30
0.0
 10
-4099.918893042033
 20
91.09211200153914
 30
0.0
 10
-4099.912505446252
 20
91.09210629699109
 30
0.0
 10
-4099.905736385769
 20
91.09210059971639
 30
0.0
 10
-4099.898586509393
 20
91.09209491026356
 30
0.0
 10
-4099.891056465926
 20
91.09208922914544
 30
0.0
 10
-4099.883146904178
 20
91.0920835568468
 30
0.0
 10
-4099.874858472955
 20
91.09207789383086
 30
0.0
 10
-4099.866191821058
 20
91.09207224054369
 30
0.0
 10
-4099.857147597299
 20
91.09206659741808
 30
0.0
 10
-4099.847726450487
 20
91.09206096487617
 30
0.0
 10
-4099.837929029419
 20
91.09205534333094
 30
0.0
 10
-4099.827755982911
 20
91.09204973318883
 30
0.0
 10
-4099.817207959765
 20
91.09204413485013
 30
0.0
 10
-4099.806285608787
 20
91.09203854871025
 30
0.0
 10
-4099.794989578786
 20
91.09203297516071
 30
0.0
 10
-4099.783320518568
 20
91.09202741458967
 30
0.0
 10
-4099.771279076937
 20
91.09202186738227
 30
0.0
 10
-4099.758865902705
 20
91.09201633392131
 30
0.0
 10
-4099.746081644673
 20
91.09201081458762
 30
0.0
 10
-4099.732926951652
 20
91.09200530976007
 30
0.0
 10
-4099.719402472446
 20
91.09199981981621
 30
0.0
 10
-4099.705508855861
 20
91.09199434513195
 30
0.0
 10
-4099.691246750705
 20
91.09198888608243
 30
0.0
 10
-4099.676616805786
 20
91.0919834430415
 30
0.0
 10
-4099.661619669909
 20
91.09197801638229
 30
0.0
 10
-4099.646255991881
 20
91.09197260647713
 30
0.0
 10
-4099.630526420506
 20
91.09196721369763
 30
0.0
 10
-4099.614431604597
 20
91.09196183841478
 30
0.0
 10
-4099.597972192954
 20
91.09195648099912
 30
0.0
 10
-4099.581148834387
 20
91.09195114182063
 30
0.0
 10
-4099.563962177703
 20
91.09194582124904
 30
0.0
 10
-4099.546412871707
 20
91.09194051965338
 30
0.0
 10
-4099.528501565206
 20
91.09193523740271
 30
0.0
 10
-4099.510228907007
 20
91.09192997486551
 30
0.0
 10
-4099.491595545919
 20
91.09192473241022
 30
0.0
 10
-4099.472602130743
 20
91.09191951040451
 30
0.0
 10
-4099.452700839738
 20
91.09191416181288
 30
0.0
 10
-4099.431880884528
 20
91.09190869576835
 30
0.0
 10
-4099.410132022381
 20
91.09190312108744
 30
0.0
 10
-4099.387993026765
 20
91.09189757898693
 30
0.0
 10
-4099.365466183403
 20
91.09189206983194
 30
0.0
 10
-4099.342553778026
 20
91.09188659398843
 30
0.0
 10
-4099.319258096359
 20
91.09188115182158
 30
0.0
 10
-4099.295581424127
 20
91.09187574369652
 30
0.0
 10
-4099.27152604706
 20
91.09187036997824
 30
0.0
 10
-4099.247094250885
 20
91.09186503103155
 30
0.0
 10
-4099.222288321326
 20
91.09185972722099
 30
0.0
 10
-4099.197110544114
 20
91.09185445891109
 30
0.0
 10
-4099.171563204971
 20
91.09184922646612
 30
0.0
 10
-4099.14564858963
 20
91.0918440302504
 30
0.0
 10
-4099.119368983813
 20
91.09183887062801
 30
0.0
 10
-4099.092726673251
 20
91.09183374796287
 30
0.0
 10
-4099.065723943664
 20
91.09182866261901
 30
0.0
 10
-4099.038363080789
 20
91.09182361496021
 30
0.0
 10
-4099.010646370345
 20
91.09181860535017
 30
0.0
 10
-4098.982576098062
 20
91.09181363415267
 30
0.0
 10
-4098.954154549668
 20
91.09180870173117
 30
0.0
 10
-4098.925384010889
 20
91.09180380844938
 30
0.0
 10
-4098.89626676745
 20
91.09179895467057
 30
0.0
 10
-4098.866805105079
 20
91.09179414075831
 30
0.0
 10
-4098.837001309506
 20
91.091789367076
 30
0.0
 10
-4098.806857666453
 20
91.09178463398686
 30
0.0
 10
-4098.776376461653
 20
91.09177994185427
 30
0.0
 10
-4098.745559980826
 20
91.0917752910413
 30
0.0
 10
-4098.714410509704
 20
91.09177068191143
 30
0.0
 10
-4098.682930334015
 20
91.09176611482756
 30
0.0
 10
-4098.651121739479
 20
91.09176159015294
 30
0.0
 10
-4098.618987011832
 20
91.09175710825073
 30
0.0
 10
-4098.586528436793
 20
91.09175266948387
 30
0.0
 10
-4098.553748300094
 20
91.09174827421552
 30
0.0
 10
-4098.520648887461
 20
91.09174392280858
 30
0.0
 10
-4098.487232484619
 20
91.09173961562617
 30
0.0
 10
-4098.453501377298
 20
91.0917353530312
 30
0.0
 10
-4098.419457851222
 20
91.09173113538657
 30
0.0
 10
-4098.38510419212
 20
91.09172696305524
 30
0.0
 10
-4098.35044268572
 20
91.09172283640024
 30
0.0
 10
-4098.315475617744
 20
91.09171875578424
 30
0.0
 10
-4098.280205273924
 20
91.09171472157028
 30
0.0
 10
-4098.244633939984
 20
91.09171073412117
 30
0.0
 10
-4098.208763901655
 20
91.09170679379973
 30
0.0
 10
-4098.172597444658
 20
91.09170290096883
 30
0.0
 10
-4098.136136854727
 20
91.09169905599131
 30
0.0
 10
-4098.099384417582
 20
91.09169525922982
 30
0.0
 10
-4098.062342418955
 20
91.09169151104724
 30
0.0
 10
-4098.021280518082
 20
91.09168744191274
 30
0.0
 10
-4097.97616386717
 20
91.09168307786983
 30
0.0
 10
-4097.926959202084
 20
91.09167844757249
 30
0.0
 10
-4097.87736746882
 20
91.09167390871501
 30
0.0
 10
-4097.827395704073
 20
91.09166946168605
 30
0.0
 10
-4097.777050944523
 20
91.09166510687467
 30
0.0
 10
-4097.726340226861
 20
91.09166084466934
 30
0.0
 10
-4097.675270587769
 20
91.09165667545904
 30
0.0
 10
-4097.623849063934
 20
91.09165259963241
 30
0.0
 10
-4097.572082692046
 20
91.09164861757813
 30
0.0
 10
-4097.519978508786
 20
91.09164472968482
 30
0.0
 10
-4097.467543550845
 20
91.09164093634115
 30
0.0
 10
-4097.414784854905
 20
91.0916372379356
 30
0.0
 10
-4097.361709457655
 20
91.09163363485681
 30
0.0
 10
-4097.308324395777
 20
91.09163012749312
 30
0.0
 10
-4097.254636705965
 20
91.09162671623326
 30
0.0
 10
-4097.200653424896
 20
91.09162340146544
 30
0.0
 10
-4097.146381589262
 20
91.09162018357824
 30
0.0
 10
-4097.091828235748
 20
91.09161706296013
 30
0.0
 10
-4097.037000401042
 20
91.09161403999936
 30
0.0
 10
-4096.981905121824
 20
91.09161111508438
 30
0.0
 10
-4096.926549434788
 20
91.0916082886035
 30
0.0
 10
-4096.870940376615
 20
91.0916055609451
 30
0.0
 10
-4096.815084983993
 20
91.09160293249745
 30
0.0
 10
-4096.758990293607
 20
91.09160040364881
 30
0.0
 10
-4096.702663342146
 20
91.09159797478756
 30
0.0
 10
-4096.64611116629
 20
91.09159564630183
 30
0.0
 10
-4096.589340802733
 20
91.09159341858008
 30
0.0
 10
-4096.532359288154
 20
91.09159129201024
 30
0.0
 10
-4096.475173659249
 20
91.09158926698088
 30
0.0
 10
-4096.417790952692
 20
91.09158734387988
 30
0.0
 10
-4096.360218205178
 20
91.0915855230956
 30
0.0
 10
-4096.302462453388
 20
91.09158380501629
 30
0.0
 10
-4096.244530734012
 20
91.09158219002987
 30
0.0
 10
-4096.186430083733
 20
91.09158067852465
 30
0.0
 10
-4096.12816753924
 20
91.09157927088896
 30
0.0
 10
-4096.069750137218
 20
91.09157796751035
 30
0.0
 10
-4096.004912762753
 20
91.09157664039756
 30
0.0
 10
-4095.933685944984
 20
91.09157533443955
 30
0.0
 10
-4095.856103613688
 20
91.0915740994908
 30
0.0
 10
-4095.778475250882
 20
91.09157305068115
 30
0.0
 10
-4095.700818095166
 20
91.09157218776977
 30
0.0
 10
-4095.623149385143
 20
91.09157151051613
 30
0.0
 10
-4095.545486359407
 20
91.09157101867936
 30
0.0
 10
-4095.467846256568
 20
91.09157071201892
 30
0.0
 10
-4095.39024631522
 20
91.09157059029374
 30
0.0
 10
-4095.312703773966
 20
91.09157065326312
 30
0.0
 10
-4095.235235871404
 20
91.09157090068607
 30
0.0
 10
-4095.157859846142
 20
91.09157133232154
 30
0.0
 10
-4095.080592936769
 20
91.09157194792856
 30
0.0
 10
-4095.003452381899
 20
91.09157274726604
 30
0.0
 10
-4094.926455420122
 20
91.09157373009273
 30
0.0
 10
-4094.849619290045
 20
91.09157489616761
 30
0.0
 10
-4094.772961230264
 20
91.09157624524914
 30
0.0
 10
-4094.696498479384
 20
91.09157777709618
 30
0.0
 10
-4094.620248276003
 20
91.09157949146726
 30
0.0
 10
-4094.544227858723
 20
91.09158138812087
 30
0.0
 10
-4094.468454466145
 20
91.09158346681561
 30
0.0
 10
-4094.392945336868
 20
91.09158572730973
 30
0.0
 10
-4094.317717709494
 20
91.09158816936159
 30
0.0
 10
-4094.242788822622
 20
91.09159079272942
 30
0.0
 10
-4094.168175914854
 20
91.09159359717141
 30
0.0
 10
-4094.093896224791
 20
91.09159658244568
 30
0.0
 10
-4094.019966991033
 20
91.09159974831002
 30
0.0
 10
-4093.946405452181
 20
91.0916030945229
 30
0.0
 10
-4093.882045280968
 20
91.09160619598376
 30
0.0
 10
-4093.826840447364
 20
91.09160898001416
 30
0.0
 10
-4093.780740402763
 20
91.0916113858473
 30
0.0
 10
-4093.734873645863
 20
91.09161386072498
 30
0.0
 10
-4093.689243859543
 20
91.09161640430668
 30
0.0
 10
-4093.643854726681
 20
91.09161901625143
 30
0.0
 10
-4093.598709930158
 20
91.09162169621857
 30
0.0
 10
-4093.553813152851
 20
91.09162444386716
 30
0.0
 10
-4093.509168077644
 20
91.09162725885649
 30
0.0
 10
-4093.464778387409
 20
91.09163014084554
 30
0.0
 10
-4093.420647765034
 20
91.09163308949374
 30
0.0
 10
-4093.37677989339
 20
91.09163610445989
 30
0.0
 10
-4093.333178455361
 20
91.09163918540341
 30
0.0
 10
-4093.289847133828
 20
91.09164233198328
 30
0.0
 10
-4093.246789611666
 20
91.09164554385859
 30
0.0
 10
-4093.204009571758
 20
91.09164882068858
 30
0.0
 10
-4093.161510696979
 20
91.09165216213211
 30
0.0
 10
-4093.119296670214
 20
91.09165556784853
 30
0.0
 10
-4093.077371174337
 20
91.09165903749664
 30
0.0
 10
-4093.03573789223
 20
91.09166257073562
 30
0.0
 10
-4092.994400506773
 20
91.09166616722447
 30
0.0
 10
-4092.953362700842
 20
91.09166982662221
 30
0.0
 10
-4092.912628157322
 20
91.09167354858781
 30
0.0
 10
-4092.872200559087
 20
91.09167733278028
 30
0.0
 10
-4092.83208358902
 20
91.09168117885852
 30
0.0
 10
-4092.792280929997
 20
91.09168508648151
 30
0.0
 10
-4092.752796264899
 20
91.09168905530814
 30
0.0
 10
-4092.713633276609
 20
91.09169308499742
 30
0.0
 10
-4092.674795647998
 20
91.09169717520797
 30
0.0
 10
-4092.636287061953
 20
91.09170132559882
 30
0.0
 10
-4092.598111201349
 20
91.09170553582877
 30
0.0
 10
-4092.560271749067
 20
91.09170980555655
 30
0.0
 10
-4092.522772387987
 20
91.09171413444089
 30
0.0
 10
-4092.485616800988
 20
91.09171852214064
 30
0.0
 10
-4092.448808670948
 20
91.09172296831437
 30
0.0
 10
-4092.412351680747
 20
91.0917274726207
 30
0.0
 10
-4092.376249513264
 20
91.09173203471829
 30
0.0
 10
-4092.34050585138
 20
91.09173665426577
 30
0.0
 10
-4092.305124377975
 20
91.09174133092155
 30
0.0
 10
-4092.270108775923
 20
91.09174606434415
 30
0.0
 10
-4092.23546272811
 20
91.091750854192
 30
0.0
 10
-4092.20118991741
 20
91.09175570012336
 30
0.0
 10
-4092.167294026705
 20
91.09176060179662
 30
0.0
 10
-4092.133778738876
 20
91.09176555887021
 30
0.0
 10
-4092.102143628947
 20
91.09177034469936
 30
0.0
 10
-4092.072369629185
 20
91.09177494507856
 30
0.0
 10
-4092.044436889398
 20
91.09177934622711
 30
0.0
 10
-4092.016828884772
 20
91.09178378232063
 30
0.0
 10
-4091.989546950793
 20
91.09178825301113
 30
0.0
 10
-4091.96259242294
 20
91.09179275795052
 30
0.0
 10
-4091.935966636695
 20
91.09179729679045
 30
0.0
 10
-4091.909670927543
 20
91.09180186918279
 30
0.0
 10
-4091.883706630961
 20
91.09180647477916
 30
0.0
 10
-4091.858075082434
 20
91.09181111323129
 30
0.0
 10
-4091.832777617444
 20
91.09181578419077
 30
0.0
 10
-4091.807815571471
 20
91.09182048730908
 30
0.0
 10
-4091.783190279999
 20
91.09182522223802
 30
0.0
 10
-4091.758903078509
 20
91.0918299886286
 30
0.0
 10
-4091.734955302482
 20
91.09183478613255
 30
0.0
 10
-4091.711348287401
 20
91.09183961440103
 30
0.0
 10
-4091.688083368749
 20
91.0918444730853
 30
0.0
 10
-4091.665161882005
 20
91.09184936183647
 30
0.0
 10
-4091.642585162651
 20
91.0918542803056
 30
0.0
 10
-4091.620354546174
 20
91.09185922814369
 30
0.0
 10
-4091.598471368047
 20
91.09186420500151
 30
0.0
 10
-4091.576936963762
 20
91.09186921052987
 30
0.0
 10
-4091.555752668793
 20
91.09187424437926
 30
0.0
 10
-4091.534919818626
 20
91.0918793062002
 30
0.0
 10
-4091.514439748739
 20
91.09188439564296
 30
0.0
 10
-4091.494313794619
 20
91.09188951235771
 30
0.0
 10
-4091.474543291744
 20
91.09189465599428
 30
0.0
 10
-4091.455129575599
 20
91.09189982620265
 30
0.0
 10
-4091.436073981661
 20
91.09190502263198
 30
0.0
 10
-4091.41737784542
 20
91.09191024493183
 30
0.0
 10
-4091.399042502347
 20
91.09191549275097
 30
0.0
 10
-4091.381069287932
 20
91.0919207657381
 30
0.0
 10
-4091.363459537655
 20
91.09192606354165
 30
0.0
 10
-4091.346214586998
 20
91.09193138580946
 30
0.0
 10
-4091.329335771441
 20
91.09193673218906
 30
0.0
 10
-4091.312824426469
 20
91.09194210232744
 30
0.0
 10
-4091.296681887559
 20
91.09194749587113
 30
0.0
 10
-4091.280909490199
 20
91.09195291246593
 30
0.0
 10
-4091.265508569867
 20
91.09195835175707
 30
0.0
 10
-4091.250480462044
 20
91.09196381338899
 30
0.0
 10
-4091.235826502216
 20
91.09196929700504
 30
0.0
 10
-4091.22154802586
 20
91.09197480224782
 30
0.0
 10
-4091.207646368462
 20
91.09198032875864
 30
0.0
 10
-4091.194122865502
 20
91.09198587617735
 30
0.0
 10
-4091.180978852459
 20
91.09199144414252
 30
0.0
 10
-4091.168215664823
 20
91.09199703229075
 30
0.0
 10
-4091.155834638067
 20
91.09200264025645
 30
0.0
 10
-4091.143837107677
 20
91.09200826767183
 30
0.0
 10
-4091.132224409135
 20
91.09201391416599
 30
0.0
 10
-4091.120997877923
 20
91.09201957936473
 30
0.0
 10
-4091.11015884952
 20
91.09202526288971
 30
0.0
 10
-4091.099710587439
 20
91.09203096330603
 30
0.0
 10
-4091.089657986437
 20
91.09203667804751
 30
0.0
 10
-4091.080005496116
 20
91.09204240441173
 30
0.0
 10
-4091.070755192889
 20
91.09204814076911
 30
0.0
 10
-4091.06190707676
 20
91.09205388666024
 30
0.0
 10
-4091.053461147723
 20
91.09205964161339
 30
0.0
 10
-4091.045417405783
 20
91.09206540514251
 30
0.0
 10
-4091.037775850932
 20
91.0920711767395
 30
0.0
 10
-4091.030536483182
 20
91.09207695587958
 30
0.0
 10
-4091.02369930251
 20
91.09208274197924
 30
0.0
 10
-4091.017264308982
 20
91.09208853450146
 30
0.0
 10
-4091.011231502362
 20
91.09209433254995
 30
0.0
 10
-4091.005600883447
 20
91.0921001361717
 30
0.0
 10
-4091.000372449572
 20
91.09210594187732
 30
0.0
 10
-4090.995546209573
 20
91.09211175743617
 30
0.0
 10
-4090.991122134351
 20
91.09211755273975
 30
0.0
 10
-4090.987100318581
 20
91.09212342017199
 30
0.0
 10
-4090.983480458392
 20
91.09212905608325
 30
0.0
 10
-4090.980263512619
 20
91.092135408999
 30
0.0
 10
-4090.97744651861
 20
91.09213953440278
 30
0.0
 10
-4090.975038385182
 20
91.0921502657587
 30
0.0
 10
-4090.973013274308
 20
91.0921419495115
 30
0.0
 10
-4090.971442420211
 20
91.09218525023533
 30
0.0
 10
-4090.970143783708
 20
91.09209946154698
 30
0.0
 10
-4090.969527552825
 20
91.09229147845328
 30
0.0
 10
-4090.968867749405
 20
91.0920421977094
 30
0.0
 10
-4090.968867748659
 20
91.09231653867954
 30
0.0
 10
-4090.969527553433
 20
91.09206726161679
 30
0.0
 10
-4090.97014378327
 20
91.09225928196101
 30
0.0
 10
-4090.97144242024
 20
91.09217350051733
 30
0.0
 10
-4090.973013274101
 20
91.0922168100047
 30
0.0
 10
-4090.975038385017
 20
91.09220850505498
 30
0.0
 10
-4090.977446518387
 20
91.09221924984537
 30
0.0
 10
-4090.980263512372
 20
91.09222339096445
 30
0.0
 10
-4090.983480458112
 20
91.09222976182679
 30
0.0
 10
-4090.987100318266
 20
91.0922354179323
 30
0.0
 10
-4090.991122134006
 20
91.09224130780135
 30
0.0
 10
-4090.995546209196
 20
91.09224712778573
 30
0.0
 10
-4091.000372449162
 20
91.09225297026906
 30
0.0
 10
-4091.005600883003
 20
91.09225880514279
 30
0.0
 10
-4091.011231501888
 20
91.09226464017644
 30
0.0
 10
-4091.017264308474
 20
91.09227047188045
 30
0.0
 10
-4091.023699301969
 20
91.092276300302
 30
0.0
 10
-4091.03053648261
 20
91.09228212454457
 30
0.0
 10
-4091.037775850327
 20
91.09228794407133
 30
0.0
 10
-4091.045417405146
 20
91.09229375829878
 30
0.0
 10
-4091.053461147054
 20
91.09229956670193
 30
0.0
 10
-4091.061907076057
 20
91.09230536877288
 30
0.0
 10
-4091.070755192156
 20
91.0923111640255
 30
0.0
 10
-4091.08000549535
 20
91.0923169519881
 30
0.0
 10
-4091.089657985639
 20
91.09232273220127
 30
0.0
 10
-4091.099710586608
 20
91.09232850302375
 30
0.0
 10
-4091.110158848658
 20
91.09233426172838
 30
0.0
 10
-4091.120997877029
 20
91.09234000572172
 30
0.0
 10
-4091.132224408209
 20
91.09234573355045
 30
0.0
 10
-4091.143837106721
 20
91.09235144482919
 30
0.0
 10
-4091.155834637078
 20
91.09235713917573
 30
0.0
 10
-4091.168215663802
 20
91.09236281621229
 30
0.0
 10
-4091.180978851408
 20
91.09236847556316
 30
0.0
 10
-4091.194122864419
 20
91.0923741168556
 30
0.0
 10
-4091.207646367349
 20
91.09237973971875
 30
0.0
 10
-4091.221548024715
 20
91.09238534378349
 30
0.0
 10
-4091.235826501041
 20
91.09239092868245
 30
0.0
 10
-4091.250480460837
 20
91.09239649404937
 30
0.0
 10
-4091.265508568628
 20
91.09240203951946
 30
0.0
 10
-4091.280909488932
 20
91.09240756472863
 30
0.0
 10
-4091.296681886261
 20
91.09241306931378
 30
0.0
 10
-4091.312824425139
 20
91.09241855291279
 30
0.0
 10
-4091.329335770082
 20
91.092424015164
 30
0.0
 10
-4091.346214585607
 20
91.09242945570638
 30
0.0
 10
-4091.363459536236
 20
91.09243487417957
 30
0.0
 10
-4091.381069286484
 20
91.09244027022368
 30
0.0
 10
-4091.399042500869
 20
91.09244564347904
 30
0.0
 10
-4091.417377843909
 20
91.0924509935866
 30
0.0
 10
-4091.436073980123
 20
91.09245632018764
 30
0.0
 10
-4091.45512957403
 20
91.09246162292359
 30
0.0
 10
-4091.474543290148
 20
91.09246690143623
 30
0.0
 10
-4091.494313792993
 20
91.09247215536774
 30
0.0
 10
-4091.514439747086
 20
91.09247738436032
 30
0.0
 10
-4091.534919816942
 20
91.09248258805637
 30
0.0
 10
-4091.555752667081
 20
91.09248776609873
 30
0.0
 10
-4091.576936962022
 20
91.09249291813025
 30
0.0
 10
-4091.598471366281
 20
91.09249804379377
 30
0.0
 10
-4091.620354544377
 20
91.09250314273255
 30
0.0
 10
-4091.642585160828
 20
91.09250821458987
 30
0.0
 10
-4091.665161880153
 20
91.09251325900904
 30
0.0
 10
-4091.688083366867
 20
91.09251827563359
 30
0.0
 10
-4091.711348285496
 20
91.09252326410726
 30
0.0
 10
-4091.734955300547
 20
91.09252822407348
 30
0.0
 10
-4091.758903076548
 20
91.09253315517628
 30
0.0
 10
-4091.783190278012
 20
91.09253805705939
 30
0.0
 10
-4091.807815569455
 20
91.09254292936669
 30
0.0
 10
-4091.832777615404
 20
91.09254777174232
 30
0.0
 10
-4091.858075080365
 20
91.0925525838302
 30
0.0
 10
-4091.883706628868
 20
91.0925573652745
 30
0.0
 10
-4091.909670925419
 20
91.0925621157194
 30
0.0
 10
-4091.93596663455
 20
91.09256683480912
 30
0.0
 10
-4091.962592420767
 20
91.09257152218788
 30
0.0
 10
-4091.989546948596
 20
91.09257617749999
 30
0.0
 10
-4092.016828882549
 20
91.09258080038981
 30
0.0
 10
-4092.044436887151
 20
91.09258539050173
 30
0.0
 10
-4092.072369626913
 20
91.09258994748024
 30
0.0
 10
-4092.102143626646
 20
91.09259471396138
 30
0.0
 10
-4092.133778736547
 20
91.09259967627513
 30
0.0
 10
-4092.167294024351
 20
91.09260482032238
 30
0.0
 10
-4092.201189915025
 20
91.09260991109251
 30
0.0
 10
-4092.235462725699
 20
91.09261494822374
 30
0.0
 10
-4092.270108773485
 20
91.09261993135337
 30
0.0
 10
-4092.30512437551
 20
91.09262486011959
 30
0.0
 10
-4092.34050584889
 20
91.09262973416003
 30
0.0
 10
-4092.376249510748
 20
91.09263455311267
 30
0.0
 10
-4092.412351678203
 20
91.09263931661559
 30
0.0
 10
-4092.448808668378
 20
91.09264402430661
 30
0.0
 10
-4092.485616798393
 20
91.09264867582397
 30
0.0
 10
-4092.522772385368
 20
91.0926532708057
 30
0.0
 10
-4092.560271746424
 20
91.09265780888991
 30
0.0
 10
-4092.598111198679
 20
91.09266228971478
 30
0.0
 10
-4092.636287059259
 20
91.09266671291864
 30
0.0
 10
-4092.674795645282
 20
91.09267107813957
 30
0.0
 10
-4092.713633273868
 20
91.09267538501587
 30
0.0
 10
-4092.752796262135
 20
91.09267963318587
 30
0.0
 10
-4092.792280927212
 20
91.09268382228795
 30
0.0
 10
-4092.832083586211
 20
91.09268795196027
 30
0.0
 10
-4092.872200556257
 20
91.09269202184143
 30
0.0
 10
-4092.91262815447
 20
91.0926960315696
 30
0.0
 10
-4092.95336269797
 20
91.09269998078341
 30
0.0
 10
-4092.994400503878
 20
91.0927038691211
 30
0.0
 10
-4093.035737889314
 20
91.09270769622118
 30
0.0
 10
-4093.077371171401
 20
91.09271146172219
 30
0.0
 10
-4093.119296667256
 20
91.09271516526246
 30
0.0
 10
-4093.161510694004
 20
91.09271880648063
 30
0.0
 10
-4093.204009568764
 20
91.09272238501521
 30
0.0
 10
-4093.246789608653
 20
91.09272590050456
 30
0.0
 10
-4093.289847130796
 20
91.09272935258741
 30
0.0
 10
-4093.333178452312
 20
91.09273274090219
 30
0.0
 10
-4093.376779890323
 20
91.09273606508758
 30
0.0
 10
-4093.420647761946
 20
91.09273932478197
 30
0.0
 10
-4093.464778384308
 20
91.09274251962415
 30
0.0
 10
-4093.509168074524
 20
91.09274564925261
 30
0.0
 10
-4093.553813149717
 20
91.09274871330598
 30
0.0
 10
-4093.598709927005
 20
91.09275171142276
 30
0.0
 10
-4093.643854723513
 20
91.09275464324176
 30
0.0
 10
-4093.68924385636
 20
91.09275750840155
 30
0.0
 10
-4093.734873642665
 20
91.09276030654074
 30
0.0
 10
-4093.780740399549
 20
91.09276303729791
 30
0.0
 10
-4093.826840444136
 20
91.09276570031202
 30
0.0
 10
-4093.882045277724
 20
91.09276879231682
 30
0.0
 10
-4093.946405448921
 20
91.0927722528275
 30
0.0
 10
-4094.01996698775
 20
91.09277600942234
 30
0.0
 10
-4094.093896221491
 20
91.09277958772
 30
0.0
 10
-4094.168175911535
 20
91.09278298738265
 30
0.0
 10
-4094.242788819286
 20
91.09278620807191
 30
0.0
 10
-4094.317717706142
 20
91.09278924944992
 30
0.0
 10
-4094.392945333501
 20
91.09279211117843
 30
0.0
 10
-4094.468454462765
 20
91.09279479291971
 30
0.0
 10
-4094.544227855331
 20
91.09279729433578
 30
0.0
 10
-4094.620248272599
 20
91.09279961508889
 30
0.0
 10
-4094.696498475971
 20
91.09280175484136
 30
0.0
 10
-4094.77296122684
 20
91.09280371325559
 30
0.0
 10
-4094.849619286611
 20
91.09280548999386
 30
0.0
 10
-4094.926455416682
 20
91.09280708471886
 30
0.0
 10
-4095.003452378451
 20
91.09280849709299
 30
0.0
 10
-4095.080592933318
 20
91.0928097267789
 30
0.0
 10
-4095.157859842682
 20
91.0928107734393
 30
0.0
 10
-4095.235235867944
 20
91.09281163673688
 30
0.0
 10
-4095.3127037705
 20
91.09281231633446
 30
0.0
 10
-4095.390246311754
 20
91.09281281189487
 30
0.0
 10
-4095.4678462531
 20
91.092813123081
 30
0.0
 10
-4095.545486355944
 20
91.0928132495558
 30
0.0
 10
-4095.623149381679
 20
91.09281319098228
 30
0.0
 10
-4095.700818091705
 20
91.09281294702353
 30
0.0
 10
-4095.778475247425
 20
91.09281251734262
 30
0.0
 10
-4095.856103610236
 20
91.0928119016028
 30
0.0
 10
-4095.933685941537
 20
91.09281109946704
 30
0.0
 10
-4096.004912759313
 20
91.0928101908662
 30
0.0
 10
-4096.069750133784
 20
91.09280922546537
 30
0.0
 10
-4096.128167535813
 20
91.0928082479834
 30
0.0
 10
-4096.186430080312
 20
91.09280716538019
 30
0.0
 10
-4096.2445307306
 20
91.09280597800448
 30
0.0
 10
-4096.302462449981
 20
91.09280468620514
 30
0.0
 10
-4096.360218201781
 20
91.09280329033112
 30
0.0
 10
-4096.417790949305
 20
91.09280179073119
 30
0.0
 10
-4096.47517365587
 20
91.09280018775452
 30
0.0
 10
-4096.532359284789
 20
91.09279848174984
 30
0.0
 10
-4096.589340799376
 20
91.09279667306609
 30
0.0
 10
-4096.646111162947
 20
91.09279476205241
 30
0.0
 10
-4096.702663338812
 20
91.09279274905757
 30
0.0
 10
-4096.758990290286
 20
91.09279063443074
 30
0.0
 10
-4096.815084980686
 20
91.0927884185208
 30
0.0
 10
-4096.870940373321
 20
91.09278610167685
 30
0.0
 10
-4096.92654943151
 20
91.09278368424789
 30
0.0
 10
-4096.981905118561
 20
91.09278116658297
 30
0.0
 10
-4097.037000397792
 20
91.0927785490312
 30
0.0
 10
-4097.091828232517
 20
91.09277583194162
 30
0.0
 10
-4097.146381586046
 20
91.0927730156634
 30
0.0
 10
-4097.200653421699
 20
91.09277010054566
 30
0.0
 10
-4097.254636702783
 20
91.09276708693753
 30
0.0
 10
-4097.308324392614
 20
91.09276397518819
 30
0.0
 10
-4097.36170945451
 20
91.09276076564687
 30
0.0
 10
-4097.414784851781
 20
91.09275745866285
 30
0.0
 10
-4097.467543547738
 20
91.09275405458526
 30
0.0
 10
-4097.519978505701
 20
91.09275055376348
 30
0.0
 10
-4097.572082688982
 20
91.09274695654679
 30
0.0
 10
-4097.623849060893
 20
91.0927432632846
 30
0.0
 10
-4097.675270584748
 20
91.09273947432611
 30
0.0
 10
-4097.726340223862
 20
91.09273559002101
 30
0.0
 10
-4097.777050941548
 20
91.09273161071853
 30
0.0
 10
-4097.827395701121
 20
91.09272753676825
 30
0.0
 10
-4097.877367465893
 20
91.09272336851967
 30
0.0
 10
-4097.92695919918
 20
91.09271910632249
 30
0.0
 10
-4097.976163864293
 20
91.09271475052597
 30
0.0
 10
-4098.021280515229
 20
91.09271063817798
 30
0.0
 10
-4098.062342416123
 20
91.09270679811787
 30
0.0
 10
-4098.09938441477
 20
91.09270325658355
 30
0.0
 10
-4098.136136851936
 20
91.09269966485508
 30
0.0
 10
-4098.17259744189
 20
91.09269602328233
 30
0.0
 10
-4098.208763898906
 20
91.09269233221528
 30
0.0
 10
-4098.244633937258
 20
91.09268859200417
 30
0.0
 10
-4098.280205271218
 20
91.09268480299883
 30
0.0
 10
-4098.31547561506
 20
91.09268096554959
 30
0.0
 10
-4098.350442683056
 20
91.09267708000647
 30
0.0
 10
-4098.385104189482
 20
91.09267314671959
 30
0.0
 10
-4098.419457848604
 20
91.09266916603892
 30
0.0
 10
-4098.453501374705
 20
91.09266513831496
 30
0.0
 10
-4098.487232482048
 20
91.09266106389762
 30
0.0
 10
-4098.520648884915
 20
91.09265694313721
 30
0.0
 10
-4098.553748297571
 20
91.09265277638389
 30
0.0
 10
-4098.586528434295
 20
91.09264856398792
 30
0.0
 10
-4098.618987009357
 20
91.09264430629968
 30
0.0
 10
-4098.651121737029
 20
91.09264000366923
 30
0.0
 10
-4098.682930331588
 20
91.09263565644709
 30
0.0
 10
-4098.714410507306
 20
91.09263126498355
 30
0.0
 10
-4098.745559978452
 20
91.09262682962896
 30
0.0
 10
-4098.776376459304
 20
91.09262235073373
 30
0.0
 10
-4098.80685766413
 20
91.0926178286483
 30
0.0
 10
-4098.837001307207
 20
91.09261326372332
 30
0.0
 10
-4098.866805102808
 20
91.09260865630905
 30
0.0
 10
-4098.896266765204
 20
91.09260400675638
 30
0.0
 10
-4098.92538400867
 20
91.09259931541561
 30
0.0
 10
-4098.954154547475
 20
91.09259458263762
 30
0.0
 10
-4098.982576095899
 20
91.09258980877311
 30
0.0
 10
-4099.010646368209
 20
91.09258499417281
 30
0.0
 10
-4099.038363078678
 20
91.0925801391876
 30
0.0
 10
-4099.065723941585
 20
91.09257524416846
 30
0.0
 10
-4099.092726671195
 20
91.09257030946625
 30
0.0
 10
-4099.119368981787
 20
91.09256533543213
 30
0.0
 10
-4099.145648587633
 20
91.09256032241729
 30
0.0
 10
-4099.171563203004
 20
91.09255527077289
 30
0.0
 10
-4099.197110542171
 20
91.09255018085034
 30
0.0
 10
-4099.222288319417
 20
91.0925450530012
 30
0.0
 10
-4099.247094249002
 20
91.09253988757689
 30
0.0
 10
-4099.271526045208
 20
91.09253468492923
 30
0.0
 10
-4099.295581422305
 20
91.09252944541007
 30
0.0
 10
-4099.319258094565
 20
91.09252416937147
 30
0.0
 10
-4099.342553776263
 20
91.09251885716554
 30
0.0
 10
-4099.365466181671
 20
91.09251350914474
 30
0.0
 10
-4099.387993025062
 20
91.09250812566165
 30
0.0
 10
-4099.41013202071
 20
91.09250270706919
 30
0.0
 10
-4099.431880882887
 20
91.09249725371994
 30
0.0
 10
-4099.452700838127
 20
91.09249190382485
 30
0.0
 10
-4099.472602129163
 20
91.09248666625773
 30
0.0
 10
-4099.491595544367
 20
91.0924815502117
 30
0.0
 10
-4099.510228905483
 20
91.09247641170741
 30
0.0
 10
-4099.528501563713
 20
91.09247125110895
 30
0.0
 10
-4099.546412870241
 20
91.09246606878109
 30
0.0
 10
-4099.563962176268
 20
91.09246086508881
 30
0.0
 10
-4099.581148832981
 20
91.09245564039736
 30
0.0
 10
-4099.597972191577
 20
91.09245039507235
 30
0.0
 10
-4099.614431603248
 20
91.09244512947976
 30
0.0
 10
-4099.630526419189
 20
91.09243984398596
 30
0.0
 10
-4099.646255990592
 20
91.09243453895796
 30
0.0
 10
-4099.661619668651
 20
91.09242921476297
 30
0.0
 10
-4099.676616804558
 20
91.0924238717692
 30
0.0
 10
-4099.691246749508
 20
91.09241851034517
 30
0.0
 10
-4099.705508854693
 20
91.09241313086045
 30
0.0
 10
-4099.719402471308
 20
91.09240773368542
 30
0.0
 10
-4099.732926950544
 20
91.09240231919122
 30
0.0
 10
-4099.746081643598
 20
91.0923968877506
 30
0.0
 10
-4099.758865901658
 20
91.09239143973713
 30
0.0
 10
-4099.771279075923
 20
91.09238597552631
 30
0.0
 10
-4099.783320517585
 20
91.09238049549519
 30
0.0
 10
-4099.794989577833
 20
91.092375000023
 30
0.0
 10
-4099.806285607863
 20
91.09236948949122
 30
0.0
 10
-4099.817207958873
 20
91.09236396428457
 30
0.0
 10
-4099.82775598205
 20
91.09235842479068
 30
0.0
 10
-4099.83792902859
 20
91.0923528714015
 30
0.0
 10
-4099.847726449687
 20
91.09234730451379
 30
0.0
 10
-4099.857147596533
 20
91.09234172453009
 30
0.0
 10
-4099.866191820322
 20
91.09233613185999
 30
0.0
 10
-4099.874858472249
 20
91.09233052692207
 30
0.0
 10
-4099.883146903505
 20
91.09232491014519
 30
0.0
 10
-4099.891056465284
 20
91.09231928197212
 30
0.0
 10
-4099.898586508783
 20
91.09231364286232
 30
0.0
 10
-4099.90573638519
 20
91.09230799329689
 30
0.0
 10
-4099.912505445705
 20
91.09230233378511
 30
0.0
 10
-4099.918893041516
 20
91.09229666487195
 30
0.0
 10
-4099.924898523823
 20
91.0922909871539
 30
0.0
 10
-4099.930521243815
 20
91.09228530128344
 30
0.0
 10
-4099.935760552691
 20
91.09227960803631
 30
0.0
 10
-4099.940615801643
 20
91.09227390820735
 30
0.0
 10
-4099.945086341875
 20
91.0922682031363
 30
0.0
 10
-4099.949171524565
 20
91.09226249325481
 30
0.0
 10
-4099.95287070098
 20
91.09225678325721
 30
0.0
 10
-4099.956183222113
 20
91.09225106623275
 30
0.0
 10
-4099.959108439858
 20
91.09224537501126
 30
0.0
 10
-4099.961645703372
 20
91.09223962586697
 30
0.0
 10
-4099.963794370105
 20
91.09223409286413
 30
0.0
 10
-4099.965553773945
 20
91.09222804322658
 30
0.0
 10
-4099.966923313392
 20
91.09222351761892
 30
0.0
 10
-4099.967902228495
 20
91.09221575610152
 30
0.0
 10
-4099.968490118246
 20
91.09221497110195
 30
0.0
 10
-4099.968751403208
 20
91.09220657360578
 30
0.0
 10
-4099.968816779519
 20
91.09220447246173
 30
0.0
 11
-4099.968816779519
 21
91.09220447246173
 31
0.0
 11
-4099.968620640461
 21
91.09219867180836
 31
0.0
 11
-4099.968032655793
 21
91.09219287375807
 31
0.0
 11
-4099.967053474319
 21
91.09218707867601
 31
0.0
 11
-4099.96568374485
 21
91.09218128692734
 31
0.0
 11
-4099.963924116189
 21
91.09217549887724
 31
0.0
 11
-4099.961775237145
 21
91.0921697148909
 31
0.0
 11
-4099.959237756522
 21
91.09216393533345
 31
0.0
 11
-4099.95631232313
 21
91.09215816057012
 31
0.0
 11
-4099.952999585772
 21
91.09215239096602
 31
0.0
 11
-4099.949300193258
 21
91.09214662688635
 31
0.0
 11
-4099.945214794393
 21
91.09214086869628
 31
0.0
 11
-4099.940744037983
 21
91.09213511676099
 31
0.0
 11
-4099.935888572836
 21
91.09212937144564
 31
0.0
 11
-4099.930649047758
 21
91.09212363311538
 31
0.0
 11
-4099.925026111556
 21
91.09211790213543
 31
0.0
 11
-4099.919020413036
 21
91.09211217887093
 31
0.0
 11
-4099.912632601006
 21
91.09210646368703
 31
0.0
 11
-4099.905863324271
 21
91.09210075694895
 31
0.0
 11
-4099.898713231639
 21
91.09209505902184
 31
0.0
 11
-4099.891182971915
 21
91.09208937027086
 31
0.0
 11
-4099.883273193908
 21
91.09208369106118
 31
0.0
 11
-4099.874984546423
 21
91.09207802175799
 31
0.0
 11
-4099.866317678267
 21
91.09207236272644
 31
0.0
 11
-4099.857273238246
 21
91.09206671433172
 31
0.0
 11
-4099.847851875168
 21
91.092061076939
 31
0.0
 11
-4099.838054237839
 21
91.09205545091344
 31
0.0
 11
-4099.827880975066
 21
91.09204983662021
 31
0.0
 11
-4099.817332735654
 21
91.09204423442449
 31
0.0
 11
-4099.806410168412
 21
91.09203864469144
 31
0.0
 11
-4099.795113922145
 21
91.09203306778625
 31
0.0
 11
-4099.783444645661
 21
91.09202750407408
 31
0.0
 11
-4099.771402987765
 21
91.0920219539201
 31
0.0
 11
-4099.758989597265
 21
91.09201641768945
 31
0.0
 11
-4099.746205122967
 21
91.09201089574736
 31
0.0
 11
-4099.733050213678
 21
91.09200538845896
 31
0.0
 11
-4099.719525518206
 21
91.09199989618946
 31
0.0
 11
-4099.705631685354
 21
91.091994419304
 31
0.0
 11
-4099.691369363931
 21
91.09198895816773
 31
0.0
 11
-4099.676739202744
 21
91.09198351314586
 31
0.0
 11
-4099.6617418506
 21
91.09197808460354
 31
0.0
 11
-4099.646377956304
 21
91.09197267290595
 31
0.0
 11
-4099.630648168662
 21
91.0919672784183
 31
0.0
 11
-4099.614553136484
 21
91.09196190150567
 31
0.0
 11
-4099.598093508574
 21
91.0919565425333
 31
0.0
 11
-4099.581269933739
 21
91.09195120186635
 31
0.0
 11
-4099.564083060786
 21
91.09194587986998
 31
0.0
 11
-4099.546533538523
 21
91.09194057690937
 31
0.0
 11
-4099.528622015754
 21
91.09193529334968
 31
0.0
 11
-4099.510349141288
 21
91.0919300295561
 31
0.0
 11
-4099.49171556393
 21
91.09192478589375
 31
0.0
 11
-4099.472721932487
 21
91.09191956272787
 31
0.0
 11
-4099.453368895766
 21
91.0919143604236
 31
0.0
 11
-4099.43201169091
 21
91.0919087520423
 31
0.0
 11
-4099.410262066856
 21
91.09190317593554
 31
0.0
 11
-4099.388122309329
 21
91.09189763246584
 31
0.0
 11
-4099.365594704061
 21
91.09189212199571
 31
0.0
 11
-4099.342681536775
 21
91.09188664488771
 31
0.0
 11
-4099.319385093198
 21
91.09188120150432
 31
0.0
 11
-4099.295707659058
 21
91.09187579220809
 31
0.0
 11
-4099.271651520084
 21
91.09187041736153
 31
0.0
 11
-4099.247218961999
 21
91.09186507732719
 31
0.0
 11
-4099.222412270533
 21
91.09185977246756
 31
0.0
 11
-4099.197233731411
 21
91.09185450314516
 31
0.0
 11
-4099.171685630361
 21
91.09184926972252
 31
0.0
 11
-4099.14577025311
 21
91.0918440725622
 31
0.0
 11
-4099.119489885386
 21
91.09183891202667
 31
0.0
 11
-4099.092846812912
 21
91.09183378847848
 31
0.0
 11
-4099.06584332142
 21
91.09182870228017
 31
0.0
 11
-4099.038481696634
 21
91.09182365379422
 31
0.0
 11
-4099.010764224283
 21
91.09181864338319
 31
0.0
 11
-4098.982693190092
 21
91.0918136714096
 31
0.0
 11
-4098.954270879787
 21
91.09180873823594
 31
0.0
 11
-4098.925499579099
 21
91.09180384422477
 31
0.0
 11
-4098.896381573752
 21
91.09179898973858
 31
0.0
 11
-4098.866919149474
 21
91.09179417513992
 31
0.0
 11
-4098.83711459199
 21
91.09178940079133
 31
0.0
 11
-4098.80697018703
 21
91.09178466705529
 31
0.0
 11
-4098.776488220319
 21
91.09177997429434
 31
0.0
 11
-4098.745670977585
 21
91.09177532287099
 31
0.0
 11
-4098.714520744555
 21
91.09177071314781
 31
0.0
 11
-4098.683039806954
 21
91.09176614548726
 31
0.0
 11
-4098.651230450512
 21
91.0917616202519
 31
0.0
 11
-4098.619094960955
 21
91.09175713780428
 31
0.0
 11
-4098.586635624009
 21
91.09175269850685
 31
0.0
 11
-4098.5538547254
 21
91.0917483027222
 31
0.0
 11
-4098.520754550857
 21
91.0917439508128
 31
0.0
 11
-4098.487337386107
 21
91.09173964314122
 31
0.0
 11
-4098.453605516877
 21
91.09173538006996
 31
0.0
 11
-4098.419561228893
 21
91.09173116196155
 31
0.0
 11
-4098.385206807881
 21
91.09172698917848
 31
0.0
 11
-4098.350544539571
 21
91.09172286208334
 31
0.0
 11
-4098.315576709688
 21
91.09171878103861
 31
0.0
 11
-4098.280305603959
 21
91.09171474640679
 31
0.0
 11
-4098.244733508111
 21
91.09171075855046
 31
0.0
 11
-4098.208862707871
 21
91.09170681783209
 31
0.0
 11
-4098.172695488967
 21
91.09170292461425
 31
0.0
 11
-4098.136234137126
 21
91.09169907925944
 31
0.0
 11
-4098.099480938073
 21
91.09169528213016
 31
0.0
 11
-4098.062438177536
 21
91.091691533589
 31
0.0
 11
-4098.025108141243
 21
91.09168783399841
 31
0.0
 11
-4097.976295235451
 21
91.09168311184804
 31
0.0
 11
-4097.927088224801
 21
91.0916784807764
 31
0.0
 11
-4097.877494145977
 21
91.09167394117144
 31
0.0
 11
-4097.827520035667
 21
91.09166949342119
 31
0.0
 11
-4097.777172930557
 21
91.09166513791369
 31
0.0
 11
-4097.726459867331
 21
91.09166087503687
 31
0.0
 11
-4097.675387882678
 21
91.09165670517878
 31
0.0
 11
-4097.623964013282
 21
91.09165262872745
 31
0.0
 11
-4097.57219529583
 21
91.09164864607082
 31
0.0
 11
-4097.52008876701
 21
91.09164475759697
 31
0.0
 11
-4097.467651463506
 21
91.09164096369386
 31
0.0
 11
-4097.414890422004
 21
91.09163726474955
 31
0.0
 11
-4097.361812679192
 21
91.09163366115199
 31
0.0
 11
-4097.308425271755
 21
91.0916301532892
 31
0.0
 11
-4097.254735236378
 21
91.09162674154922
 31
0.0
 11
-4097.200749609749
 21
91.09162342632
 31
0.0
 11
-4097.146475428553
 21
91.09162020798958
 31
0.0
 11
-4097.091919729477
 21
91.09161708694599
 31
0.0
 11
-4097.037089549207
 21
91.0916140635772
 31
0.0
 11
-4096.981991924429
 21
91.09161113827123
 31
0.0
 11
-4096.926633891831
 21
91.0916083114161
 31
0.0
 11
-4096.871022488095
 21
91.09160558339981
 31
0.0
 11
-4096.815164749912
 21
91.09160295461035
 31
0.0
 11
-4096.759067713964
 21
91.09160042543573
 31
0.0
 11
-4096.70273841694
 21
91.09159799626396
 31
0.0
 11
-4096.646183895523
 21
91.09159566748305
 31
0.0
 11
-4096.589411186404
 21
91.09159343948105
 31
0.0
 11
-4096.532427326265
 21
91.09159131264588
 31
0.0
 11
-4096.475239351795
 21
91.09158928736562
 31
0.0
 11
-4096.417854299678
 21
91.09158736402826
 31
0.0
 11
-4096.360279206599
 21
91.09158554302177
 31
0.0
 11
-4096.30252110925
 21
91.09158382473422
 31
0.0
 11
-4096.244587044311
 21
91.09158220955354
 31
0.0
 11
-4096.18648404847
 21
91.09158069786778
 31
0.0
 11
-4096.128219158415
 21
91.091579290065
 31
0.0
 11
-4096.069799410831
 21
91.09157798653308
 31
0.0
 11
-4096.011231842404
 21
91.09157678766016
 31
0.0
 11
-4095.933707035019
 21
91.09157536604681
 31
0.0
 11
-4095.856118957523
 21
91.09157413085494
 31
0.0
 11
-4095.778484848517
 21
91.09157308184372
 31
0.0
 11
-4095.700821946601
 21
91.0915722187723
 31
0.0
 11
-4095.623147490377
 21
91.09157154139983
 31
0.0
 11
-4095.545478718444
 21
91.09157104948545
 31
0.0
 11
-4095.467832869403
 21
91.09157074278832
 31
0.0
 11
-4095.390227181854
 21
91.09157062106759
 31
0.0
 11
-4095.3126788944
 21
91.09157068408241
 31
0.0
 11
-4095.235205245641
 21
91.09157093159193
 31
0.0
 11
-4095.157823474175
 21
91.09157136335527
 31
0.0
 11
-4095.080550818606
 21
91.09157197913162
 31
0.0
 11
-4095.003404517534
 21
91.0915727786801
 31
0.0
 11
-4094.926401809558
 21
91.09157376175989
 31
0.0
 11
-4094.84955993328
 21
91.09157492813013
 31
0.0
 11
-4094.7728961273
 21
91.09157627754995
 31
0.0
 11
-4094.69642763022
 21
91.0915778097785
 31
0.0
 11
-4094.620171680639
 21
91.09157952457498
 31
0.0
 11
-4094.544145517159
 21
91.09158142169846
 31
0.0
 11
-4094.46836637838
 21
91.09158350090817
 31
0.0
 11
-4094.392851502903
 21
91.09158576196322
 31
0.0
 11
-4094.317618129329
 21
91.09158820462275
 31
0.0
 11
-4094.242683496257
 21
91.09159082864591
 31
0.0
 11
-4094.16806484229
 21
91.09159363379189
 31
0.0
 11
-4094.093779406026
 21
91.0915966198198
 31
0.0
 11
-4094.019844426069
 21
91.09159978648879
 31
0.0
 11
-4093.946277141017
 21
91.09160313355802
 31
0.0
 11
-4093.873094789472
 21
91.09160666078665
 31
0.0
 11
-4093.826763912425
 21
91.09160899746941
 31
0.0
 11
-4093.780662640199
 21
91.09161140354577
 31
0.0
 11
-4093.734794655672
 21
91.09161387867513
 31
0.0
 11
-4093.689163641725
 21
91.09161642251685
 31
0.0
 11
-4093.643773281238
 21
91.09161903473027
 31
0.0
 11
-4093.598627257089
 21
91.09162171497478
 31
0.0
 11
-4093.553729252155
 21
91.09162446290972
 31
0.0
 11
-4093.50908294932
 21
91.09162727819447
 31
0.0
 11
-4093.464692031461
 21
91.09163016048838
 31
0.0
 11
-4093.420560181458
 21
91.09163310945085
 31
0.0
 11
-4093.376691082189
 21
91.09163612474119
 31
0.0
 11
-4093.333088416534
 21
91.0916392060188
 31
0.0
 11
-4093.289755867374
 21
91.09164235294303
 31
0.0
 11
-4093.246697117585
 21
91.09164556517321
 31
0.0
 11
-4093.20391585005
 21
91.09164884236877
 31
0.0
 11
-4093.161415747647
 21
91.09165218418904
 31
0.0
 11
-4093.119200493253
 21
91.0916555902934
 31
0.0
 11
-4093.077273769751
 21
91.09165906034119
 31
0.0
 11
-4093.035639260017
 21
91.09166259399176
 31
0.0
 11
-4092.994300646933
 21
91.09166619090451
 31
0.0
 11
-4092.953261613378
 21
91.0916698507388
 31
0.0
 11
-4092.91252584223
 21
91.09167357315397
 31
0.0
 11
-4092.87209701637
 21
91.09167735780939
 31
0.0
 11
-4092.831978818675
 21
91.09168120436442
 31
0.0
 11
-4092.792174932026
 21
91.09168511247844
 31
0.0
 11
-4092.752689039304
 21
91.09168908181083
 31
0.0
 11
-4092.713524823384
 21
91.09169311202091
 31
0.0
 11
-4092.674685967149
 21
91.09169720276806
 31
0.0
 11
-4092.636176153477
 21
91.09170135371163
 31
0.0
 11
-4092.597999065247
 21
91.09170556451103
 31
0.0
 11
-4092.560158385339
 21
91.09170983482558
 31
0.0
 11
-4092.522657796633
 21
91.09171416431465
 31
0.0
 11
-4092.485500982007
 21
91.09171855263762
 31
0.0
 11
-4092.448691624341
 21
91.09172299945385
 31
0.0
 11
-4092.412233406514
 21
91.09172750442266
 31
0.0
 11
-4092.376130011405
 21
91.09173206720347
 31
0.0
 11
-4092.340385121895
 21
91.09173668745562
 31
0.0
 11
-4092.305002420862
 21
91.09174136483848
 31
0.0
 11
-4092.269985591186
 21
91.09174609901142
 31
0.0
 11
-4092.235338315745
 21
91.09175088963377
 31
0.0
 11
-4092.201064277419
 21
91.09175573636492
 31
0.0
 11
-4092.167167159088
 21
91.09176063886423
 31
0.0
 11
-4092.133650643632
 21
91.09176559679108
 31
0.0
 11
-4092.100518413929
 21
91.0917706098048
 31
0.0
 11
-4092.0722618293
 21
91.0917749761926
 31
0.0
 11
-4092.04432864435
 21
91.09177937788824
 31
0.0
 11
-4092.016720194565
 21
91.09178381454423
 31
0.0
 11
-4091.989437815425
 21
91.09178828581301
 31
0.0
 11
-4091.962482842411
 21
91.09179279134712
 31
0.0
 11
-4091.935856611007
 21
91.09179733079898
 31
0.0
 11
-4091.909560456693
 21
91.09180190382111
 31
0.0
 11
-4091.88359571495
 21
91.09180651006595
 31
0.0
 11
-4091.857963721264
 21
91.09181114918602
 31
0.0
 11
-4091.832665811113
 21
91.09181582083376
 31
0.0
 11
-4091.807703319981
 21
91.09182052466164
 31
0.0
 11
-4091.783077583348
 21
91.09182526032222
 31
0.0
 11
-4091.758789936697
 21
91.09183002746786
 31
0.0
 11
-4091.73484171551
 21
91.09183482575115
 31
0.0
 11
-4091.71123425527
 21
91.09183965482453
 31
0.0
 11
-4091.687968891456
 21
91.09184451434044
 31
0.0
 11
-4091.665046959553
 21
91.09184940395139
 31
0.0
 11
-4091.642469795039
 21
91.09185432330986
 31
0.0
 11
-4091.6202387334
 21
91.09185927206833
 31
0.0
 11
-4091.598355110115
 21
91.09186424987928
 31
0.0
 11
-4091.576820260669
 21
91.09186925639519
 31
0.0
 11
-4091.555635520539
 21
91.09187429126851
 31
0.0
 11
-4091.534802225212
 21
91.09187935415174
 31
0.0
 11
-4091.514321710166
 21
91.09188444469739
 31
0.0
 11
-4091.494195310886
 21
91.09188956255788
 31
0.0
 11
-4091.474424362851
 21
91.09189470738572
 31
0.0
 11
-4091.455010201545
 21
91.09189987883342
 31
0.0
 11
-4091.435954162449
 21
91.09190507655337
 31
0.0
 11
-4091.417257581044
 21
91.09191030019815
 31
0.0
 11
-4091.398921792814
 21
91.09191554942018
 31
0.0
 11
-4091.38094813324
 21
91.09192082387192
 31
0.0
 11
-4091.363337937803
 21
91.09192612320591
 31
0.0
 11
-4091.346092541986
 21
91.0919314470746
 31
0.0
 11
-4091.329213281269
 21
91.09193679513047
 31
0.0
 11
-4091.312701491137
 21
91.09194216702596
 31
0.0
 11
-4091.29655850707
 21
91.09194756241364
 31
0.0
 11
-4091.280785664549
 21
91.09195298094588
 31
0.0
 11
-4091.265384299057
 21
91.09195842227524
 31
0.0
 11
-4091.250355746077
 21
91.09196388605419
 31
0.0
 11
-4091.235701341088
 21
91.09196937193515
 31
0.0
 11
-4091.221422419575
 21
91.09197487957067
 31
0.0
 11
-4091.207520317018
 21
91.09198040861318
 31
0.0
 11
-4091.193996368898
 21
91.09198595871516
 31
0.0
 11
-4091.1808519107
 21
91.09199152952914
 31
0.0
 11
-4091.168088277903
 21
91.09199712070755
 31
0.0
 11
-4091.155706805991
 21
91.09200273190288
 31
0.0
 11
-4091.143708830443
 21
91.09200836276762
 31
0.0
 11
-4091.132095686744
 21
91.09201401295422
 31
0.0
 11
-4091.120868710375
 21
91.09201968211521
 31
0.0
 11
-4091.110029236817
 21
91.09202536990301
 31
0.0
 11
-4091.099578601552
 21
91.09203107597014
 31
0.0
 11
-4091.089523924143
 21
91.09203679661363
 31
0.0
 11
-4091.079871433828
 21
91.09204252809772
 31
0.0
 11
-4091.070621130609
 21
91.09204827002574
 31
0.0
 11
-4091.061773014487
 21
91.09205402200101
 31
0.0
 11
-4091.05332708546
 21
91.09205978362684
 31
0.0
 11
-4091.045283343529
 21
91.09206555450656
 31
0.0
 11
-4091.037641788693
 21
91.09207133424346
 31
0.0
 11
-4091.030402420953
 21
91.09207712244087
 31
0.0
 11
-4091.02356524031
 21
91.09208291870212
 31
0.0
 11
-4091.017130246761
 21
91.09208872263051
 31
0.0
 11
-4091.011097440309
 21
91.09209453382935
 31
0.0
 11
-4091.005466820952
 21
91.09210035190196
 31
0.0
 11
-4091.00023838869
 21
91.09210617645165
 31
0.0
 11
-4090.995412143526
 21
91.09211200708177
 31
0.0
 11
-4090.990988085457
 21
91.0921178433956
 31
0.0
 11
-4090.986966214483
 21
91.09212368499644
 31
0.0
 11
-4090.983346530605
 21
91.09212953148767
 31
0.0
 11
-4090.980129033822
 21
91.09213538247255
 31
0.0
 11
-4090.977313724136
 21
91.09214123755442
 31
0.0
 11
-4090.974900601545
 21
91.09214709633659
 31
0.0
 11
-4090.97288966605
 21
91.09215295842238
 31
0.0
 11
-4090.97128091765
 21
91.09215882341508
 31
0.0
 11
-4090.970074356346
 21
91.09216469091804
 31
0.0
 11
-4090.969269982139
 21
91.09217056053456
 31
0.0
 11
-4090.968867795026
 21
91.09217643186796
 31
0.0
 11
-4090.96886779501
 21
91.09218230452154
 31
0.0
 11
-4090.969269982089
 21
91.09218817809865
 31
0.0
 11
-4090.970074356264
 21
91.09219405220259
 31
0.0
 11
-4090.971280917535
 21
91.09219992643666
 31
0.0
 11
-4090.972889665902
 21
91.0922058004042
 31
0.0
 11
-4090.974900601364
 21
91.09221167370849
 31
0.0
 11
-4090.977313723923
 21
91.09221754595289
 31
0.0
 11
-4090.980129033576
 21
91.09222341674069
 31
0.0
 11
-4090.983346530326
 21
91.0922292856752
 31
0.0
 11
-4090.986966214171
 21
91.09223515235975
 31
0.0
 11
-4090.990988085112
 21
91.09224101639767
 31
0.0
 11
-4090.995412143149
 21
91.09224687739223
 31
0.0
 11
-4091.000238388282
 21
91.0922527349468
 31
0.0
 11
-4091.005466820511
 21
91.09225858866466
 31
0.0
 11
-4091.011097439835
 21
91.09226443814913
 31
0.0
 11
-4091.017130246255
 21
91.09227028300353
 31
0.0
 11
-4091.023565239771
 21
91.09227612283119
 31
0.0
 11
-4091.030402420382
 21
91.0922819572354
 31
0.0
 11
-4091.03764178809
 21
91.09228778581951
 31
0.0
 11
-4091.045283342892
 21
91.09229360818679
 31
0.0
 11
-4091.053327084791
 21
91.09229942394059
 31
0.0
 11
-4091.061773013786
 21
91.09230523268421
 31
0.0
 11
-4091.070621129876
 21
91.09231103402098
 31
0.0
 11
-4091.079871433062
 21
91.09231682755421
 31
0.0
 11
-4091.089523923345
 21
91.09232261288722
 31
0.0
 11
-4091.099578600722
 21
91.0923283896233
 31
0.0
 11
-4091.110029235955
 21
91.092334153992
 31
0.0
 11
-4091.120868709481
 21
91.09233990225062
 31
0.0
 11
-4091.132095685819
 21
91.09234563404414
 31
0.0
 11
-4091.143708829487
 21
91.0923513490177
 31
0.0
 11
-4091.155706805002
 21
91.09235704681622
 31
0.0
 11
-4091.168088276883
 21
91.09236272708479
 31
0.0
 11
-4091.180851909649
 21
91.09236838946841
 31
0.0
 11
-4091.193996367816
 21
91.09237403361212
 31
0.0
 11
-4091.207520315904
 21
91.09237965916095
 31
0.0
 11
-4091.22142241843
 21
91.09238526575993
 31
0.0
 11
-4091.235701339913
 21
91.09239085305407
 31
0.0
 11
-4091.25035574487
 21
91.09239642068843
 31
0.0
 11
-4091.26538429782
 21
91.09240196830801
 31
0.0
 11
-4091.280785663281
 21
91.09240749555787
 31
0.0
 11
-4091.296558505771
 21
91.09241300208299
 31
0.0
 11
-4091.312701489808
 21
91.09241848752843
 31
0.0
 11
-4091.329213279911
 21
91.09242395153923
 31
0.0
 11
-4091.346092540597
 21
91.0924293937604
 31
0.0
 11
-4091.363337936384
 21
91.09243481383696
 31
0.0
 11
-4091.380948131791
 21
91.09244021141396
 31
0.0
 11
-4091.398921791336
 21
91.09244558613642
 31
0.0
 11
-4091.417257579537
 21
91.09245093764935
 31
0.0
 11
-4091.435954160911
 21
91.09245626559782
 31
0.0
 11
-4091.455010199978
 21
91.09246156962682
 31
0.0
 11
-4091.474424361255
 21
91.09246684938138
 31
0.0
 11
-4091.49419530926
 21
91.09247210450656
 31
0.0
 11
-4091.514321708512
 21
91.09247733464737
 31
0.0
 11
-4091.534802223529
 21
91.09248253944881
 31
0.0
 11
-4091.555635518828
 21
91.09248771855596
 31
0.0
 11
-4091.576820258928
 21
91.09249287161384
 31
0.0
 11
-4091.598355108347
 21
91.09249799826743
 31
0.0
 11
-4091.620238731604
 21
91.0925030981618
 31
0.0
 11
-4091.642469793215
 21
91.09250817094198
 31
0.0
 11
-4091.6650469577
 21
91.09251321625297
 31
0.0
 11
-4091.687968889577
 21
91.09251823373982
 31
0.0
 11
-4091.711234253363
 21
91.09252322304758
 31
0.0
 11
-4091.734841713576
 21
91.09252818382123
 31
0.0
 11
-4091.758789934736
 21
91.09253311570583
 31
0.0
 11
-4091.78307758136
 21
91.09253801834642
 31
0.0
 11
-4091.807703317966
 21
91.09254289138796
 31
0.0
 11
-4091.832665809072
 21
91.09254773447556
 31
0.0
 11
-4091.857963719196
 21
91.09255254725422
 31
0.0
 11
-4091.883595712856
 21
91.09255732936893
 31
0.0
 11
-4091.909560454572
 21
91.09256208046479
 31
0.0
 11
-4091.93585660886
 21
91.09256680018677
 31
0.0
 11
-4091.962482840239
 21
91.09257148817994
 31
0.0
 11
-4091.989437813227
 21
91.09257614408929
 31
0.0
 11
-4092.016720192342
 21
91.09258076755987
 31
0.0
 11
-4092.044328642102
 21
91.0925853582367
 31
0.0
 11
-4092.072261827027
 21
91.09258991576482
 31
0.0
 11
-4092.100518411631
 21
91.09259443978925
 31
0.0
 11
-4092.133650641306
 21
91.09259963763965
 31
0.0
 11
-4092.167167156734
 21
91.09260478254699
 31
0.0
 11
-4092.201064275036
 21
91.0926098741501
 31
0.0
 11
-4092.235338313335
 21
91.09261491208784
 31
0.0
 11
-4092.269985588748
 21
91.09261989599894
 31
0.0
 11
-4092.305002418398
 21
91.09262482552228
 31
0.0
 11
-4092.340385119405
 21
91.09262970029664
 31
0.0
 11
-4092.376130008888
 21
91.09263451996085
 31
0.0
 11
-4092.41223340397
 21
91.09263928415378
 31
0.0
 11
-4092.448691621771
 21
91.09264399251416
 31
0.0
 11
-4092.485500979412
 21
91.09264864468085
 31
0.0
 11
-4092.522657794013
 21
91.09265324029266
 31
0.0
 11
-4092.560158382695
 21
91.09265777898844
 31
0.0
 11
-4092.597999062578
 21
91.09266226040695
 31
0.0
 11
-4092.636176150784
 21
91.09266668418709
 31
0.0
 11
-4092.674685964433
 21
91.09267104996759
 31
0.0
 11
-4092.713524820644
 21
91.09267535738729
 31
0.0
 11
-4092.752689036541
 21
91.09267960608506
 31
0.0
 11
-4092.792174929241
 21
91.09268379569964
 31
0.0
 11
-4092.831978815867
 21
91.0926879258699
 31
0.0
 11
-4092.872097013539
 21
91.09269199623465
 31
0.0
 11
-4092.912525839378
 21
91.09269600643268
 31
0.0
 11
-4092.953261610505
 21
91.09269995610286
 31
0.0
 11
-4092.994300644039
 21
91.09270384488396
 31
0.0
 11
-4093.035639257103
 21
91.0927076724148
 31
0.0
 11
-4093.077273766815
 21
91.09271143833425
 31
0.0
 11
-4093.119200490298
 21
91.09271514228104
 31
0.0
 11
-4093.161415744671
 21
91.09271878389406
 31
0.0
 11
-4093.203915847056
 21
91.0927223628121
 31
0.0
 11
-4093.246697114572
 21
91.09272587867396
 31
0.0
 11
-4093.289755864342
 21
91.09272933111851
 31
0.0
 11
-4093.333088413484
 21
91.09273271978452
 31
0.0
 11
-4093.376691079121
 21
91.09273604431084
 31
0.0
 11
-4093.420560178372
 21
91.09273930433623
 31
0.0
 11
-4093.464692028359
 21
91.09274249949958
 31
0.0
 11
-4093.509082946201
 21
91.09274562943968
 31
0.0
 11
-4093.55372924902
 21
91.09274869379534
 31
0.0
 11
-4093.598627253936
 21
91.09275169220535
 31
0.0
 11
-4093.64377327807
 21
91.09275462430858
 31
0.0
 11
-4093.689163638543
 21
91.09275748974385
 31
0.0
 11
-4093.734794652474
 21
91.0927602881499
 31
0.0
 11
-4093.780662636986
 21
91.09276301916563
 31
0.0
 11
-4093.826763909198
 21
91.09276568242981
 31
0.0
 11
-4093.873094786231
 21
91.09276827758131
 31
0.0
 11
-4093.946277137756
 21
91.09277221307653
 31
0.0
 11
-4094.019844422788
 21
91.09277597055984
 31
0.0
 11
-4094.093779402726
 21
91.09277954969416
 31
0.0
 11
-4094.168064838971
 21
91.09278295014252
 31
0.0
 11
-4094.242683492922
 21
91.09278617156785
 31
0.0
 11
-4094.317618125978
 21
91.0927892136332
 31
0.0
 11
-4094.392851499537
 21
91.09279207600147
 31
0.0
 11
-4094.468366375001
 21
91.0927947583357
 31
0.0
 11
-4094.544145513768
 21
91.09279726029885
 31
0.0
 11
-4094.620171677236
 21
91.09279958155389
 31
0.0
 11
-4094.696427626806
 21
91.09280172176381
 31
0.0
 11
-4094.772896123876
 21
91.0928036805916
 31
0.0
 11
-4094.849559929847
 21
91.09280545770021
 31
0.0
 11
-4094.926401806118
 21
91.09280705275265
 31
0.0
 11
-4095.003404514087
 21
91.09280846541188
 31
0.0
 11
-4095.080550815154
 21
91.09280969534088
 31
0.0
 11
-4095.157823470719
 21
91.09281074220266
 31
0.0
 11
-4095.235205242179
 21
91.09281160566015
 31
0.0
 11
-4095.312678890937
 21
91.09281228537637
 31
0.0
 11
-4095.39022717839
 21
91.09281278101429
 31
0.0
 11
-4095.467832865937
 21
91.09281309223688
 31
0.0
 11
-4095.545478714979
 21
91.09281321870712
 31
0.0
 11
-4095.623147486914
 21
91.09281316008799
 31
0.0
 11
-4095.700821943141
 21
91.09281291604249
 31
0.0
 11
-4095.77848484506
 21
91.09281248623358
 31
0.0
 11
-4095.856118954071
 21
91.09281187032426
 31
0.0
 11
-4095.933707031573
 21
91.09281106797747
 31
0.0
 11
-4096.011231838964
 21
91.09281007885622
 31
0.0
 11
-4096.069799407397
 21
91.09280920671755
 31
0.0
 11
-4096.128219154988
 21
91.09280822909527
 31
0.0
 11
-4096.18648404505
 21
91.09280714633816
 31
0.0
 11
-4096.244587040897
 21
91.09280595879496
 31
0.0
 11
-4096.302521105845
 21
91.09280466681442
 31
0.0
 11
-4096.360279203203
 21
91.09280327074526
 31
0.0
 11
-4096.417854296289
 21
91.09280177093626
 31
0.0
 11
-4096.475239348417
 21
91.0928001677362
 31
0.0
 11
-4096.532427322898
 21
91.0927984614938
 31
0.0
 11
-4096.589411183048
 21
91.09279665255777
 31
0.0
 11
-4096.646183892179
 21
91.09279474127693
 31
0.0
 11
-4096.702738413607
 21
91.09279272799999
 31
0.0
 11
-4096.759067710644
 21
91.09279061307575
 31
0.0
 11
-4096.815164746604
 21
91.09278839685288
 31
0.0
 11
-4096.871022484803
 21
91.09278607968022
 31
0.0
 11
-4096.926633888552
 21
91.09278366190645
 31
0.0
 11
-4096.981991921166
 21
91.09278114388036
 31
0.0
 11
-4097.037089545959
 21
91.09277852595068
 31
0.0
 11
-4097.091919726245
 21
91.09277580846619
 31
0.0
 11
-4097.146475425337
 21
91.0927729917756
 31
0.0
 11
-4097.20074960655
 21
91.09277007622769
 31
0.0
 11
-4097.254735233197
 21
91.09276706217122
 31
0.0
 11
-4097.308425268591
 21
91.0927639499549
 31
0.0
 11
-4097.361812676048
 21
91.09276073992751
 31
0.0
 11
-4097.41489041888
 21
91.09275743243782
 31
0.0
 11
-4097.467651460401
 21
91.09275402783455
 31
0.0
 11
-4097.520088763925
 21
91.09275052646645
 31
0.0
 11
-4097.572195292767
 21
91.09274692868229
 31
0.0
 11
-4097.62396401024
 21
91.09274323483082
 31
0.0
 11
-4097.675387879657
 21
91.09273944526075
 31
0.0
 11
-4097.726459864333
 21
91.0927355603209
 31
0.0
 11
-4097.777172927582
 21
91.09273158036
 31
0.0
 11
-4097.827520032715
 21
91.09272750572674
 31
0.0
 11
-4097.877494143051
 21
91.09272333676995
 31
0.0
 11
-4097.927088221898
 21
91.09271907383834
 31
0.0
 11
-4097.976295232575
 21
91.09271471728067
 31
0.0
 11
-4098.025108138392
 21
91.09271026744568
 31
0.0
 11
-4098.062438174705
 21
91.09270677611032
 31
0.0
 11
-4098.099480935262
 21
91.09270323422172
 31
0.0
 11
-4098.136234134335
 21
91.09269964212963
 31
0.0
 11
-4098.172695486198
 21
91.09269600018386
 31
0.0
 11
-4098.208862705124
 21
91.09269230873416
 31
0.0
 11
-4098.244733505384
 21
91.09268856813031
 31
0.0
 11
-4098.280305601253
 21
91.09268477872206
 31
0.0
 11
-4098.315576707004
 21
91.09268094085921
 31
0.0
 11
-4098.350544536909
 21
91.09267705489154
 31
0.0
 11
-4098.385206805243
 21
91.09267312116877
 31
0.0
 11
-4098.419561226276
 21
91.0926691400407
 31
0.0
 11
-4098.453605514284
 21
91.09266511185713
 31
0.0
 11
-4098.487337383538
 21
91.0926610369678
 31
0.0
 11
-4098.520754548312
 21
91.09265691572247
 31
0.0
 11
-4098.553854722877
 21
91.09265274847093
 31
0.0
 11
-4098.58663562151
 21
91.09264853556294
 31
0.0
 11
-4098.619094958481
 21
91.09264427734833
 31
0.0
 11
-4098.651230448062
 21
91.09263997417678
 31
0.0
 11
-4098.68303980453
 21
91.09263562639811
 31
0.0
 11
-4098.714520742155
 21
91.09263123436212
 31
0.0
 11
-4098.745670975211
 21
91.09262679841851
 31
0.0
 11
-4098.776488217971
 21
91.09262231891709
 31
0.0
 11
-4098.806970184706
 21
91.09261779620763
 31
0.0
 11
-4098.837114589693
 21
91.09261323063993
 31
0.0
 11
-4098.866919147202
 21
91.09260862256372
 31
0.0
 11
-4098.896381571507
 21
91.09260397232882
 31
0.0
 11
-4098.925499576881
 21
91.09259928028492
 31
0.0
 11
-4098.954270877597
 21
91.09259454678187
 31
0.0
 11
-4098.982693187927
 21
91.09258977216939
 31
0.0
 11
-4099.010764222146
 21
91.09258495679728
 31
0.0
 11
-4099.038481694526
 21
91.09258010101533
 31
0.0
 11
-4099.065843319339
 21
91.09257520517326
 31
0.0
 11
-4099.09284681086
 21
91.09257026962087
 31
0.0
 11
-4099.11948988336
 21
91.09256529470792
 31
0.0
 11
-4099.145770251113
 21
91.09256028078421
 31
0.0
 11
-4099.171685628392
 21
91.09255522819949
 31
0.0
 11
-4099.197233729471
 21
91.09255013730352
 31
0.0
 11
-4099.222412268622
 21
91.0925450084461
 31
0.0
 11
-4099.247218960118
 21
91.09253984197699
 31
0.0
 11
-4099.271651518232
 21
91.09253463824594
 31
0.0
 11
-4099.295707657237
 21
91.09252939760275
 31
0.0
 11
-4099.319385091406
 21
91.09252412039719
 31
0.0
 11
-4099.342681535012
 21
91.09251880697902
 31
0.0
 11
-4099.365594702328
 21
91.092513457698
 31
0.0
 11
-4099.388122307629
 21
91.09250807290394
 31
0.0
 11
-4099.410262065184
 21
91.09250265294659
 31
0.0
 11
-4099.43201168927
 21
91.09249719817571
 31
0.0
 11
-4099.453368894157
 21
91.09249170894108
 31
0.0
 11
-4099.472721930907
 21
91.09248661460272
 31
0.0
 11
-4099.491715562377
 21
91.09248149739769
 31
0.0
 11
-4099.510349139764
 21
91.09247635768759
 31
0.0
 11
-4099.52862201426
 21
91.09247119583392
 31
0.0
 11
-4099.546533537057
 21
91.09246601219829
 31
0.0
 11
-4099.564083059351
 21
91.09246080714219
 31
0.0
 11
-4099.581269932333
 21
91.09245558102724
 31
0.0
 11
-4099.598093507197
 21
91.09245033421492
 31
0.0
 11
-4099.614553135136
 21
91.09244506706683
 31
0.0
 11
-4099.630648167345
 21
91.0924397799445
 31
0.0
 11
-4099.646377955015
 21
91.09243447320951
 31
0.0
 11
-4099.661741849342
 21
91.09242914722336
 31
0.0
 11
-4099.676739201517
 21
91.09242380234765
 31
0.0
 11
-4099.691369362733
 21
91.0924184389439
 31
0.0
 11
-4099.705631684186
 21
91.09241305737366
 31
0.0
 11
-4099.719525517068
 21
91.09240765799855
 31
0.0
 11
-4099.733050212572
 21
91.09240224118001
 31
0.0
 11
-4099.746205121891
 21
91.09239680727967
 31
0.0
 11
-4099.75898959622
 21
91.09239135665906
 31
0.0
 11
-4099.77140298675
 21
91.09238588967973
 31
0.0
 11
-4099.783444644677
 21
91.09238040670324
 31
0.0
 11
-4099.795113921192
 21
91.09237490809113
 31
0.0
 11
-4099.80641016749
 21
91.09236939420495
 31
0.0
 11
-4099.817332734762
 21
91.09236386540627
 31
0.0
 11
-4099.827880974205
 21
91.09235832205661
 31
0.0
 11
-4099.83805423701
 21
91.09235276451754
 31
0.0
 11
-4099.84785187437
 21
91.09234719315063
 31
0.0
 11
-4099.85727323748
 21
91.0923416083174
 31
0.0
 11
-4099.866317677531
 21
91.09233601037941
 31
0.0
 11
-4099.874984545719
 21
91.09233039969823
 31
0.0
 11
-4099.883273193235
 21
91.09232477663539
 31
0.0
 11
-4099.891182971274
 21
91.09231914155247
 31
0.0
 11
-4099.898713231029
 21
91.09231349481097
 31
0.0
 11
-4099.905863323693
 21
91.09230783677248
 31
0.0
 11
-4099.91263260046
 21
91.09230216779855
 31
0.0
 11
-4099.919020412522
 21
91.09229648825072
 31
0.0
 11
-4099.925026111074
 21
91.09229079849055
 31
0.0
 11
-4099.930649047306
 21
91.09228509887957
 31
0.0
 11
-4099.935888572417
 21
91.09227938977938
 31
0.0
 11
-4099.940744037596
 21
91.09227367155148
 31
0.0
 11
-4099.945214794037
 21
91.09226794455745
 31
0.0
 11
-4099.949300192935
 21
91.09226220915883
 31
0.0
 11
-4099.952999585481
 21
91.09225646571719
 31
0.0
 11
-4099.95631232287
 21
91.09225071459403
 31
0.0
 11
-4099.959237756296
 21
91.09224495615098
 31
0.0
 11
-4099.96177523695
 21
91.09223919074952
 31
0.0
 11
-4099.963924116028
 21
91.09223341875125
 31
0.0
 11
-4099.96568374472
 21
91.09222764051769
 31
0.0
 11
-4099.967053474223
 21
91.09222185641042
 31
0.0
 11
-4099.968032655727
 21
91.09221606679095
 31
0.0
 11
-4099.968620640429
 21
91.09221027202088
 31
0.0
 11
-4099.968816779519
 21
91.09220447246173
 31
0.0
  0
SPLINE
  5
2E2
330
36
100
AcDbEntity
  8
0
  6
Continuous
 62
     7
100
AcDbSpline
210
0.0
220
0.0
230
1.0
 70
     8
 71
     3
 72
    52
 73
    48
 74
    46
 42
0.0000000001
 43
0.0000000001
 44
0.00000001
 40
0.0
 40
0.0
 40
0.0
 40
0.0
 40
0.0148502138853955
 40
0.0498559436824405
 40
0.1048196752263938
 40
0.1795438655029784
 40
0.2738309670445412
 40
0.3874834310365403
 40
0.5203037081208726
 40
0.6720942486737983
 40
0.8677939615690375
 40
1.085883415458111
 40
1.325567474073672
 40
1.586051001087979
 40
1.866538860136782
 40
2.166235914831549
 40
2.484347028766313
 40
2.875985672220359
 40
3.286571051637121
 40
3.714293183883449
 40
4.15734208580562
 40
4.613907774250762
 40
5.082180266057453
 40
6.03834461527963
 40
7.002063746956056
 40
7.95731218163508
 40
8.424787072828877
 40
8.880337519081911
 40
9.32215906896921
 40
9.748447271071314
 40
10.15739767397629
 40
10.54720582628576
 40
10.86360297472083
 40
11.16146473105438
 40
11.44000224438999
 40
11.69842666384838
 40
11.93594913858002
 40
12.15178081777066
 40
12.34513285066896
 40
12.49480716652388
 40
12.62546571945832
 40
12.7369162239012
 40
12.82896639456526
 40
12.90142394676586
 40
12.95409659732801
 40
12.98679206834154
 40
12.99931812132245
 40
12.99931812132245
 40
12.99931812132245
 40
12.99931812132245
 10
-4101.968273105294
 20
91.09219844502212
 30
0.0
 10
-4101.963323065864
 20
91.09218025371851
 30
0.0
 10
-4101.946704524944
 20
91.09211918088712
 30
0.0
 10
-4101.911764599759
 20
91.09209555189733
 30
0.0
 10
-4101.856866766002
 20
91.09203837473585
 30
0.0
 10
-4101.782208426459
 20
91.09199546716289
 30
0.0
 10
-4101.68798719125
 20
91.09194638486181
 30
0.0
 10
-4101.574400584897
 20
91.09189998400642
 30
0.0
 10
-4101.441646166318
 20
91.09185340178092
 30
0.0
 10
-4101.281542663109
 20
91.09180538690028
 30
0.0
 10
-4101.09301610033
 20
91.09175659315145
 30
0.0
 10
-4100.875191697267
 20
91.09170781124884
 30
0.0
 10
-4100.635772688658
 20
91.09166096344003
 30
0.0
 10
-4100.375554210924
 20
91.09161621932324
 30
0.0
 10
-4100.095331400543
 20
91.09157372715508
 30
0.0
 10
-4099.795899393987
 20
91.09153363503846
 30
0.0
 10
-4099.459417125629
 20
91.0914938866876
 30
0.0
 10
-4099.08597208198
 20
91.0914555303192
 30
0.0
 10
-4098.675990031845
 20
91.09141949628922
 30
0.0
 10
-4098.248871228487
 20
91.09138772333867
 30
0.0
 10
-4097.806425655118
 20
91.09136033982219
 30
0.0
 10
-4097.350463294956
 20
91.09133747174673
 30
0.0
 10
-4096.723462452263
 20
91.0913130425526
 30
0.0
 10
-4095.927410461503
 20
91.09129491643118
 30
0.0
 10
-4094.969033156252
 20
91.09129266204519
 30
0.0
 10
-4094.173552337135
 20
91.0913070475539
 30
0.0
 10
-4093.547461080118
 20
91.09132853894597
 30
0.0
 10
-4093.092512118134
 20
91.09134926710718
 30
0.0
 10
-4092.651292052768
 20
91.09137457444115
 30
0.0
 10
-4092.2256053355
 20
91.09140434334091
 30
0.0
 10
-4091.817256417805
 20
91.09143845382347
 30
0.0
 10
-4091.445537851709
 20
91.09147505989914
 30
0.0
 10
-4091.110848834846
 20
91.09151323244342
 30
0.0
 10
-4090.813250031312
 20
91.09155192015571
 30
0.0
 10
-4090.534975471301
 20
91.09159309772582
 30
0.0
 10
-4090.27681400577
 20
91.09163661991832
 30
0.0
 10
-4090.039554485698
 20
91.09168234341533
 30
0.0
 10
-4089.823985761977
 20
91.09173009585223
 30
0.0
 10
-4089.637699758881
 20
91.0917780131837
 30
0.0
 10
-4089.479804798371
 20
91.09182524762245
 30
0.0
 10
-4089.349210349517
 20
91.09187127479561
 30
0.0
 10
-4089.23782394695
 20
91.09191688212459
 30
0.0
 10
-4089.145837890776
 20
91.09196612877204
 30
0.0
 10
-4089.07344442743
 20
91.09200693930491
 30
0.0
 10
-4089.020835936319
 20
91.09206729821085
 30
0.0
 10
-4088.98820448416
 20
91.09208413677516
 30
0.0
 10
-4088.97313077845
 20
91.09214975319041
 30
0.0
 10
-4088.968955465023
 20
91.09216792848883
 30
0.0
 11
-4101.968273105294
 21
91.09219844502212
 31
0.0
 11
-4101.953422976098
 21
91.09214829248985
 31
0.0
 11
-4101.918417281866
 21
91.09209839270595
 31
0.0
 11
-4101.863453572641
 21
91.09204885964574
 31
0.0
 11
-4101.788729398465
 21
91.0919998072845
 31
0.0
 11
-4101.694442309376
 21
91.09195134959759
 31
0.0
 11
-4101.580789855414
 21
91.09190360056033
 31
0.0
 11
-4101.447969586619
 21
91.09185667414803
 31
0.0
 11
-4101.296179053034
 21
91.09181068433603
 31
0.0
 11
-4101.100479346806
 21
91.09175960043035
 31
0.0
 11
-4100.882389898466
 21
91.09171040264818
 31
0.0
 11
-4100.642705844492
 21
91.09166322839457
 31
0.0
 11
-4100.382222321367
 21
91.09161821507448
 31
0.0
 11
-4100.101734465571
 21
91.0915755000929
 31
0.0
 11
-4099.802037413583
 21
91.09153522085478
 31
0.0
 11
-4099.483926301883
 21
91.09149751476514
 31
0.0
 11
-4099.092287660512
 21
91.09145712335085
 31
0.0
 11
-4098.681702282693
 21
91.09142090346232
 31
0.0
 11
-4098.253980151638
 21
91.09138897863284
 31
0.0
 11
-4097.810931250569
 21
91.0913614723957
 31
0.0
 11
-4097.354365562702
 21
91.09133850828425
 31
0.0
 11
-4096.886093071253
 21
91.09132020983179
 31
0.0
 11
-4095.929928722283
 21
91.09129821475214
 31
0.0
 11
-4094.96620959061
 21
91.09129595237435
 31
0.0
 11
-4094.010961156091
 21
91.0913134603191
 31
0.0
 11
-4093.543486265175
 21
91.09132956205887
 31
0.0
 11
-4093.087935819397
 21
91.09135038493315
 31
0.0
 11
-4092.646114270242
 21
91.09137581389365
 31
0.0
 11
-4092.21982606919
 21
91.09140573389216
 31
0.0
 11
-4091.810875667723
 21
91.09144002988043
 31
0.0
 11
-4091.42106751732
 21
91.09147858681018
 31
0.0
 11
-4091.104670370958
 21
91.0915148033607
 31
0.0
 11
-4090.806808617162
 21
91.0915536798003
 31
0.0
 11
-4090.528271106903
 21
91.09159508244252
 31
0.0
 11
-4090.269846691156
 21
91.09163887760087
 31
0.0
 11
-4090.032324220889
 21
91.09168493158883
 31
0.0
 11
-4089.816492547076
 21
91.09173311071993
 31
0.0
 11
-4089.623140520686
 21
91.09178328130767
 31
0.0
 11
-4089.473466211681
 21
91.09182856341623
 31
0.0
 11
-4089.342807666953
 21
91.09187487129915
 31
0.0
 11
-4089.231357172514
 21
91.09192209189624
 31
0.0
 11
-4089.139307014375
 21
91.09197011214738
 31
0.0
 11
-4089.066849478545
 21
91.09201881899236
 31
0.0
 11
-4089.014176851036
 21
91.09206809937103
 31
0.0
 11
-4088.981481417859
 21
91.09211784022325
 31
0.0
 11
-4088.968955465023
 21
91.09216792848883
 31
0.0
  0
SPLINE
  5
2E3
330
36
100
AcDbEntity
  8
0
  6
Continuous
 62
     7
100
AcDbSpline
210
0.0
220
0.0
230
1.0
 70
     8
 71
     3
 72
    49
 73
    45
 74
    43
 42
0.0000000001
 43
0.0000000001
 44
0.00000001
 40
0.0
 40
0.0
 40
0.0
 40
0.0
 40
0.0084536689327478
 40
0.0386201354707108
 40
0.0903158736149766
 40
0.1633572717777033
 40
0.257560710822623
 40
0.3727425696688433
 40
0.5087192265089654
 40
0.6648136336909635
 40
0.8401156561576877
 40
1.034092040647412
 40
1.246209533833032
 40
1.475934882344092
 40
1.722734832783405
 40
1.986076131733457
 40
2.31233414272708
 40
2.656918270570691
 40
3.018563434762822
 40
3.396004554791534
 40
3.787976550138544
 40
4.193214340274734
 40
4.819844566501854
 40
5.462060877193847
 40
6.114872193454083
 40
6.773287436376558
 40
7.298510759338284
 40
7.817220675253136
 40
8.326905536556728
 40
8.825053695689693
 40
9.309153505100188
 40
9.698692943120436
 40
10.07278511810583
 40
10.43023686819891
 40
10.76985503154961
 40
11.09044644631866
 40
11.39081795068414
 40
11.63059003851556
 40
11.85268624654913
 40
12.05664062220058
 40
12.24198721292113
 40
12.40826006621174
 40
12.55499322964886
 40
12.68172075094698
 40
12.68172075094698
 40
12.68172075094698
 40
12.68172075094698
 10
-4088.968955465023
 20
91.09216792848883
 30
0.0
 10
-4088.971773295576
 20
91.09218670190239
 30
0.0
 10
-4088.984646404109
 20
91.09227246724061
 30
0.0
 10
-4089.014751909008
 20
91.09226241123373
 30
0.0
 10
-4089.066386278262
 20
91.09234169645241
 30
0.0
 10
-4089.139366518599
 20
91.09237647019941
 30
0.0
 10
-4089.233508712695
 20
91.09243117281432
 30
0.0
 10
-4089.348629363199
 20
91.09247800138795
 30
0.0
 10
-4089.48438032587
 20
91.09252687288257
 30
0.0
 10
-4089.640171348637
 20
91.09257385579585
 30
0.0
 10
-4089.815295613685
 20
91.09261992124277
 30
0.0
 10
-4090.009094242064
 20
91.09266449297188
 30
0.0
 10
-4090.221033979741
 20
91.09270756578201
 30
0.0
 10
-4090.450581573411
 20
91.09274897777691
 30
0.0
 10
-4090.697203769534
 20
91.09278862222188
 30
0.0
 10
-4090.976003520141
 20
91.09282862198569
 30
0.0
 10
-4091.287397996915
 20
91.092868095005
 30
0.0
 10
-4091.631560429153
 20
91.0929062714041
 30
0.0
 10
-4091.992783898163
 20
91.09294119782675
 30
0.0
 10
-4092.369803323376
 20
91.09297275544233
 30
0.0
 10
-4092.761353624216
 20
91.09300082659857
 30
0.0
 10
-4093.235966960595
 20
91.09302951077466
 30
0.0
 10
-4093.793995069019
 20
91.09305577900426
 30
0.0
 10
-4094.434547686434
 20
91.09307639442825
 30
0.0
 10
-4095.085695309645
 20
91.09308806927537
 30
0.0
 10
-4095.697845270374
 20
91.09309049984847
 30
0.0
 10
-4096.265294764297
 20
91.09308561778227
 30
0.0
 10
-4096.783167464266
 20
91.09307529845597
 30
0.0
 10
-4097.292015109475
 20
91.09305925370801
 30
0.0
 10
-4097.789326052298
 20
91.09303756526342
 30
0.0
 10
-4098.246588520439
 20
91.09301178400591
 30
0.0
 10
-4098.662498993597
 20
91.09298308887475
 30
0.0
 10
-4099.03619344674
 20
91.09295272589127
 30
0.0
 10
-4099.393247474633
 20
91.09291897439384
 30
0.0
 10
-4099.732467915366
 20
91.09288196142944
 30
0.0
 10
-4100.052661607025
 20
91.09284181455782
 30
0.0
 10
-4100.339573273066
 20
91.09280054809992
 30
0.0
 10
-4100.593653203084
 20
91.09275893825115
 30
0.0
 10
-4100.815594089823
 20
91.09271793257837
 30
0.0
 10
-4101.019393143506
 20
91.09267524585661
 30
0.0
 10
-4101.20458441152
 20
91.09263114094111
 30
0.0
 10
-4101.370701941027
 20
91.09258532424428
 30
0.0
 10
-4101.517279779944
 20
91.09253929641369
 30
0.0
 10
-4101.608433334398
 20
91.09250317361149
 30
0.0
 10
-4101.650675838195
 20
91.09248643353351
 30
0.0
 11
-4088.968955465023
 21
91.09216792848883
 31
0.0
 11
-4088.977408973994
 21
91.09221993333114
 31
0.0
 11
-4089.007575396054
 21
91.09227173588128
 31
0.0
 11
-4089.059271108573
 21
91.0923232078944
 31
0.0
 11
-4089.132312488922
 21
91.0923742211256
 31
0.0
 11
-4089.22651591447
 21
91.09242464733001
 31
0.0
 11
-4089.341697762589
 21
91.09247435826271
 31
0.0
 11
-4089.477674410648
 21
91.09252322567883
 31
0.0
 11
-4089.633768810526
 21
91.09257098059926
 31
0.0
 11
-4089.809070826855
 21
91.09261736693433
 31
0.0
 11
-4090.003047206146
 21
91.09266227577355
 31
0.0
 11
-4090.215164694908
 21
91.09270559820627
 31
0.0
 11
-4090.444890039647
 21
91.09274722532194
 31
0.0
 11
-4090.691689986874
 21
91.09278704820999
 31
0.0
 11
-4090.955031283095
 21
91.09282495795978
 31
0.0
 11
-4091.281289291446
 21
91.09286648304213
 31
0.0
 11
-4091.625873417155
 21
91.09290484272107
 31
0.0
 11
-4091.987518579645
 21
91.09293992271434
 31
0.0
 11
-4092.364959698344
 21
91.0929716087398
 31
0.0
 11
-4092.756931692678
 21
91.09299978651525
 31
0.0
 11
-4093.162169482071
 21
91.09302434175851
 31
0.0
 11
-4093.788799707596
 21
91.09305399850794
 31
0.0
 11
-4094.431016017952
 21
91.09307476753864
 31
0.0
 11
-4095.083827334106
 21
91.09308652349826
 31
0.0
 11
-4095.742242577024
 21
91.09308914103437
 31
0.0
 11
-4096.267465899966
 21
91.09308460174775
 31
0.0
 11
-4096.786175815777
 21
91.09307422642048
 31
0.0
 11
-4097.295860676825
 21
91.09305809454786
 31
0.0
 11
-4097.794008835481
 21
91.0930362856253
 31
0.0
 11
-4098.278108644116
 21
91.09300887914819
 31
0.0
 11
-4098.667648081203
 21
91.09298192173984
 31
0.0
 11
-4099.041740254946
 21
91.09295142858271
 31
0.0
 11
-4099.399192003431
 21
91.09291752138894
 31
0.0
 11
-4099.738810164744
 21
91.09288032187055
 31
0.0
 11
-4100.059401576971
 21
91.09283995173965
 31
0.0
 11
-4100.359773078199
 21
91.09279653270826
 31
0.0
 11
-4100.599545162788
 21
91.09275710232932
 31
0.0
 11
-4100.821641366993
 21
91.09271586223164
 31
0.0
 11
-4101.025595738124
 21
91.09267292434579
 31
0.0
 11
-4101.210942323497
 21
91.09262840060244
 31
0.0
 11
-4101.377215170425
 21
91.09258240293221
 31
0.0
 11
-4101.523948326219
 21
91.09253504326568
 31
0.0
 11
-4101.650675838195
 21
91.09248643353351
 31
0.0
  0
SPLINE
  5
2E4
330
36
100
AcDbEntity
  8
0
  6
Continuous
 62
     7
100
AcDbSpline
210
0.0
220
0.0
230
1.0
 70
     8
 71
     3
 72
    27
 73
    23
 74
    21
 42
0.0000000001
 43
0.0000000001
 44
0.00000001
 40
0.0
 40
0.0
 40
0.0
 40
0.0
 40
0.0012980490163956
 40
0.0047140966590412
 40
0.0102206946919533
 40
0.0177903948591183
 40
0.0273957489001271
 40
0.039009308555651
 40
0.0526036255647064
 40
0.0681512516675363
 40
0.0881710484487723
 40
0.1104082786784208
 40
0.1347530092558893
 40
0.1610953070819199
 40
0.1893252390558711
 40
0.219332872078453
 40
0.2510082730499126
 40
0.2976111381394462
 40
0.3462225012269341
 40
0.3964316044777137
 40
0.4478276900530208
 40
0.5000000001177249
 40
0.5000000001177249
 40
0.5000000001177249
 40
0.5000000001177249
 10
-3470.960566585289
 20
0.44084396173713
 30
0.0
 10
-3470.960133902302
 20
0.4408438316661731
 30
0.0
 10
-3470.958562536816
 20
0.4408433592902801
 30
0.0
 10
-3470.955155638555
 20
0.4408432402968929
 30
0.0
 10
-3470.949658189975
 20
0.4408428029381564
 30
0.0
 10
-3470.942097639225
 20
0.4408425067669461
 30
0.0
 10
-3470.932501434614
 20
0.4408421481786628
 30
0.0
 10
-3470.920897024383
 20
0.4408418153118005
 30
0.0
 10
-3470.907311856796
 20
0.4408414789739223
 30
0.0
 10
-3470.890924610171
 20
0.4408411338443657
 30
0.0
 10
-3470.871656392468
 20
0.4408407843754392
 30
0.0
 10
-3470.849455806608
 20
0.4408404373992081
 30
0.0
 10
-3470.825147720399
 20
0.4408401070577607
 30
0.0
 10
-3470.798842066943
 20
0.4408397949431425
 30
0.0
 10
-3470.770648779337
 20
0.4408395024378133
 30
0.0
 10
-3470.740677790681
 20
0.4408392309366011
 30
0.0
 10
-3470.704582490987
 20
0.440838946714762
 30
0.0
 10
-3470.66228594794
 20
0.4408386689211992
 30
0.0
 10
-3470.61381150413
 20
0.4408384158951526
 30
0.0
 10
-3470.56373932016
 20
0.4408382181482536
 30
0.0
 10
-3470.512480153863
 20
0.4408380721625947
 30
0.0
 10
-3470.477957355317
 20
0.4408380239997753
 30
0.0
 10
-3470.460566585295
 20
0.4408379997378802
 30
0.0
 11
-3470.960566585289
 21
0.44084396173713
 31
0.0
 11
-3470.959268536322
 21
0.4408436031786461
 31
0.0
 11
-3470.955852488698
 21
0.4408432451798552
 31
0.0
 11
-3470.950345890677
 21
0.4408428888643884
 31
0.0
 11
-3470.942776190518
 21
0.440842535355877
 31
0.0
 11
-3470.933170836483
 21
0.440842185777952
 31
0.0
 11
-3470.921557276833
 21
0.4408418412542448
 31
0.0
 11
-3470.907962959828
 21
0.4408415029083865
 31
0.0
 11
-3470.892415333729
 21
0.4408411718640082
 31
0.0
 11
-3470.872395536951
 21
0.4408408057102425
 31
0.0
 11
-3470.850158306724
 21
0.4408404555950546
 31
0.0
 11
-3470.825813576149
 21
0.440840122829285
 31
0.0
 11
-3470.799471278325
 21
0.4408398087237739
 31
0.0
 11
-3470.771241346352
 21
0.4408395145893614
 31
0.0
 11
-3470.741233713331
 21
0.4408392417368877
 31
0.0
 11
-3470.709558312361
 21
0.4408389914771931
 31
0.0
 11
-3470.662955447272
 21
0.4408386835673923
 31
0.0
 11
-3470.614344084185
 21
0.4408384288025001
 31
0.0
 11
-3470.564134980935
 21
0.4408382288185772
 31
0.0
 11
-3470.51273889536
 21
0.4408380852516837
 31
0.0
 11
-3470.460566585295
 21
0.4408379997378802
 31
0.0
  0
SPLINE
  5
2E5
330
36
100
AcDbEntity
  8
0
  6
Continuous
 62
     7
100
AcDbSpline
210
0.0
220
0.0
230
1.0
 70
     8
 71
     3
 72
    16
 73
    12
 74
    10
 42
0.0000000001
 43
0.0000000001
 44
0.00000001
 40
0.0
 40
0.0
 40
0.0
 40
0.0
 40
0.1660336453178921
 40
0.3132231463024207
 40
0.4248628577446753
 40
0.4882845381904915
 40
0.4999658777979615
 40
0.5135792043023026
 40
0.551963580445758
 40
0.6511260300640788
 40
0.7898749750031242
 40
0.7898749750031242
 40
0.7898749750031242
 40
0.7898749750031242
 10
-3448.460566585288
 20
0.4408145173106846
 30
0.0
 10
-3448.404875330153
 20
0.4408145584710511
 30
0.0
 10
-3448.299813551129
 20
0.4408146361202496
 30
0.0
 10
-3448.162326454542
 20
0.4408147875659498
 30
0.0
 10
-3448.044651087683
 20
0.4408171679109015
 30
0.0
 10
-3447.999174622373
 20
0.440816250807525
 30
0.0
 10
-3447.953894754851
 20
0.4408196088522358
 30
0.0
 10
-3447.988912914886
 20
0.4408216141769327
 30
0.0
 10
-3448.02636571767
 20
0.4408220775945783
 30
0.0
 10
-3448.1281389786
 20
0.4408240204282767
 30
0.0
 10
-3448.205432526226
 20
0.4408244626458895
 30
0.0
 10
-3448.250509804696
 20
0.440824720545379
 30
0.0
 11
-3448.460566585288
 21
0.4408145173106846
 31
0.0
 11
-3448.29453293997
 21
0.4408146503457679
 31
0.0
 11
-3448.147343438987
 21
0.4408153886827506
 31
0.0
 11
-3448.035703727552
 21
0.4408166485513299
 31
0.0
 11
-3447.972282047128
 21
0.4408182869505026
 31
0.0
 11
-3447.960600707583
 21
0.4408195014123572
 31
0.0
 11
-3447.974214034032
 21
0.4408207327990744
 31
0.0
 11
-3448.012598410156
 21
0.4408219337472019
 31
0.0
 11
-3448.111760859762
 21
0.4408235282616602
 31
0.0
 11
-3448.250509804696
 21
0.440824720545379
 31
0.0
  0
ARC
  5
2E6
330
36
100
AcDbEntity
  8
1
  6
Continuous
 62
     7
100
AcDbCircle
 10
-1901.505524182594
 20
150.956507928087
 30
0.0
 40
2.500000000000306
100
AcDbArc
 50
0.00002833168559
 51
89.99998091464157
  0
ENDBLK
  5
38
330
36
100
AcDbEntity
  8
0
100
AcDbBlockEnd
  0
ENDSEC
  0
SECTION
  2
ENTITIES
  0
INSERT
  5
39
330
1F
100
AcDbEntity
  8
1
100
AcDbBlockReference
  2
1
 10
0.0
 20
0.0
 30
0.0
  0
ENDSEC
  0
SECTION
  2
OBJECTS
  0
DICTIONARY
  5
C
330
0
100
AcDbDictionary
281
     1
  3
ACAD_GROUP
350
D
  3
ACAD_LAYOUT
350
1A
  3
ACAD_MLINESTYLE
350
17
  3
ACAD_PLOTSETTINGS
350
19
  3
ACAD_PLOTSTYLENAME
350
E
  3
ACAD_TABLESTYLE
350
2A
  3
AcDbVariableDictionary
350
2C
  0
DICTIONARY
  5
D
102
{ACAD_REACTORS
330
C
102
}
330
C
100
AcDbDictionary
281
     1
  0
DICTIONARY
  5
1A
102
{ACAD_REACTORS
330
C
102
}
330
C
100
AcDbDictionary
281
     1
  3
Layout1
350
1E
  3
Layout2
350
26
  3
Model
350
22
  0
DICTIONARY
  5
17
102
{ACAD_REACTORS
330
C
102
}
330
C
100
AcDbDictionary
281
     1
  3
Standard
350
18
  0
DICTIONARY
  5
19
102
{ACAD_REACTORS
330
C
102
}
330
C
100
AcDbDictionary
281
     1
  0
ACDBDICTIONARYWDFLT
  5
E
102
{ACAD_REACTORS
330
C
102
}
330
C
100
AcDbDictionary
281
     1
  3
Normal
350
F
100
AcDbDictionaryWithDefault
340
F
  0
DICTIONARY
  5
2A
102
{ACAD_REACTORS
330
C
102
}
330
C
100
AcDbDictionary
281
     1
  3
Standard
350
2B
  0
DICTIONARY
  5
2C
102
{ACAD_REACTORS
330
C
102
}
330
C
100
AcDbDictionary
281
     1
  3
CTABLESTYLE
350
2D
  0
LAYOUT
  5
1E
102
{ACAD_REACTORS
330
1A
102
}
330
1A
100
AcDbPlotSettings
  1

  2

  4

  6

 40
0.0
 41
0.0
 42
0.0
 43
0.0
 44
0.0
 45
0.0
 46
0.0
 47
0.0
 48
0.0
 49
0.0
140
0.0
141
0.0
142
1.0
143
1.0
 70
   688
 72
     0
 73
     0
 74
     5
  7

 75
    16
147
1.0
148
0.0
149
0.0
100
AcDbLayout
  1
Layout1
 70
     1
 71
     1
 10
0.0
 20
0.0
 11
12.0
 21
9.0
 12
0.0
 22
0.0
 32
0.0
 14
1.00000000000000E+20
 24
1.00000000000000E+20
 34
1.00000000000000E+20
 15
-1.00000000000000E+20
 25
-1.00000000000000E+20
 35
-1.00000000000000E+20
146
0.0
 13
0.0
 23
0.0
 33
0.0
 16
1.0
 26
0.0
 36
0.0
 17
0.0
 27
1.0
 37
0.0
 76
     0
330
1B
  0
LAYOUT
  5
26
102
{ACAD_REACTORS
330
1A
102
}
330
1A
100
AcDbPlotSettings
  1

  2

  4

  6

 40
0.0
 41
0.0
 42
0.0
 43
0.0
 44
0.0
 45
0.0
 46
0.0
 47
0.0
 48
0.0
 49
0.0
140
0.0
141
0.0
142
1.0
143
1.0
 70
   688
 72
     0
 73
     0
 74
     5
  7

 75
    16
147
1.0
148
0.0
149
0.0
100
AcDbLayout
  1
Layout2
 70
     1
 71
     2
 10
0.0
 20
0.0
 11
0.0
 21
0.0
 12
0.0
 22
0.0
 32
0.0
 14
0.0
 24
0.0
 34
0.0
 15
0.0
 25
0.0
 35
0.0
146
0.0
 13
0.0
 23
0.0
 33
0.0
 16
1.0
 26
0.0
 36
0.0
 17
0.0
 27
1.0
 37
0.0
 76
     0
330
23
  0
LAYOUT
  5
22
102
{ACAD_REACTORS
330
1A
102
}
330
1A
100
AcDbPlotSettings
  1

  2

  4

  6

 40
0.0
 41
0.0
 42
0.0
 43
0.0
 44
0.0
 45
0.0
 46
0.0
 47
0.0
 48
0.0
 49
0.0
140
0.0
141
0.0
142
1.0
143
1.0
 70
  1712
 72
     0
 73
     0
 74
     0
  7

 75
     0
147
1.0
148
0.0
149
0.0
100
AcDbLayout
  1
Model
 70
     1
 71
     0
 10
0.0
 20
0.0
 11
0.0
 21
0.0
 12
0.0
 22
0.0
 32
0.0
 14
-4296.964411800146
 24
0.4382505785628
 34
0.0
 15
217.7729967260553
 25
686.0680586912624
 35
0.0
146
0.0
 13
0.0
 23
0.0
 33
0.0
 16
1.0
 26
0.0
 36
0.0
 17
0.0
 27
1.0
 37
0.0
 76
     0
330
1F
  0
MLINESTYLE
  5
18
102
{ACAD_REACTORS
330
17
102
}
330
17
100
AcDbMlineStyle
  2
Standard
 70
     0
  3

 62
   256
 51
90.0
 52
90.0
 71
     2
 49
0.5
 62
   256
  6
BYLAYER
 49
-0.5
 62
   256
  6
BYLAYER
  0
ACDBPLACEHOLDER
  5
F
102
{ACAD_REACTORS
330
E
102
}
330
E
  0
TABLESTYLE
  5
2B
102
{ACAD_REACTORS
330
2A
102
}
330
2A
100
AcDbTableStyle
  3
Standard
 70
     0
 71
     0
 40
0.06
 41
0.06
280
     0
281
     0
  7
Standard
140
0.18
170
     2
 62
     0
 63
     7
283
     0
274
    -2
284
     1
 64
     0
275
    -2
285
     1
 65
     0
276
    -2
286
     1
 66
     0
277
    -2
287
     1
 67
     0
278
    -2
288
     1
 68
     0
279
    -2
289
     1
 69
     0
  7
Standard
140
0.25
170
     5
 62
     0
 63
     7
283
     0
274
    -2
284
     1
 64
     0
275
    -2
285
     1
 65
     0
276
    -2
286
     1
 66
     0
277
    -2
287
     1
 67
     0
278
    -2
288
     1
 68
     0
279
    -2
289
     1
 69
     0
  7
Standard
140
0.18
170
     5
 62
     0
 63
     7
283
     0
274
    -2
284
     1
 64
     0
275
    -2
285
     1
 65
     0
276
    -2
286
     1
 66
     0
277
    -2
287
     1
 67
     0
278
    -2
288
     1
 68
     0
279
    -2
289
     1
 69
     0
  0
DICTIONARYVAR
  5
2D
102
{ACAD_REACTORS
330
2C
102
}
330
2C
100
DictionaryVariables
280
     0
  1
Standard
  0
ENDSEC
  0
EOF
