  0
SECTION
  2
HEADER
  9
$ACADVER
  1
AC1015
  9
$ACADMAINTVER
 70
     6
  9
$DWGCODEPAGE
  3
ANSI_1252
  9
$INSBASE
 10
0.0
 20
0.0
 30
0.0
  9
$EXTMIN
 10
-58.82743774417395
 20
-2262.092472113474
 30
0.0
  9
$EXTMAX
 10
4295.379196536657
 20
2780.530471424558
 30
0.0
  9
$LIMMIN
 10
0.0
 20
0.0
  9
$LIMMAX
 10
12.0
 20
9.0
  9
$ORTHOMODE
 70
     0
  9
$REGENMODE
 70
     1
  9
$FILLMODE
 70
     1
  9
$QTEXTMODE
 70
     0
  9
$MIRRTEXT
 70
     1
  9
$LTSCALE
 40
1.0
  9
$ATTMODE
 70
     1
  9
$TEXTSIZE
 40
0.2
  9
$TRACEWID
 40
0.05
  9
$TEXTSTYLE
  7
Standard
  9
$CLAYER
  8
0
  9
$CELTYPE
  6
ByLayer
  9
$CECOLOR
 62
   256
  9
$CELTSCALE
 40
1.0
  9
$DISPSILH
 70
     0
  9
$DIMSCALE
 40
1.0
  9
$DIMASZ
 40
0.18
  9
$DIMEXO
 40
0.0625
  9
$DIMDLI
 40
0.38
  9
$DIMRND
 40
0.0
  9
$DIMDLE
 40
0.0
  9
$DIMEXE
 40
0.18
  9
$DIMTP
 40
0.0
  9
$DIMTM
 40
0.0
  9
$DIMTXT
 40
0.18
  9
$DIMCEN
 40
0.09
  9
$DIMTSZ
 40
0.0
  9
$DIMTOL
 70
     0
  9
$DIMLIM
 70
     0
  9
$DIMTIH
 70
     1
  9
$DIMTOH
 70
     1
  9
$DIMSE1
 70
     0
  9
$DIMSE2
 70
     0
  9
$DIMTAD
 70
     0
  9
$DIMZIN
 70
     0
  9
$DIMBLK
  1

  9
$DIMASO
 70
     1
  9
$DIMSHO
 70
     1
  9
$DIMPOST
  1

  9
$DIMAPOST
  1

  9
$DIMALT
 70
     0
  9
$DIMALTD
 70
     2
  9
$DIMALTF
 40
25.4
  9
$DIMLFAC
 40
1.0
  9
$DIMTOFL
 70
     0
  9
$DIMTVP
 40
0.0
  9
$DIMTIX
 70
     0
  9
$DIMSOXD
 70
     0
  9
$DIMSAH
 70
     0
  9
$DIMBLK1
  1

  9
$DIMBLK2
  1

  9
$DIMSTYLE
  2
Standard
  9
$DIMCLRD
 70
     0
  9
$DIMCLRE
 70
     0
  9
$DIMCLRT
 70
     0
  9
$DIMTFAC
 40
1.0
  9
$DIMGAP
 40
0.09
  9
$DIMJUST
 70
     0
  9
$DIMSD1
 70
     0
  9
$DIMSD2
 70
     0
  9
$DIMTOLJ
 70
     1
  9
$DIMTZIN
 70
     0
  9
$DIMALTZ
 70
     0
  9
$DIMALTTZ
 70
     0
  9
$DIMUPT
 70
     0
  9
$DIMDEC
 70
     4
  9
$DIMTDEC
 70
     4
  9
$DIMALTU
 70
     2
  9
$DIMALTTD
 70
     2
  9
$DIMTXSTY
  7
Standard
  9
$DIMAUNIT
 70
     0
  9
$DIMADEC
 70
     0
  9
$DIMALTRND
 40
0.0
  9
$DIMAZIN
 70
     0
  9
$DIMDSEP
 70
    46
  9
$DIMATFIT
 70
     3
  9
$DIMFRAC
 70
     0
  9
$DIMLDRBLK
  1

  9
$DIMLUNIT
 70
     2
  9
$DIMLWD
 70
    -2
  9
$DIMLWE
 70
    -2
  9
$DIMTMOVE
 70
     0
  9
$LUNITS
 70
     2
  9
$LUPREC
 70
     4
  9
$SKETCHINC
 40
0.1
  9
$FILLETRAD
 40
0.5
  9
$AUNITS
 70
     0
  9
$AUPREC
 70
     0
  9
$MENU
  1
.
  9
$ELEVATION
 40
0.0
  9
$PELEVATION
 40
0.0
  9
$THICKNESS
 40
0.0
  9
$LIMCHECK
 70
     0
  9
$CHAMFERA
 40
0.5
  9
$CHAMFERB
 40
0.5
  9
$CHAMFERC
 40
1.0
  9
$CHAMFERD
 40
0.0
  9
$SKPOLY
 70
     0
  9
$TDCREATE
 40
2454753.604245868
  9
$TDUCREATE
 40
2454753.562579202
  9
$TDUPDATE
 40
2454753.645912546
  9
$TDUUPDATE
 40
2454753.562579213
  9
$TDINDWG
 40
0.0000000116
  9
$TDUSRTIMER
 40
0.0000000116
  9
$USRTIMER
 70
     1
  9
$ANGBASE
 50
0.0
  9
$ANGDIR
 70
     0
  9
$PDMODE
 70
     0
  9
$PDSIZE
 40
0.0
  9
$PLINEWID
 40
0.0
  9
$SPLFRAME
 70
     0
  9
$SPLINETYPE
 70
     6
  9
$SPLINESEGS
 70
     8
  9
$HANDSEED
  5
1CD
  9
$SURFTAB1
 70
     6
  9
$SURFTAB2
 70
     6
  9
$SURFTYPE
 70
     6
  9
$SURFU
 70
     6
  9
$SURFV
 70
     6
  9
$UCSBASE
  2

  9
$UCSNAME
  2

  9
$UCSORG
 10
0.0
 20
0.0
 30
0.0
  9
$UCSXDIR
 10
1.0
 20
0.0
 30
0.0
  9
$UCSYDIR
 10
0.0
 20
1.0
 30
0.0
  9
$UCSORTHOREF
  2

  9
$UCSORTHOVIEW
 70
     0
  9
$UCSORGTOP
 10
0.0
 20
0.0
 30
0.0
  9
$UCSORGBOTTOM
 10
0.0
 20
0.0
 30
0.0
  9
$UCSORGLEFT
 10
0.0
 20
0.0
 30
0.0
  9
$UCSORGRIGHT
 10
0.0
 20
0.0
 30
0.0
  9
$UCSORGFRONT
 10
0.0
 20
0.0
 30
0.0
  9
$UCSORGBACK
 10
0.0
 20
0.0
 30
0.0
  9
$PUCSBASE
  2

  9
$PUCSNAME
  2

  9
$PUCSORG
 10
0.0
 20
0.0
 30
0.0
  9
$PUCSXDIR
 10
1.0
 20
0.0
 30
0.0
  9
$PUCSYDIR
 10
0.0
 20
1.0
 30
0.0
  9
$PUCSORTHOREF
  2

  9
$PUCSORTHOVIEW
 70
     0
  9
$PUCSORGTOP
 10
0.0
 20
0.0
 30
0.0
  9
$PUCSORGBOTTOM
 10
0.0
 20
0.0
 30
0.0
  9
$PUCSORGLEFT
 10
0.0
 20
0.0
 30
0.0
  9
$PUCSORGRIGHT
 10
0.0
 20
0.0
 30
0.0
  9
$PUCSORGFRONT
 10
0.0
 20
0.0
 30
0.0
  9
$PUCSORGBACK
 10
0.0
 20
0.0
 30
0.0
  9
$USERI1
 70
     0
  9
$USERI2
 70
     0
  9
$USERI3
 70
     0
  9
$USERI4
 70
     0
  9
$USERI5
 70
     0
  9
$USERR1
 40
13.01
  9
$USERR2
 40
0.0
  9
$USERR3
 40
0.0
  9
$USERR4
 40
0.0
  9
$USERR5
 40
0.0
  9
$WORLDVIEW
 70
     1
  9
$SHADEDGE
 70
     3
  9
$SHADEDIF
 70
    70
  9
$TILEMODE
 70
     1
  9
$MAXACTVP
 70
    64
  9
$PINSBASE
 10
0.0
 20
0.0
 30
0.0
  9
$PLIMCHECK
 70
     0
  9
$PEXTMIN
 10
1.00000000000000E+20
 20
1.00000000000000E+20
 30
1.00000000000000E+20
  9
$PEXTMAX
 10
-1.00000000000000E+20
 20
-1.00000000000000E+20
 30
-1.00000000000000E+20
  9
$PLIMMIN
 10
0.0
 20
0.0
  9
$PLIMMAX
 10
12.0
 20
9.0
  9
$UNITMODE
 70
     0
  9
$VISRETAIN
 70
     1
  9
$PLINEGEN
 70
     0
  9
$PSLTSCALE
 70
     1
  9
$TREEDEPTH
 70
  3020
  9
$CMLSTYLE
  2
Standard
  9
$CMLJUST
 70
     0
  9
$CMLSCALE
 40
1.0
  9
$PROXYGRAPHICS
 70
     1
  9
$MEASUREMENT
 70
     1
  9
$CELWEIGHT
370
    -1
  9
$ENDCAPS
280
     0
  9
$JOINSTYLE
280
     0
  9
$LWDISPLAY
290
     0
  9
$INSUNITS
 70
     1
  9
$HYPERLINKBASE
  1

  9
$STYLESHEET
  1

  9
$XEDIT
290
     1
  9
$CEPSNTYPE
380
     0
  9
$PSTYLEMODE
290
     0
  9
$FINGERPRINTGUID
  2
{FAEB1C30-E019-11D5-929B-00C0DF256EC4}
  9
$VERSIONGUID
  2
{FAEB1C32-E019-11D5-929B-00C0DF256EC4}
  9
$EXTNAMES
290
     1
  9
$PSVPSCALE
 40
0.0
  9
$OLESTARTUP
290
     0
  0
ENDSEC
  0
SECTION
  2
CLASSES
  0
CLASS
  1
ACDBDICTIONARYWDFLT
  2
AcDbDictionaryWithDefault
  3
ObjectDBX Classes
 90
        0
280
     0
281
     0
  0
CLASS
  1
TABLESTYLE
  2
AcDbTableStyle
  3
ObjectDBX Classes
 90
     2047
280
     0
281
     0
  0
CLASS
  1
DICTIONARYVAR
  2
AcDbDictionaryVar
  3
ObjectDBX Classes
 90
        0
280
     0
281
     0
  0
CLASS
  1

  2
exOdDbPolyline
  3

 90
        0
280
     0
281
     1
  0
CLASS
  1
ACDBPLACEHOLDER
  2
AcDbPlaceHolder
  3
ObjectDBX Classes
 90
        0
280
     0
281
     0
  0
CLASS
  1
LAYOUT
  2
AcDbLayout
  3
ObjectDBX Classes
 90
        0
280
     0
281
     0
  0
ENDSEC
  0
SECTION
  2
TABLES
  0
TABLE
  2
VPORT
  5
8
330
0
100
AcDbSymbolTable
 70
     2
  0
VPORT
  5
29
330
8
100
AcDbSymbolTableRecord
100
AcDbViewportTableRecord
  2
*Active
 70
     0
 10
0.0
 20
0.0
 11
1.0
 21
1.0
 12
2118.275879396242
 22
259.2189996555421
 13
0.0
 23
0.0
 14
0.5
 24
0.5
 15
0.5
 25
0.5
 16
0.0
 26
0.0
 36
1.0
 17
0.0
 27
0.0
 37
0.0
 40
5546.885237891836
 41
1.60267857142857
 42
50.0
 43
0.0
 44
0.0
 50
0.0
 51
0.0
 71
     0
 72
   100
 73
     1
 74
     3
 75
     0
 76
     0
 77
     0
 78
     0
281
     0
 65
     1
110
0.0
120
0.0
130
0.0
111
1.0
121
0.0
131
0.0
112
0.0
122
1.0
132
0.0
 79
     0
146
0.0
  0
ENDTAB
  0
TABLE
  2
LTYPE
  5
5
330
0
100
AcDbSymbolTable
 70
     8
  0
LTYPE
  5
14
330
5
100
AcDbSymbolTableRecord
100
AcDbLinetypeTableRecord
  2
ByBlock
 70
     0
  3

 72
    65
 73
     0
 40
0.0
  0
LTYPE
  5
15
330
5
100
AcDbSymbolTableRecord
100
AcDbLinetypeTableRecord
  2
ByLayer
 70
     0
  3

 72
    65
 73
     0
 40
0.0
  0
LTYPE
  5
16
330
5
100
AcDbSymbolTableRecord
100
AcDbLinetypeTableRecord
  2
Continuous
 70
     0
  3
Solid line
 72
    65
 73
     0
 40
0.0
  0
LTYPE
  5
2E
330
5
100
AcDbSymbolTableRecord
100
AcDbLinetypeTableRecord
  2
DASHED
 70
     0
  3
Dashed
 72
    65
 73
     2
 40
15.0
 49
7.0
 74
     0
 49
-8.0
 74
     0
  0
LTYPE
  5
2F
330
5
100
AcDbSymbolTableRecord
100
AcDbLinetypeTableRecord
  2
DOTTED
 70
     0
  3
Dotted
 72
    65
 73
     2
 40
1.0
 49
0.0
 74
     0
 49
-1.0
 74
     0
  0
LTYPE
  5
30
330
5
100
AcDbSymbolTableRecord
100
AcDbLinetypeTableRecord
  2
DOT_CENTER
 70
     0
  3
Dot_Center
 72
    65
 73
     4
 40
14.0
 49
12.0
 74
     0
 49
-1.0
 74
     0
 49
0.0
 74
     0
 49
-1.0
 74
     0
  0
LTYPE
  5
31
330
5
100
AcDbSymbolTableRecord
100
AcDbLinetypeTableRecord
  2
LONG_DASHED
 70
     0
  3
Long_Dashed
 72
    65
 73
     2
 40
15.0
 49
10.0
 74
     0
 49
-5.0
 74
     0
  0
LTYPE
  5
32
330
5
100
AcDbSymbolTableRecord
100
AcDbLinetypeTableRecord
  2
DASH_CENTER
 70
     0
  3
Dash_Center
 72
    65
 73
     4
 40
14.0
 49
11.0
 74
     0
 49
-1.0
 74
     0
 49
1.0
 74
     0
 49
-1.0
 74
     0
  0
LTYPE
  5
33
330
5
100
AcDbSymbolTableRecord
100
AcDbLinetypeTableRecord
  2
PHANTOM
 70
     0
  3
Phantom
 72
    65
 73
     6
 40
13.0
 49
10.0
 74
     0
 49
-1.0
 74
     0
 49
0.0
 74
     0
 49
-1.0
 74
     0
 49
0.0
 74
     0
 49
-1.0
 74
     0
  0
LTYPE
  5
34
330
5
100
AcDbSymbolTableRecord
100
AcDbLinetypeTableRecord
  2
CENTER_DASH_DASH
 70
     0
  3
Center_Dash_Dash
 72
    65
 73
     6
 40
14.0
 49
9.0
 74
     0
 49
-1.0
 74
     0
 49
1.0
 74
     0
 49
-1.0
 74
     0
 49
1.0
 74
     0
 49
-1.0
 74
     0
  0
ENDTAB
  0
TABLE
  2
LAYER
  5
2
330
0
100
AcDbSymbolTable
 70
     3
  0
LAYER
  5
10
330
2
100
AcDbSymbolTableRecord
100
AcDbLayerTableRecord
  2
0
 70
     0
 62
     7
  6
Continuous
370
    -3
390
F
  0
LAYER
  5
35
330
2
100
AcDbSymbolTableRecord
100
AcDbLayerTableRecord
  2
1
 70
     0
 62
     7
  6
Continuous
370
    -3
390
F
  0
LAYER
  5
36
330
2
100
AcDbSymbolTableRecord
100
AcDbLayerTableRecord
  2
5
 70
     0
 62
     7
  6
Continuous
370
    -3
390
F
  0
ENDTAB
  0
TABLE
  2
STYLE
  5
3
330
0
100
AcDbSymbolTable
 70
     1
  0
STYLE
  5
11
330
3
100
AcDbSymbolTableRecord
100
AcDbTextStyleTableRecord
  2
Standard
 70
     0
 40
0.0
 41
1.0
 50
0.0
 71
     0
 42
0.2
  3
txt
  4

  0
ENDTAB
  0
TABLE
  2
VIEW
  5
6
330
0
100
AcDbSymbolTable
 70
     0
  0
ENDTAB
  0
TABLE
  2
UCS
  5
7
330
0
100
AcDbSymbolTable
 70
     0
  0
ENDTAB
  0
TABLE
  2
APPID
  5
9
330
0
100
AcDbSymbolTable
 70
     1
  0
APPID
  5
12
330
9
100
AcDbSymbolTableRecord
100
AcDbRegAppTableRecord
  2
ACAD
 70
     0
  0
ENDTAB
  0
TABLE
  2
DIMSTYLE
  5
A
330
0
100
AcDbSymbolTable
 70
     1
100
AcDbDimStyleTable
  0
DIMSTYLE
105
27
330
A
100
AcDbSymbolTableRecord
100
AcDbDimStyleTableRecord
  2
Standard
 70
     0
340
11
  0
ENDTAB
  0
TABLE
  2
BLOCK_RECORD
  5
1
330
0
100
AcDbSymbolTable
 70
     1
  0
BLOCK_RECORD
  5
1F
330
1
100
AcDbSymbolTableRecord
100
AcDbBlockTableRecord
  2
*Model_Space
340
22
  0
BLOCK_RECORD
  5
1B
330
1
100
AcDbSymbolTableRecord
100
AcDbBlockTableRecord
  2
*Paper_Space
340
1E
  0
BLOCK_RECORD
  5
23
330
1
100
AcDbSymbolTableRecord
100
AcDbBlockTableRecord
  2
*Paper_Space0
340
26
  0
ENDTAB
  0
ENDSEC
  0
SECTION
  2
BLOCKS
  0
BLOCK
  5
20
330
1F
100
AcDbEntity
  8
0
100
AcDbBlockBegin
  2
*Model_Space
 70
     0
 71
     0
 10
0.0
 20
0.0
 30
0.0
  3
*Model_Space
  1

  0
ENDBLK
  5
21
330
1F
100
AcDbEntity
  8
0
100
AcDbBlockEnd
  0
BLOCK
  5
1C
330
1B
100
AcDbEntity
 67
     1
  8
0
100
AcDbBlockBegin
  2
*Paper_Space
 70
     0
 71
     0
 10
0.0
 20
0.0
 30
0.0
  3
*Paper_Space
  1

  0
ENDBLK
  5
1D
330
1B
100
AcDbEntity
 67
     1
  8
0
100
AcDbBlockEnd
  0
BLOCK
  5
24
330
23
100
AcDbEntity
  8
0
100
AcDbBlockBegin
  2
*Paper_Space0
 70
     0
 71
     0
 10
0.0
 20
0.0
 30
0.0
  3
*Paper_Space0
  1

  0
ENDBLK
  5
25
330
23
100
AcDbEntity
  8
0
100
AcDbBlockEnd
  0
ENDSEC
  0
SECTION
  2
ENTITIES
  0
LINE
  5
37
330
1F
100
AcDbEntity
  8
5
  6
Continuous
 62
     5
100
AcDbLine
 10
4170.545047508635
 20
1582.896128645254
 30
0.0
 11
3924.876837030814
 21
1620.17892245581
 31
0.0
  0
LINE
  5
38
330
1F
100
AcDbEntity
  8
5
  6
Continuous
 62
     5
100
AcDbLine
 10
4173.074344029204
 20
1572.930796208498
 30
0.0
 11
3860.574344029204
 21
1572.930796208498
 31
0.0
  0
LINE
  5
39
330
1F
100
AcDbEntity
  8
5
  6
Continuous
 62
     5
100
AcDbLine
 10
3550.603640549774
 20
1582.896128645254
 30
0.0
 11
3796.271851027605
 21
1620.17892245581
 31
0.0
  0
LINE
  5
3A
330
1F
100
AcDbEntity
  8
5
  6
Continuous
 62
     5
100
AcDbLine
 10
3548.074344029204
 20
1572.930796208498
 30
0.0
 11
3860.574344029204
 21
1572.930796208498
 31
0.0
  0
LINE
  5
3B
330
1F
100
AcDbEntity
  8
5
  6
Continuous
 62
     5
100
AcDbLine
 10
3548.074344029204
 20
1572.930796208498
 30
0.0
 11
3548.074344029204
 21
1579.933285714138
 31
0.0
  0
LINE
  5
3C
330
1F
100
AcDbEntity
  8
5
  6
Continuous
 62
     5
100
AcDbLine
 10
3924.876837030814
 20
1620.17892245581
 30
0.0
 11
3796.271851027605
 21
1620.17892245581
 31
0.0
  0
LINE
  5
3D
330
1F
100
AcDbEntity
  8
5
  6
Continuous
 62
     5
100
AcDbLine
 10
3890.574344029204
 20
1629.232328203353
 30
0.0
 11
3890.574344029204
 21
1620.17892245581
 31
0.0
  0
LINE
  5
3E
330
1F
100
AcDbEntity
  8
5
  6
Continuous
 62
     5
100
AcDbLine
 10
3830.574344029204
 20
1629.301752054561
 30
0.0
 11
3830.574344029204
 21
1620.17892245581
 31
0.0
  0
LINE
  5
3F
330
1F
100
AcDbEntity
  8
5
  6
Continuous
 62
     5
100
AcDbLine
 10
4173.074344029204
 20
1572.930796208498
 30
0.0
 11
4173.074344029204
 21
1579.933285714138
 31
0.0
  0
LINE
  5
40
330
1F
100
AcDbEntity
  8
5
  6
Continuous
 62
     5
100
AcDbLine
 10
4173.074344029204
 20
-22.97552289579289
 30
0.0
 11
4173.074344029204
 21
-15.9730333901548
 31
0.0
  0
LINE
  5
41
330
1F
100
AcDbEntity
  8
5
  6
Continuous
 62
     5
100
AcDbLine
 10
3830.574344029204
 20
33.39543295027033
 30
0.0
 11
3830.574344029204
 21
24.27260335151914
 31
0.0
  0
LINE
  5
42
330
1F
100
AcDbEntity
  8
5
  6
Continuous
 62
     5
100
AcDbLine
 10
3890.574344029204
 20
33.32600909906114
 30
0.0
 11
3890.574344029204
 21
24.27260335151914
 31
0.0
  0
LINE
  5
43
330
1F
100
AcDbEntity
  8
5
  6
Continuous
 62
     5
100
AcDbLine
 10
3924.876837030814
 20
24.27260335151914
 30
0.0
 11
3796.271851027605
 21
24.27260335151914
 31
0.0
  0
LINE
  5
44
330
1F
100
AcDbEntity
  8
5
  6
Continuous
 62
     5
100
AcDbLine
 10
3548.074344029204
 20
-22.97552289579289
 30
0.0
 11
3548.074344029204
 21
-15.9730333901548
 31
0.0
  0
LINE
  5
45
330
1F
100
AcDbEntity
  8
5
  6
Continuous
 62
     5
100
AcDbLine
 10
3548.074344029204
 20
-22.97552289579289
 30
0.0
 11
3860.574344029204
 21
-22.97552289579289
 31
0.0
  0
LINE
  5
46
330
1F
100
AcDbEntity
  8
5
  6
Continuous
 62
     5
100
AcDbLine
 10
3550.603640549774
 20
-13.01019045903877
 30
0.0
 11
3796.271851027605
 21
24.27260335151915
 31
0.0
  0
LINE
  5
47
330
1F
100
AcDbEntity
  8
5
  6
Continuous
 62
     5
100
AcDbLine
 10
4173.074344029204
 20
-22.97552289579289
 30
0.0
 11
3860.574344029204
 21
-22.97552289579289
 31
0.0
  0
LINE
  5
48
330
1F
100
AcDbEntity
  8
5
  6
Continuous
 62
     5
100
AcDbLine
 10
4170.545047508635
 20
-13.01019045903877
 30
0.0
 11
3924.876837030814
 21
24.27260335151915
 31
0.0
  0
LINE
  5
49
330
1F
100
AcDbEntity
  8
1
  6
Continuous
 62
     3
100
AcDbLine
 10
714.3586109607331
 20
142.01768884288
 30
0.0
 11
769.3842004497437
 21
145.5856187472914
 31
0.0
  0
LINE
  5
4A
330
1F
100
AcDbEntity
  8
1
  6
Continuous
 62
     3
100
AcDbLine
 10
1323.937960184103
 20
432.8109926390648
 30
0.0
 11
1394.800796300544
 21
446.9075317747479
 31
0.0
  0
LINE
  5
4B
330
1F
100
AcDbEntity
  8
1
  6
Continuous
 62
     3
100
AcDbLine
 10
1237.691499543784
 20
512.5156668059576
 30
0.0
 11
1354.735918290104
 21
535.7989746707376
 31
0.0
  0
LINE
  5
4C
330
1F
100
AcDbEntity
  8
1
  6
Continuous
 62
     3
100
AcDbLine
 10
1006.492709481974
 20
461.3147898213406
 30
0.0
 11
1096.691900393973
 21
505.3639390929816
 31
0.0
  0
LINE
  5
4D
330
1F
100
AcDbEntity
  8
1
  6
Continuous
 62
     3
100
AcDbLine
 10
338.1905764087223
 20
412.1619954847433
 30
0.0
 11
543.0527736467138
 21
320.9514687390579
 31
0.0
  0
LINE
  5
4E
330
1F
100
AcDbEntity
  8
1
  6
Continuous
 62
     3
100
AcDbLine
 10
180.2390878695787
 20
392.179036092803
 30
0.0
 11
523.0596190599135
 21
239.5455016941551
 31
0.0
  0
LINE
  5
4F
330
1F
100
AcDbEntity
  8
1
  6
Continuous
 62
     3
100
AcDbLine
 10
150.2847778100168
 20
465.4832789905936
 30
0.0
 11
-29.68518502152801
 21
732.2997213892818
 31
0.0
  0
LINE
  5
50
330
1F
100
AcDbEntity
  8
1
  6
Continuous
 62
     3
100
AcDbLine
 10
122.759784381642
 20
444.38143556368
 30
0.0
 11
-17.88675124318253
 21
692.8575669491215
 31
0.0
  0
LINE
  5
51
330
1F
100
AcDbEntity
  8
1
  6
Continuous
 62
     3
100
AcDbLine
 10
264.8884985079712
 20
444.798183258878
 30
0.0
 11
277.7091649744161
 21
439.0900547832466
 31
0.0
  0
LINE
  5
52
330
1F
100
AcDbEntity
  8
1
  6
Continuous
 62
     3
100
AcDbLine
 10
106.859988460641
 20
610.3363009945565
 30
0.0
 11
158.0463633497329
 21
534.4493794643427
 31
0.0
  0
LINE
  5
53
330
1F
100
AcDbEntity
  8
1
  6
Continuous
 62
     7
100
AcDbLine
 10
817.5306337972834
 20
142.4637421635662
 30
0.0
 11
697.6273516226538
 21
150.2384249989664
 31
0.0
  0
LINE
  5
54
330
1F
100
AcDbEntity
  8
1
  6
Continuous
 62
     7
100
AcDbLine
 10
1039.791147887683
 20
135.954017516397
 30
0.0
 11
1067.905679911333
 21
230.6766833594884
 31
0.0
  0
LINE
  5
55
330
1F
100
AcDbEntity
  8
1
  6
Continuous
 62
     7
100
AcDbLine
 10
848.4582608838337
 20
148.9752177503142
 30
0.0
 11
1043.761647553754
 21
250.5946020020392
 31
0.0
  0
LINE
  5
56
330
1F
100
AcDbEntity
  8
1
  6
Continuous
 62
     7
100
AcDbLine
 10
1131.170179271623
 20
109.9534660406762
 30
0.0
 11
1176.855310404044
 21
263.8744847726671
 31
0.0
  0
LINE
  5
57
330
1F
100
AcDbEntity
  8
1
  6
Continuous
 62
     7
100
AcDbLine
 10
582.7861759037642
 20
547.2778932810629
 30
0.0
 11
501.8596917143641
 21
699.4784738434878
 31
0.0
  0
LINE
  5
58
330
1F
100
AcDbEntity
  8
1
  6
Continuous
 62
     7
100
AcDbLine
 10
449.9192027274839
 20
938.8888320522606
 30
0.0
 11
453.4229264615042
 21
995.8713374245576
 31
0.0
  0
LINE
  5
59
330
1F
100
AcDbEntity
  8
1
  6
Continuous
 62
     7
100
AcDbLine
 10
920.5572500599537
 20
400.3076301036758
 30
0.0
 11
979.5296746687436
 21
408.7330297203703
 31
0.0
  0
LINE
  5
5A
330
1F
100
AcDbEntity
  8
1
  6
Continuous
 62
     7
100
AcDbLine
 10
386.5626065016295
 20
1046.003219762727
 30
0.0
 11
367.8521229410071
 21
884.1877441201818
 31
0.0
  0
LINE
  5
5B
330
1F
100
AcDbEntity
  8
1
  6
Continuous
 62
     7
100
AcDbLine
 10
1078.418860551734
 20
416.6491760626573
 30
0.0
 11
1118.348478094784
 21
427.0945359348966
 31
0.0
  0
LINE
  5
5C
330
1F
100
AcDbEntity
  8
1
  6
Continuous
 62
     7
100
AcDbLine
 10
433.4631442875598
 20
753.5617643407691
 30
0.0
 11
410.4874435354031
 21
796.7727728052273
 31
0.0
  0
LINE
  5
5D
330
1F
100
AcDbEntity
  8
1
  6
Continuous
 62
     1
100
AcDbLine
 10
399.27392283277
 20
848.459483126258
 30
0.0
 11
415.6209302385978
 21
1114.31761237317
 31
0.0
  0
LINE
  5
5E
330
1F
100
AcDbEntity
  8
1
  6
Continuous
 62
     7
100
AcDbLine
 10
399.3257346396222
 20
717.6523341191146
 30
0.0
 11
673.6153346411229
 21
201.7886242270374
 31
0.0
  0
LINE
  5
5F
330
1F
100
AcDbEntity
  8
5
  6
Continuous
 62
     5
100
AcDbLine
 10
1081.884200449744
 20
-22.97552289579289
 30
0.0
 11
769.3842004497437
 21
-22.97552289579289
 31
0.0
  0
LINE
  5
60
330
1F
100
AcDbEntity
  8
5
  6
Continuous
 62
     5
100
AcDbLine
 10
1079.354903929174
 20
-13.01019045903877
 30
0.0
 11
833.5006120507933
 21
24.3008432058964
 31
0.0
  0
LINE
  5
61
330
1F
100
AcDbEntity
  8
5
  6
Continuous
 62
     5
100
AcDbLine
 10
1081.884200449744
 20
-22.97552289579289
 30
0.0
 11
1081.884200449744
 21
-15.9730333901548
 31
0.0
  0
LINE
  5
62
330
1F
100
AcDbEntity
  8
5
  6
Continuous
 62
     5
100
AcDbLine
 10
832.4084476651642
 20
24.27260335151914
 30
0.0
 11
706.359953234014
 21
24.27260335151914
 31
0.0
  0
LINE
  5
63
330
1F
100
AcDbEntity
  8
5
  6
Continuous
 62
     5
100
AcDbLine
 10
456.8842004497437
 20
-22.97552289579289
 30
0.0
 11
769.3842004497437
 21
-22.97552289579289
 31
0.0
  0
LINE
  5
64
330
1F
100
AcDbEntity
  8
5
  6
Continuous
 62
     5
100
AcDbLine
 10
456.8842004497437
 20
-22.97552289579289
 30
0.0
 11
456.8842004497437
 21
-15.9730333901548
 31
0.0
  0
LINE
  5
65
330
1F
100
AcDbEntity
  8
5
  6
Continuous
 62
     5
100
AcDbLine
 10
459.4134969703136
 20
-13.01019045904059
 30
0.0
 11
705.2677888486942
 21
24.3008432058964
 31
0.0
  0
LINE
  5
66
330
1F
100
AcDbEntity
  8
0
  6
Continuous
 62
     5
100
AcDbLine
 10
734.3842004497437
 20
24.27260335151914
 30
0.0
 11
734.3842004497437
 21
145.725762138763
 31
0.0
  0
LINE
  5
67
330
1F
100
AcDbEntity
  8
0
  6
Continuous
 62
     5
100
AcDbLine
 10
804.3842004497437
 20
145.725762138763
 30
0.0
 11
804.3842004497437
 21
24.27260335151914
 31
0.0
  0
LINE
  5
68
330
1F
100
AcDbEntity
  8
0
  6
Continuous
 62
     5
100
AcDbLine
 10
804.3842004497437
 20
1783.452259143051
 30
0.0
 11
804.3842004497437
 21
1620.17892245581
 31
0.0
  0
LINE
  5
69
330
1F
100
AcDbEntity
  8
0
  6
Continuous
 62
     5
100
AcDbLine
 10
734.3842004497437
 20
1620.17892245581
 30
0.0
 11
734.3842004497437
 21
1787.991149060053
 31
0.0
  0
LINE
  5
6A
330
1F
100
AcDbEntity
  8
5
  6
Continuous
 62
     5
100
AcDbLine
 10
459.4134969703136
 20
1582.896128645251
 30
0.0
 11
705.2677888486942
 21
1620.207162310188
 31
0.0
  0
LINE
  5
6B
330
1F
100
AcDbEntity
  8
5
  6
Continuous
 62
     5
100
AcDbLine
 10
456.8842004497437
 20
1572.930796208498
 30
0.0
 11
456.8842004497437
 21
1579.933285714138
 31
0.0
  0
LINE
  5
6C
330
1F
100
AcDbEntity
  8
5
  6
Continuous
 62
     5
100
AcDbLine
 10
456.8842004497437
 20
1572.930796208498
 30
0.0
 11
769.3842004497437
 21
1572.930796208498
 31
0.0
  0
LINE
  5
6D
330
1F
100
AcDbEntity
  8
5
  6
Continuous
 62
     5
100
AcDbLine
 10
832.4084476651642
 20
1620.17892245581
 30
0.0
 11
706.359953234014
 21
1620.17892245581
 31
0.0
  0
LINE
  5
6E
330
1F
100
AcDbEntity
  8
5
  6
Continuous
 62
     5
100
AcDbLine
 10
1081.884200449744
 20
1572.930796208498
 30
0.0
 11
1081.884200449744
 21
1579.933285714138
 31
0.0
  0
LINE
  5
6F
330
1F
100
AcDbEntity
  8
5
  6
Continuous
 62
     5
100
AcDbLine
 10
1079.354903929174
 20
1582.896128645254
 30
0.0
 11
833.5006120507933
 21
1620.207162310188
 31
0.0
  0
LINE
  5
70
330
1F
100
AcDbEntity
  8
5
  6
Continuous
 62
     5
100
AcDbLine
 10
1081.884200449744
 20
1572.930796208498
 30
0.0
 11
769.3842004497437
 21
1572.930796208498
 31
0.0
  0
LINE
  5
71
330
1F
100
AcDbEntity
  8
1
  6
Continuous
 62
     7
100
AcDbLine
 10
399.3257346396222
 20
2357.788419473376
 30
0.0
 11
673.6153346411229
 21
1841.924709581298
 31
0.0
  0
LINE
  5
72
330
1F
100
AcDbEntity
  8
1
  6
Continuous
 62
     1
100
AcDbLine
 10
399.27392283277
 20
2488.595568480518
 30
0.0
 11
415.6209302385978
 21
2754.453697727431
 31
0.0
  0
LINE
  5
73
330
1F
100
AcDbEntity
  8
1
  6
Continuous
 62
     7
100
AcDbLine
 10
433.4631442875598
 20
2393.697849695029
 30
0.0
 11
410.4874435354031
 21
2436.908858159488
 31
0.0
  0
LINE
  5
74
330
1F
100
AcDbEntity
  8
1
  6
Continuous
 62
     7
100
AcDbLine
 10
1078.418860551734
 20
2056.785261416917
 30
0.0
 11
1118.348478094784
 21
2067.230621289158
 31
0.0
  0
LINE
  5
75
330
1F
100
AcDbEntity
  8
1
  6
Continuous
 62
     7
100
AcDbLine
 10
391.7385930359942
 20
2730.903232263172
 30
0.0
 11
367.8521229410071
 21
2524.323829474443
 31
0.0
  0
LINE
  5
76
330
1F
100
AcDbEntity
  8
1
  6
Continuous
 62
     7
100
AcDbLine
 10
920.5572500599537
 20
2040.443715457936
 30
0.0
 11
979.5296746687436
 21
2048.869115074631
 31
0.0
  0
LINE
  5
77
330
1F
100
AcDbEntity
  8
1
  6
Continuous
 62
     7
100
AcDbLine
 10
449.9192027274839
 20
2579.024917406522
 30
0.0
 11
455.0195245507639
 21
2661.973556556804
 31
0.0
  0
LINE
  5
78
330
1F
100
AcDbEntity
  8
1
  6
Continuous
 62
     7
100
AcDbLine
 10
582.7861759037642
 20
2187.413978635323
 30
0.0
 11
501.8596917143641
 21
2339.614559197748
 31
0.0
  0
LINE
  5
79
330
1F
100
AcDbEntity
  8
1
  6
Continuous
 62
     7
100
AcDbLine
 10
1120.556508023643
 20
1714.330278071625
 30
0.0
 11
1176.855310404044
 21
1904.010570126928
 31
0.0
  0
LINE
  5
7A
330
1F
100
AcDbEntity
  8
1
  6
Continuous
 62
     7
100
AcDbLine
 10
848.4582608838337
 20
1789.111303104576
 30
0.0
 11
1043.761647553754
 21
1890.7306873563
 31
0.0
  0
LINE
  5
7B
330
1F
100
AcDbEntity
  8
1
  6
Continuous
 62
     7
100
AcDbLine
 10
1039.791147887683
 20
1776.090102870658
 30
0.0
 11
1067.905679911333
 21
1870.812768713748
 31
0.0
  0
LINE
  5
7C
330
1F
100
AcDbEntity
  8
1
  6
Continuous
 62
     7
100
AcDbLine
 10
817.5306337972834
 20
1782.599827517828
 30
0.0
 11
697.6273516226538
 21
1790.374510353226
 31
0.0
  0
LINE
  5
7D
330
1F
100
AcDbEntity
  8
1
  6
Continuous
 62
     3
100
AcDbLine
 10
264.8884985079712
 20
2084.934268613139
 30
0.0
 11
277.7091649744161
 21
2079.226140137508
 31
0.0
  0
LINE
  5
7E
330
1F
100
AcDbEntity
  8
1
  6
Continuous
 62
     3
100
AcDbLine
 10
150.2847778100168
 20
2105.619364344855
 30
0.0
 11
-58.82743774417395
 21
2415.640973164664
 31
0.0
  0
LINE
  5
7F
330
1F
100
AcDbEntity
  8
1
  6
Continuous
 62
     3
100
AcDbLine
 10
180.2390878695787
 20
2032.315121447064
 30
0.0
 11
523.0596190599135
 21
1879.681587048416
 31
0.0
  0
LINE
  5
80
330
1F
100
AcDbEntity
  8
1
  6
Continuous
 62
     3
100
AcDbLine
 10
338.1905764087223
 20
2052.298080839004
 30
0.0
 11
543.0527736467138
 21
1961.087554093318
 31
0.0
  0
LINE
  5
81
330
1F
100
AcDbEntity
  8
1
  6
Continuous
 62
     3
100
AcDbLine
 10
1006.492709481974
 20
2101.450875175602
 30
0.0
 11
1096.691900393973
 21
2145.500024447243
 31
0.0
  0
LINE
  5
82
330
1F
100
AcDbEntity
  8
1
  6
Continuous
 62
     3
100
AcDbLine
 10
1237.691499543784
 20
2152.651752160217
 30
0.0
 11
1354.735918290104
 21
2175.935060024999
 31
0.0
  0
LINE
  5
83
330
1F
100
AcDbEntity
  8
1
  6
Continuous
 62
     3
100
AcDbLine
 10
1323.937960184103
 20
2072.947077993326
 30
0.0
 11
1394.800796300544
 21
2087.043617129008
 31
0.0
  0
LINE
  5
84
330
1F
100
AcDbEntity
  8
1
  6
Continuous
 62
     3
100
AcDbLine
 10
714.3586109607331
 20
1782.153774197141
 30
0.0
 11
769.3842004497437
 21
1785.721704101552
 31
0.0
  0
LINE
  5
85
330
1F
100
AcDbEntity
  8
1
  6
Continuous
 62
     3
100
AcDbLine
 10
-47.25623266576076
 20
2376.586860497745
 30
0.0
 11
123.5070822143825
 21
2083.215601232599
 31
0.0
  0
LINE
  5
86
330
1F
100
AcDbEntity
  8
1
  6
Continuous
 62
     7
100
AcDbLine
 10
1026.073291551764
 20
1723.405984540624
 30
0.0
 11
1039.791147887683
 21
1776.090102870658
 31
0.0
  0
LINE
  5
87
330
1F
100
AcDbEntity
  8
1
  6
Continuous
 62
     1
100
AcDbLine
 10
1191.688145088674
 20
-2087.290786435268
 30
0.0
 11
758.0895617172537
 21
-2086.962909763838
 31
0.0
  0
LINE
  5
88
330
1F
100
AcDbEntity
  8
1
  6
Continuous
 62
     1
100
AcDbLine
 10
758.0895617172537
 20
-2086.962909763838
 30
0.0
 11
433.4631442875598
 21
-2077.244644660232
 31
0.0
  0
LINE
  5
89
330
1F
100
AcDbEntity
  8
1
  6
Continuous
 62
     7
100
AcDbLine
 10
424.7066670137484
 20
-2154.821369239726
 30
0.0
 11
420.6852422218134
 21
-2095.402809878937
 31
0.0
  0
LINE
  5
8A
330
1F
100
AcDbEntity
  8
1
  6
Continuous
 62
     1
100
AcDbLine
 10
758.0895617172537
 20
-1567.618663106697
 30
0.0
 11
1191.688145088674
 21
-1567.290786435267
 31
0.0
  0
LINE
  5
8B
330
1F
100
AcDbEntity
  8
1
  6
Continuous
 62
     1
100
AcDbLine
 10
433.4631442875598
 20
-1577.336928210303
 30
0.0
 11
758.0895617172537
 21
-1567.618663106697
 31
0.0
  0
LINE
  5
8C
330
1F
100
AcDbEntity
  8
1
  6
Continuous
 62
     7
100
AcDbLine
 10
420.6852422218134
 20
-1559.178762991598
 30
0.0
 11
424.7066670137484
 21
-1499.760203630809
 31
0.0
  0
LINE
  5
8D
330
1F
100
AcDbEntity
  8
1
  6
Continuous
 62
     3
100
AcDbLine
 10
9.63623006679659
 20
-1621.224221972482
 30
0.0
 11
174.2848251722389
 21
-1595.82199996011
 31
0.0
  0
LINE
  5
8E
330
1F
100
AcDbEntity
  8
1
  6
Continuous
 62
     3
100
AcDbLine
 10
174.2848251722389
 20
-1595.82199996011
 30
0.0
 11
418.8166339616986
 21
-1584.229479884496
 31
0.0
  0
LINE
  5
8F
330
1F
100
AcDbEntity
  8
1
  6
Continuous
 62
     3
100
AcDbLine
 10
174.2848251722389
 20
-2058.759572910425
 30
0.0
 11
9.6362300667966
 21
-2033.357350898053
 31
0.0
  0
LINE
  5
90
330
1F
100
AcDbEntity
  8
1
  6
Continuous
 62
     3
100
AcDbLine
 10
418.8166339616986
 20
-2070.352092986038
 30
0.0
 11
174.2848251722389
 21
-2058.759572910425
 31
0.0
  0
LINE
  5
91
330
1F
100
AcDbEntity
  8
1
  6
Continuous
 62
     3
100
AcDbLine
 10
1218.03626685346
 20
-1573.248214404206
 30
0.0
 11
1441.734516236619
 21
-1601.430306796554
 31
0.0
  0
LINE
  5
92
330
1F
100
AcDbEntity
  8
1
  6
Continuous
 62
     3
100
AcDbLine
 10
1441.734516236619
 20
-2053.15126607398
 30
0.0
 11
1218.03626685346
 21
-2081.333358466329
 31
0.0
  0
ARC
  5
93
330
1F
100
AcDbEntity
  8
1
  6
Continuous
 62
     1
100
AcDbCircle
 10
3605.278448582913
 20
2921.220026543833
 30
0.0
 40
828.0000000000013
100
AcDbArc
 50
-102.4779218525513
 51
-90.19030437120688
  0
ARC
  5
94
330
1F
100
AcDbEntity
  8
1
  6
Continuous
 62
     1
100
AcDbCircle
 10
3645.717679207703
 20
3150.312512976007
 30
0.0
 40
1006.493975607035
100
AcDbArc
 50
-101.7515388967636
 51
-92.30336112921538
  0
ARC
  5
95
330
1F
100
AcDbEntity
  8
1
  6
Continuous
 62
     1
100
AcDbCircle
 10
3669.717967198244
 20
3290.057546009462
 30
0.0
 40
1087.999999999999
100
AcDbArc
 50
-100.9165503336555
 51
-93.26692763876855
  0
ARC
  5
96
330
1F
100
AcDbEntity
  8
1
  6
Continuous
 62
     1
100
AcDbCircle
 10
3621.65727283529
 20
2798.655587876833
 30
0.0
 40
542.0000000000011
100
AcDbArc
 50
-104.5200723589773
 51
-91.30968201547447
  0
ARC
  5
97
330
1F
100
AcDbEntity
  8
1
  6
Continuous
 62
     1
100
AcDbCircle
 10
3619.124334175989
 20
2849.052637231799
 30
0.0
 40
541.0
100
AcDbArc
 50
-102.0632254343486
 51
-90.9451009232456
  0
ARC
  5
98
330
1F
100
AcDbEntity
  8
1
  6
Continuous
 62
     1
100
AcDbCircle
 10
4115.870239475495
 20
2921.220026543833
 30
0.0
 40
828.0000000000014
100
AcDbArc
 50
-89.80969562879309
 51
-77.52207814744857
  0
ARC
  5
99
330
1F
100
AcDbEntity
  8
1
  6
Continuous
 62
     1
100
AcDbCircle
 10
4075.431008850705
 20
3150.312512976007
 30
0.0
 40
1006.493975607037
100
AcDbArc
 50
-87.69663887078464
 51
-78.24846110323644
  0
ARC
  5
9A
330
1F
100
AcDbEntity
  8
1
  6
Continuous
 62
     1
100
AcDbCircle
 10
4051.430720860164
 20
3290.057546009462
 30
0.0
 40
1088.0
100
AcDbArc
 50
-86.73307236123144
 51
-79.08344966634451
  0
ARC
  5
9B
330
1F
100
AcDbEntity
  8
1
  6
Continuous
 62
     1
100
AcDbCircle
 10
4099.491415223118
 20
2798.655587876833
 30
0.0
 40
542.0000000000023
100
AcDbArc
 50
-88.69031798452549
 51
-75.47992764102267
  0
ARC
  5
9C
330
1F
100
AcDbEntity
  8
1
  6
Continuous
 62
     1
100
AcDbCircle
 10
4102.024353882419
 20
2849.052637231799
 30
0.0
 40
541.0000000000005
100
AcDbArc
 50
-89.05489907675445
 51
-77.93677456565148
  0
ARC
  5
9D
330
1F
100
AcDbEntity
  8
1
  6
Continuous
 62
     1
100
AcDbCircle
 10
3619.124334175989
 20
1219.509330985695
 30
0.0
 40
541.0000000000003
100
AcDbArc
 50
-102.0632254343486
 51
-90.9451009232456
  0
ARC
  5
9E
330
1F
100
AcDbEntity
  8
1
  6
Continuous
 62
     1
100
AcDbCircle
 10
3621.65727283529
 20
1169.112281630729
 30
0.0
 40
542.0000000000016
100
AcDbArc
 50
-104.5200723589773
 51
-91.30968201547447
  0
ARC
  5
9F
330
1F
100
AcDbEntity
  8
1
  6
Continuous
 62
     1
100
AcDbCircle
 10
3669.717967198244
 20
1660.514239763357
 30
0.0
 40
1087.999999999999
100
AcDbArc
 50
-100.9165503336555
 51
-93.26692763876855
  0
ARC
  5
A0
330
1F
100
AcDbEntity
  8
1
  6
Continuous
 62
     1
100
AcDbCircle
 10
3645.717679207703
 20
1520.769206729902
 30
0.0
 40
1006.493975607035
100
AcDbArc
 50
-101.7515388967636
 51
-92.30336112921538
  0
ARC
  5
A1
330
1F
100
AcDbEntity
  8
1
  6
Continuous
 62
     1
100
AcDbCircle
 10
3605.278448582913
 20
1291.676720297729
 30
0.0
 40
828.0000000000017
100
AcDbArc
 50
-102.4779218525513
 51
-90.19030437120688
  0
ARC
  5
A2
330
1F
100
AcDbEntity
  8
1
  6
Continuous
 62
     1
100
AcDbCircle
 10
4075.431008850705
 20
1520.769206729902
 30
0.0
 40
1006.493975607036
100
AcDbArc
 50
-87.69663887078463
 51
-78.24846110323644
  0
ARC
  5
A3
330
1F
100
AcDbEntity
  8
1
  6
Continuous
 62
     1
100
AcDbCircle
 10
4115.870239475495
 20
1291.676720297729
 30
0.0
 40
828.0000000000019
100
AcDbArc
 50
-89.80969562879309
 51
-77.52207814744858
  0
ARC
  5
A4
330
1F
100
AcDbEntity
  8
1
  6
Continuous
 62
     1
100
AcDbCircle
 10
4051.430720860164
 20
1660.514239763357
 30
0.0
 40
1087.999999999999
100
AcDbArc
 50
-86.73307236123144
 51
-79.08344966634449
  0
ARC
  5
A5
330
1F
100
AcDbEntity
  8
1
  6
Continuous
 62
     1
100
AcDbCircle
 10
4099.491415223118
 20
1169.112281630729
 30
0.0
 40
542.0000000000018
100
AcDbArc
 50
-88.69031798452549
 51
-75.47992764102268
  0
ARC
  5
A6
330
1F
100
AcDbEntity
  8
1
  6
Continuous
 62
     1
100
AcDbCircle
 10
4102.024353882419
 20
1219.509330985695
 30
0.0
 40
541.0000000000005
100
AcDbArc
 50
-89.05489907675445
 51
-77.93677456565149
  0
ARC
  5
A7
330
1F
100
AcDbEntity
  8
1
  6
Continuous
 62
     7
100
AcDbCircle
 10
3940.861135488855
 20
-1761.958207005738
 30
0.0
 40
3833.000000000883
100
AcDbArc
 50
87.01026961984232
 51
87.75747221131563
  0
ARC
  5
A8
330
1F
100
AcDbEntity
  8
1
  6
Continuous
 62
     7
100
AcDbCircle
 10
4154.448475925919
 20
2327.555769612564
 30
0.0
 40
262.0878033253673
100
AcDbArc
 50
-92.98973038015336
 51
-66.96195758318572
  0
ARC
  5
A9
330
1F
100
AcDbEntity
  8
1
  6
Continuous
 62
     7
100
AcDbCircle
 10
3780.287552569555
 20
-1761.958207005738
 30
0.0
 40
3833.000000000883
100
AcDbArc
 50
92.24252778868437
 51
92.98973038015765
  0
ARC
  5
AA
330
1F
100
AcDbEntity
  8
1
  6
Continuous
 62
     7
100
AcDbCircle
 10
3566.70021213249
 20
2327.555769612564
 30
0.0
 40
262.0878033253674
100
AcDbArc
 50
-113.0380424168142
 51
-87.01026961984596
  0
ARC
  5
AB
330
1F
100
AcDbEntity
  8
1
  6
Continuous
 62
     7
100
AcDbCircle
 10
3940.861135488855
 20
-3391.501513251842
 30
0.0
 40
3833.000000000883
100
AcDbArc
 50
87.01026961984232
 51
87.75747221131563
  0
ARC
  5
AC
330
1F
100
AcDbEntity
  8
1
  6
Continuous
 62
     7
100
AcDbCircle
 10
4154.448475925919
 20
698.0124633664597
 30
0.0
 40
262.0878033253673
100
AcDbArc
 50
-92.98973038015336
 51
-66.96195758318575
  0
ARC
  5
AD
330
1F
100
AcDbEntity
  8
1
  6
Continuous
 62
     7
100
AcDbCircle
 10
3780.287552569555
 20
-3391.501513251842
 30
0.0
 40
3833.000000000883
100
AcDbArc
 50
92.24252778868437
 51
92.98973038015765
  0
ARC
  5
AE
330
1F
100
AcDbEntity
  8
1
  6
Continuous
 62
     7
100
AcDbCircle
 10
3566.70021213249
 20
698.0124633664597
 30
0.0
 40
262.0878033253676
100
AcDbArc
 50
-113.0380424168142
 51
-87.01026961984596
  0
ARC
  5
AF
330
1F
100
AcDbEntity
  8
1
  6
Continuous
 62
     7
100
AcDbCircle
 10
3680.797093132351
 20
1636.319325364113
 30
0.0
 40
433.2664018304665
100
AcDbArc
 50
79.02969567170844
 51
99.22714849399628
  0
ARC
  5
B0
330
1F
100
AcDbEntity
  8
1
  6
Continuous
 62
     7
100
AcDbCircle
 10
3860.574344029204
 20
2563.75916538799
 30
0.0
 40
511.4369996684084
100
AcDbArc
 50
-100.970304328291
 51
-79.02969567170882
  0
ARC
  5
B1
330
1F
100
AcDbEntity
  8
1
  6
Continuous
 62
     7
100
AcDbCircle
 10
4040.351594926064
 20
1636.319325364079
 30
0.0
 40
433.2664018305016
100
AcDbArc
 50
80.77285150600415
 51
100.9703043282915
  0
ARC
  5
B2
330
1F
100
AcDbEntity
  8
1
  6
Continuous
 62
     7
100
AcDbCircle
 10
4040.351594926064
 20
6.77601911797451
 30
0.0
 40
433.2664018305019
100
AcDbArc
 50
80.77285150600416
 51
100.9703043282915
  0
ARC
  5
B3
330
1F
100
AcDbEntity
  8
1
  6
Continuous
 62
     7
100
AcDbCircle
 10
3860.574344029204
 20
934.2158591418852
 30
0.0
 40
511.4369996684079
100
AcDbArc
 50
-100.9703043282911
 51
-79.02969567170881
  0
ARC
  5
B4
330
1F
100
AcDbEntity
  8
1
  6
Continuous
 62
     7
100
AcDbCircle
 10
3680.797093132351
 20
6.77601911800898
 30
0.0
 40
433.2664018304663
100
AcDbArc
 50
79.02969567170842
 51
99.2271484939963
  0
ARC
  5
B5
330
1F
100
AcDbEntity
  8
0
  6
Continuous
 62
     7
100
AcDbCircle
 10
3851.813513426894
 20
3941.475107325061
 30
0.0
 40
2312.340323550403
100
AcDbArc
 50
-95.4137236729339
 51
-89.86192898435958
  0
ARC
  5
B6
330
1F
100
AcDbEntity
  8
0
  6
Continuous
 62
     7
100
AcDbCircle
 10
3863.856404173874
 20
4542.524398568943
 30
0.0
 40
1771.373730590388
100
AcDbArc
 50
-95.8150380180135
 51
-84.12296892280808
  0
ARC
  5
B7
330
1F
100
AcDbEntity
  8
0
  6
Continuous
 62
     7
100
AcDbCircle
 10
3869.335174631513
 20
3941.475107325061
 30
0.0
 40
2312.340323550404
100
AcDbArc
 50
-90.13807101564042
 51
-84.83738492525851
  0
ARC
  5
B8
330
1F
100
AcDbEntity
  8
5
  6
Continuous
 62
     5
100
AcDbCircle
 10
3551.074344029204
 20
1579.933285714138
 30
0.0
 40
3.000000000001969
100
AcDbArc
 50
99.02707396774231
 51
180.0
  0
ARC
  5
B9
330
1F
100
AcDbEntity
  8
5
  6
Continuous
 62
     5
100
AcDbCircle
 10
4170.074344029204
 20
1579.933285714138
 30
0.0
 40
3.0
100
AcDbArc
 50
0.0
 51
80.97292603224054
  0
ARC
  5
BA
330
1F
100
AcDbEntity
  8
5
  6
Continuous
 62
     5
100
AcDbCircle
 10
4170.074344029204
 20
-15.9730333901548
 30
0.0
 40
3.0
100
AcDbArc
 50
0.0
 51
80.97292603224054
  0
ARC
  5
BB
330
1F
100
AcDbEntity
  8
5
  6
Continuous
 62
     5
100
AcDbCircle
 10
3551.074344029204
 20
-15.9730333901548
 30
0.0
 40
3.00000000000197
100
AcDbArc
 50
99.02707396774231
 51
180.0
  0
ARC
  5
BC
330
1F
100
AcDbEntity
  8
0
  6
Continuous
 62
     7
100
AcDbCircle
 10
3869.335174631513
 20
2345.56878822077
 30
0.0
 40
2312.340323550404
100
AcDbArc
 50
-90.13807101564042
 51
-84.47315229013513
  0
ARC
  5
BD
330
1F
100
AcDbEntity
  8
0
  6
Continuous
 62
     7
100
AcDbCircle
 10
3863.856404173874
 20
2876.576121277299
 30
0.0
 40
1771.373730590389
100
AcDbArc
 50
-90.10615958605743
 51
-84.25136954145599
  0
ARC
  5
BE
330
1F
100
AcDbEntity
  8
1
  6
Continuous
 62
     7
100
AcDbCircle
 10
4094.375465152254
 20
330.677633131671
 30
0.0
 40
104.9024545050228
100
AcDbArc
 50
75.53756820877213
 51
81.53072974019908
  0
ARC
  5
BF
330
1F
100
AcDbEntity
  8
0
  6
Continuous
 62
     7
100
AcDbCircle
 10
3851.813513426894
 20
2345.56878822077
 30
0.0
 40
2312.340323550404
100
AcDbArc
 50
-95.5268477098646
 51
-89.86192898435958
  0
ARC
  5
C0
330
1F
100
AcDbEntity
  8
1
  6
Continuous
 62
     7
100
AcDbCircle
 10
4090.589467581644
 20
58.98619997465903
 30
0.0
 40
15.07817154877816
100
AcDbArc
 50
-84.47315229013306
 51
-10.63411909485257
  0
ARC
  5
C1
330
1F
100
AcDbEntity
  8
1
  6
Continuous
 62
     3
100
AcDbCircle
 10
294.2340863289264
 20
11857.29619329614
 30
0.0
 40
11418.21809629678
100
AcDbArc
 50
-90.47935926473276
 51
-88.73670227872439
  0
ARC
  5
C2
330
1F
100
AcDbEntity
  8
1
  6
Continuous
 62
     3
100
AcDbCircle
 10
294.2340863289264
 20
13497.4322786504
 30
0.0
 40
11418.21809629678
100
AcDbArc
 50
-90.47935926473276
 51
-88.73670227872439
  0
ARC
  5
C3
330
1F
100
AcDbEntity
  8
1
  6
Continuous
 62
     3
100
AcDbCircle
 10
711.0237200855645
 20
193.4492867723452
 30
0.0
 40
51.53960382781079
100
AcDbArc
 50
-124.3195792873937
 51
-86.29006158702994
  0
ARC
  5
C4
330
1F
100
AcDbEntity
  8
1
  6
Continuous
 62
     3
100
AcDbCircle
 10
1442.527846714453
 20
-163.3364456351319
 30
0.0
 40
607.8283716216022
100
AcDbArc
 50
101.2508124923625
 51
110.8044388485461
  0
ARC
  5
C5
330
1F
100
AcDbEntity
  8
1
  6
Continuous
 62
     3
100
AcDbCircle
 10
904.1756203556743
 20
4463.007470991252
 30
0.0
 40
3991.000000000004
100
AcDbArc
 50
-86.16836409255642
 51
-81.75111542432867
  0
ARC
  5
C6
330
1F
100
AcDbEntity
  8
1
  6
Continuous
 62
     3
100
AcDbCircle
 10
1412.834570291903
 20
449.9630851196193
 30
0.0
 40
89.99999999999882
100
AcDbArc
 50
44.72600602206244
 51
85.62258943541877
  0
ARC
  5
C7
330
1F
100
AcDbEntity
  8
1
  6
Continuous
 62
     3
100
AcDbCircle
 10
1398.841306982924
 20
535.7145408039746
 30
0.0
 40
81.09631157770529
100
AcDbArc
 50
-53.10650646966305
 51
-16.04684608824436
  0
ARC
  5
C8
330
1F
100
AcDbEntity
  8
1
  6
Continuous
 62
     3
100
AcDbCircle
 10
1370.022559066943
 20
571.466911026539
 30
0.0
 40
126.9999999999849
100
AcDbArc
 50
-78.74918750763681
 51
-52.39156467866115
  0
ARC
  5
C9
330
1F
100
AcDbEntity
  8
1
  6
Continuous
 62
     3
100
AcDbCircle
 10
1401.434962343963
 20
301.0444243707584
 30
0.0
 40
239.3543390082765
100
AcDbArc
 50
85.62258943542085
 51
101.2508124923641
  0
ARC
  5
CA
330
1F
100
AcDbEntity
  8
1
  6
Continuous
 62
     3
100
AcDbCircle
 10
1194.768568902884
 20
728.2878198406183
 30
0.0
 40
220.0000000000344
100
AcDbArc
 50
-101.2512180754523
 51
-78.74918750763587
  0
ARC
  5
CB
330
1F
100
AcDbEntity
  8
1
  6
Continuous
 62
     3
100
AcDbCircle
 10
1134.869438820944
 20
427.188012109908
 30
0.0
 40
87.00000000003705
100
AcDbArc
 50
78.74878192454592
 51
116.0287621385185
  0
ARC
  5
CC
330
1F
100
AcDbEntity
  8
1
  6
Continuous
 62
     3
100
AcDbCircle
 10
1110.301433488423
 20
395.1302691099104
 30
0.0
 40
105.0252621650048
100
AcDbArc
 50
54.77855540950242
 51
116.0287621385285
  0
ARC
  5
CD
330
1F
100
AcDbEntity
  8
1
  6
Continuous
 62
     3
100
AcDbCircle
 10
1176.965659499214
 20
-176.7052072654878
 30
0.0
 40
648.1154288048253
100
AcDbArc
 50
93.50997798928029
 51
116.555483633358
  0
ARC
  5
CE
330
1F
100
AcDbEntity
  8
1
  6
Continuous
 62
     3
100
AcDbCircle
 10
294.2340863289264
 20
11857.29619329614
 30
0.0
 40
11418.21809629678
100
AcDbArc
 50
-87.82018856470359
 51
-85.79244594612251
  0
ARC
  5
CF
330
1F
100
AcDbEntity
  8
1
  6
Continuous
 62
     3
100
AcDbCircle
 10
1132.890470757653
 20
541.8640955620626
 30
0.0
 40
71.80433424427729
100
AcDbArc
 50
-86.49002201049699
 51
-58.06345745548374
  0
ARC
  5
D0
330
1F
100
AcDbEntity
  8
1
  6
Continuous
 62
     3
100
AcDbCircle
 10
841.7100145360437
 20
243.2576884277214
 30
0.0
 40
405.9999999999925
100
AcDbArc
 50
29.74197150414556
 51
35.8309700061753
  0
ARC
  5
D1
330
1F
100
AcDbEntity
  8
1
  6
Continuous
 62
     3
100
AcDbCircle
 10
630.9078885510844
 20
518.2772875898786
 30
0.0
 40
216.0000000000164
100
AcDbArc
 50
-113.9999999999974
 51
-92.88426018897812
  0
ARC
  5
D2
330
1F
100
AcDbEntity
  8
1
  6
Continuous
 62
     3
100
AcDbCircle
 10
-1266.264746951265
 20
-287.7618718582426
 30
0.0
 40
1997.000000000006
100
AcDbArc
 50
12.68857244275719
 51
14.54581584303584
  0
ARC
  5
D3
330
1F
100
AcDbEntity
  8
1
  6
Continuous
 62
     3
100
AcDbCircle
 10
111.5739050472839
 20
-684.6665439144608
 30
0.0
 40
1011.676034155476
100
AcDbArc
 50
55.68042071260949
 51
66.00000000000038
  0
ARC
  5
D4
330
1F
100
AcDbEntity
  8
1
  6
Continuous
 62
     3
100
AcDbCircle
 10
210.1425388643947
 20
124.5613943339013
 30
0.0
 40
314.8180517398573
100
AcDbArc
 50
87.78117923466614
 51
89.58935334801217
  0
ARC
  5
D5
330
1F
100
AcDbEntity
  8
1
  6
Continuous
 62
     3
100
AcDbCircle
 10
415.9618014166026
 20
223.2565618093372
 30
0.0
 40
290.0000000000351
100
AcDbArc
 50
131.8892001469785
 51
144.3740417996029
  0
ARC
  5
D6
330
1F
100
AcDbEntity
  8
1
  6
Continuous
 62
     3
100
AcDbCircle
 10
-218.8148378320639
 20
2308.243327664973
 30
0.0
 40
1904.265476434871
100
AcDbArc
 50
-78.0867114645168
 51
-76.15018177406476
  0
ARC
  5
D7
330
1F
100
AcDbEntity
  8
1
  6
Continuous
 62
     3
100
AcDbCircle
 10
199.1979945907533
 20
498.475660295358
 30
0.0
 40
58.99999999998551
100
AcDbArc
 50
-146.0000000000018
 51
-90.47793469227604
  0
ARC
  5
D8
330
1F
100
AcDbEntity
  8
1
  6
Continuous
 62
     3
100
AcDbCircle
 10
230.6744316109725
 20
505.4586728404743
 30
0.0
 40
123.9999999999866
100
AcDbArc
 50
-150.4911253549508
 51
-113.9999999999998
  0
ARC
  5
D9
330
1F
100
AcDbEntity
  8
1
  6
Continuous
 62
     3
100
AcDbCircle
 10
367.7928692061214
 20
675.9251840424281
 30
0.0
 40
252.9999999999617
100
AcDbArc
 50
-145.9999999999978
 51
-113.9999999999969
  0
ARC
  5
DA
330
1F
100
AcDbEntity
  8
1
  6
Continuous
 62
     3
100
AcDbCircle
 10
-723.3678846535204
 20
50.34052965898218
 30
0.0
 40
1001.43576189858
100
AcDbArc
 50
34.00000000000469
 51
40.41710367047858
  0
ARC
  5
DB
330
1F
100
AcDbEntity
  8
1
  6
Continuous
 62
     3
100
AcDbCircle
 10
-31.73504132490052
 20
639.3223150520603
 30
0.0
 40
93.00000000032871
100
AcDbArc
 50
40.41710367052656
 51
88.73701476595544
  0
ARC
  5
DC
330
1F
100
AcDbEntity
  8
1
  6
Continuous
 62
     3
100
AcDbCircle
 10
56.21176237973486
 20
736.5085724215655
 30
0.0
 40
85.99999999922834
100
AcDbArc
 50
-177.1948166403606
 51
-149.4979074411061
  0
ARC
  5
DD
330
1F
100
AcDbEntity
  8
1
  6
Continuous
 62
     7
100
AcDbCircle
 10
962.5637404575937
 20
243.4661523568634
 30
0.0
 40
224.0000000000373
100
AcDbArc
 50
-63.18352671459537
 51
-50.41243181200202
  0
ARC
  5
DE
330
1F
100
AcDbEntity
  8
1
  6
Continuous
 62
     7
100
AcDbCircle
 10
1054.034625578404
 20
132.8479863243761
 30
0.0
 40
80.46149826208618
100
AcDbArc
 50
-50.4124318119923
 51
-16.53135828023313
  0
ARC
  5
DF
330
1F
100
AcDbEntity
  8
1
  6
Continuous
 62
     7
100
AcDbCircle
 10
1185.680200608123
 20
137.9808213775373
 30
0.0
 40
154.3220125034975
100
AcDbArc
 50
-158.348518871292
 51
-142.2752374566585
  0
ARC
  5
E0
330
1F
100
AcDbEntity
  8
1
  6
Continuous
 62
     7
100
AcDbCircle
 10
1120.345088816914
 20
112.0448894135552
 30
0.0
 40
84.02728012894463
100
AcDbArc
 50
163.4686417197791
 51
-158.3485188713224
  0
ARC
  5
E1
330
1F
100
AcDbEntity
  8
1
  6
Continuous
 62
     7
100
AcDbCircle
 10
1051.608389392164
 20
235.5138645359411
 30
0.0
 40
17.0000000000006
100
AcDbArc
 50
-16.53135828021778
 51
117.4886601685173
  0
ARC
  5
E2
330
1F
100
AcDbEntity
  8
1
  6
Continuous
 62
     7
100
AcDbCircle
 10
821.3331542808028
 20
201.1072516369704
 30
0.0
 40
58.76666032185965
100
AcDbArc
 50
-93.70993841289825
 51
-62.51133983145984
  0
ARC
  5
E3
330
1F
100
AcDbEntity
  8
1
  6
Continuous
 62
     7
100
AcDbCircle
 10
1405.017377672593
 20
196.153948302192
 30
0.0
 40
238.0000000002291
100
AcDbArc
 50
142.7336473347192
 51
163.4686417197632
  0
ARC
  5
E4
330
1F
100
AcDbEntity
  8
1
  6
Continuous
 62
     7
100
AcDbCircle
 10
880.6719821684237
 20
1100.673837658048
 30
0.0
 40
698.9670414661438
100
AcDbArc
 50
-81.86916685325073
 51
-68.77961383172097
  0
ARC
  5
E5
330
1F
100
AcDbEntity
  8
1
  6
Continuous
 62
     7
100
AcDbCircle
 10
1159.285027053704
 20
383.1238816661385
 30
0.0
 40
70.77523236597973
100
AcDbArc
 50
60.41575014720893
 51
111.2203861682707
  0
ARC
  5
E6
330
1F
100
AcDbEntity
  8
1
  6
Continuous
 62
     7
100
AcDbCircle
 10
984.5853193013645
 20
302.8166829041779
 30
0.0
 40
324.9999999995152
100
AcDbArc
 50
-158.0479127354169
 51
-151.9999999999951
  0
ARC
  5
E7
330
1F
100
AcDbEntity
  8
1
  6
Continuous
 62
     7
100
AcDbCircle
 10
151.0773614400077
 20
936.0546038571069
 30
0.0
 40
318.9999999966962
100
AcDbArc
 50
26.38013640727845
 51
33.97410832831696
  0
ARC
  5
E8
330
1F
100
AcDbEntity
  8
1
  6
Continuous
 62
     7
100
AcDbCircle
 10
291.728300640978
 20
1005.813569596572
 30
0.0
 40
161.9999999993896
100
AcDbArc
 50
-3.51855645796452
 51
26.38013640744327
  0
ARC
  5
E9
330
1F
100
AcDbEntity
  8
1
  6
Continuous
 62
     7
100
AcDbCircle
 10
516.7951799193543
 20
1030.944620365249
 30
0.0
 40
131.1002844955606
100
AcDbArc
 50
140.5096526139213
 51
173.4042647723545
  0
ARC
  5
EA
330
1F
100
AcDbEntity
  8
1
  6
Continuous
 62
     7
100
AcDbCircle
 10
946.399480027143
 20
921.3214360034231
 30
0.0
 40
521.6542981590561
100
AcDbArc
 50
-96.51438267980134
 51
-75.34025508866006
  0
ARC
  5
EB
330
1F
100
AcDbEntity
  8
1
  6
Continuous
 62
     1
100
AcDbCircle
 10
2074.085178148884
 20
-3732.727372286654
 30
0.0
 40
4251.139755099253
100
AcDbArc
 50
103.2411959591268
 51
107.3508231401987
  0
ARC
  5
EC
330
1F
100
AcDbEntity
  8
1
  6
Continuous
 62
     7
100
AcDbCircle
 10
1277.728148419734
 20
1202.465429859587
 30
0.0
 40
956.1892585249694
100
AcDbArc
 50
-151.9999999999988
 51
-139.6842269531671
  0
ARC
  5
ED
330
1F
100
AcDbEntity
  8
1
  6
Continuous
 62
     1
100
AcDbCircle
 10
3925.324433032874
 20
2409.258499716209
 30
0.0
 40
3867.064685550437
100
AcDbArc
 50
-153.9315694515303
 51
-148.5737281580356
  0
ARC
  5
EE
330
1F
100
AcDbEntity
  8
1
  6
Continuous
 62
     1
100
AcDbCircle
 10
759.4824249462436
 20
474.8272264985576
 30
0.0
 40
157.0000000000017
100
AcDbArc
 50
-148.5737281580352
 51
-72.64917685979964
  0
ARC
  5
EF
330
1F
100
AcDbEntity
  8
1
  6
Continuous
 62
     1
100
AcDbCircle
 10
496.4575419796329
 20
842.4838849889261
 30
0.0
 40
97.36715875274055
100
AcDbArc
 50
176.4814435420538
 51
-151.9999999999813
  0
ARC
  5
F0
330
1F
100
AcDbEntity
  8
1
  6
Continuous
 62
     1
100
AcDbCircle
 10
25.46445703574682
 20
487.4342777916486
 30
0.0
 40
752.0000000000224
100
AcDbArc
 50
-26.64099512306812
 51
-13.03422687760079
  0
ARC
  5
F1
330
1F
100
AcDbEntity
  8
1
  6
Continuous
 62
     1
100
AcDbCircle
 10
466.0942966213534
 20
915.77313222357
 30
0.0
 40
168.0000000000018
100
AcDbArc
 50
-100.664548784099
 51
-85.4175799575261
  0
ARC
  5
F2
330
1F
100
AcDbEntity
  8
1
  6
Continuous
 62
     7
100
AcDbCircle
 10
900.0690560937128
 20
911.2101486599072
 30
0.0
 40
450.9999999999685
100
AcDbArc
 50
176.4814435420621
 51
-152.0000000000003
  0
ARC
  5
F3
330
1F
100
AcDbEntity
  8
1
  6
Continuous
 62
     7
100
AcDbCircle
 10
484.664549770065
 20
101.3217097914163
 30
0.0
 40
213.9999999990741
100
AcDbArc
 50
21.95208726453435
 51
27.99999999996231
  0
ARC
  5
F4
330
1F
100
AcDbEntity
  8
1
  6
Continuous
 62
     7
100
AcDbCircle
 10
650.9657986044531
 20
851.4517295131041
 30
0.0
 40
285.0000000000381
100
AcDbArc
 50
173.4042647724211
 51
-152.0000000000016
  0
ARC
  5
F5
330
1F
100
AcDbEntity
  8
1
  6
Continuous
 62
     1
100
AcDbCircle
 10
336.9756995070948
 20
827.1347778338882
 30
0.0
 40
164.0000000000043
100
AcDbArc
 50
-60.72369402661505
 51
-45.63110959766903
  0
ARC
  5
F6
330
1F
100
AcDbEntity
  8
1
  6
Continuous
 62
     1
100
AcDbCircle
 10
2982.382181942503
 20
-456.0506444471648
 30
0.0
 40
1982.741426420311
100
AcDbArc
 50
154.8557462016162
 51
165.4054269436697
  0
ARC
  5
F7
330
1F
100
AcDbEntity
  8
1
  6
Continuous
 62
     1
100
AcDbCircle
 10
1172.134477084424
 20
393.6369567319221
 30
0.0
 40
16.99999999996795
100
AcDbArc
 50
-25.14425379846028
 51
84.83378329517629
  0
ARC
  5
F8
330
1F
100
AcDbEntity
  8
1
  6
Continuous
 62
     1
100
AcDbCircle
 10
1152.978803358694
 20
181.7675537713762
 30
0.0
 40
229.7335980674669
100
AcDbArc
 50
84.8337832950478
 51
103.2411959591269
  0
ARC
  5
F9
330
1F
100
AcDbEntity
  8
1
  6
Continuous
 62
     7
100
AcDbCircle
 10
1160.688877096454
 20
395.4428558322366
 30
0.0
 40
31.00000000002808
100
AcDbArc
 50
50.37809708283584
 51
69.82717024904279
  0
ARC
  5
FA
330
1F
100
AcDbEntity
  8
1
  6
Continuous
 62
     7
100
AcDbCircle
 10
1140.794122749434
 20
341.2912685003962
 30
0.0
 40
88.69051621444736
100
AcDbArc
 50
69.82717024786321
 51
104.6597449113413
  0
ARC
  5
FB
330
1F
100
AcDbEntity
  8
1
  6
Continuous
 62
     1
100
AcDbCircle
 10
1148.473940045384
 20
464.0650403576015
 30
0.0
 40
55.00000000011549
100
AcDbArc
 50
-54.44169592929746
 51
-23.82356475147043
  0
ARC
  5
FC
330
1F
100
AcDbEntity
  8
1
  6
Continuous
 62
     1
100
AcDbCircle
 10
798.8311981335228
 20
601.0161907123152
 30
0.0
 40
443.9999999999849
100
AcDbArc
 50
-53.14039745497654
 51
-28.90370489282699
  0
ARC
  5
FD
330
1F
100
AcDbEntity
  8
5
  6
Continuous
 62
     5
100
AcDbCircle
 10
1078.884200449744
 20
-15.9730333901548
 30
0.0
 40
3.0
100
AcDbArc
 50
0.0
 51
80.9729260322577
  0
ARC
  5
FE
330
1F
100
AcDbEntity
  8
5
  6
Continuous
 62
     5
100
AcDbCircle
 10
459.8842004497437
 20
-15.9730333901548
 30
0.0
 40
3.000000000000172
100
AcDbArc
 50
99.02707396774777
 51
180.0
  0
ARC
  5
107
330
1F
100
AcDbEntity
  8
5
  6
Continuous
 62
     5
100
AcDbCircle
 10
459.8842004497437
 20
1579.933285714138
 30
0.0
 40
2.999999999999049
100
AcDbArc
 50
99.02707396775118
 51
180.0
  0
ARC
  5
108
330
1F
100
AcDbEntity
  8
5
  6
Continuous
 62
     5
100
AcDbCircle
 10
1078.884200449744
 20
1579.933285714138
 30
0.0
 40
3.0
100
AcDbArc
 50
0.0
 51
80.97292603225769
  0
ARC
  5
109
330
1F
100
AcDbEntity
  8
1
  6
Continuous
 62
     1
100
AcDbCircle
 10
798.8311981335228
 20
2241.152276066576
 30
0.0
 40
443.9999999999859
100
AcDbArc
 50
-53.14039745497663
 51
-28.90370489282694
  0
ARC
  5
10A
330
1F
100
AcDbEntity
  8
1
  6
Continuous
 62
     1
100
AcDbCircle
 10
1148.473940045384
 20
2104.201125711862
 30
0.0
 40
55.00000000011651
100
AcDbArc
 50
-54.44169592929821
 51
-23.82356475147125
  0
ARC
  5
10B
330
1F
100
AcDbEntity
  8
1
  6
Continuous
 62
     7
100
AcDbCircle
 10
1140.794122749434
 20
1981.427353854657
 30
0.0
 40
88.69051621444629
100
AcDbArc
 50
69.82717024786297
 51
104.6597449113412
  0
ARC
  5
10C
330
1F
100
AcDbEntity
  8
1
  6
Continuous
 62
     7
100
AcDbCircle
 10
1160.688877096454
 20
2035.578941186498
 30
0.0
 40
31.00000000002604
100
AcDbArc
 50
50.37809708283546
 51
69.82717024904166
  0
ARC
  5
10D
330
1F
100
AcDbEntity
  8
1
  6
Continuous
 62
     1
100
AcDbCircle
 10
1152.978803358694
 20
1821.903639125636
 30
0.0
 40
229.7335980674687
100
AcDbArc
 50
84.83378329504784
 51
103.2411959591269
  0
ARC
  5
10E
330
1F
100
AcDbEntity
  8
1
  6
Continuous
 62
     1
100
AcDbCircle
 10
1172.134477084424
 20
2033.773042086183
 30
0.0
 40
16.99999999996771
100
AcDbArc
 50
-25.14425379845855
 51
84.83378329517645
  0
ARC
  5
10F
330
1F
100
AcDbEntity
  8
1
  6
Continuous
 62
     1
100
AcDbCircle
 10
2983.983190858773
 20
1179.859229738979
 30
0.0
 40
1986.004331412868
100
AcDbArc
 50
154.4837047582304
 51
166.8698374213911
  0
ARC
  5
110
330
1F
100
AcDbEntity
  8
1
  6
Continuous
 62
     1
100
AcDbCircle
 10
336.9756995070948
 20
2467.270863188149
 30
0.0
 40
164.0000000000047
100
AcDbArc
 50
-60.72369402661513
 51
-45.63110959766925
  0
ARC
  5
111
330
1F
100
AcDbEntity
  8
1
  6
Continuous
 62
     7
100
AcDbCircle
 10
650.9657986044531
 20
2491.587814867364
 30
0.0
 40
285.0000000000381
100
AcDbArc
 50
173.4042647724209
 51
-152.0000000000018
  0
ARC
  5
112
330
1F
100
AcDbEntity
  8
1
  6
Continuous
 62
     7
100
AcDbCircle
 10
484.6645497700822
 20
1741.457795145678
 30
0.0
 40
213.9999999990581
100
AcDbArc
 50
21.9520872645361
 51
27.99999999996423
  0
ARC
  5
113
330
1F
100
AcDbEntity
  8
1
  6
Continuous
 62
     7
100
AcDbCircle
 10
900.0690560937128
 20
2551.346234014167
 30
0.0
 40
450.9999999999686
100
AcDbArc
 50
176.4814435420618
 51
-152.0000000000004
  0
ARC
  5
114
330
1F
100
AcDbEntity
  8
1
  6
Continuous
 62
     1
100
AcDbCircle
 10
466.0942966213534
 20
2555.90921757783
 30
0.0
 40
168.0000000000009
100
AcDbArc
 50
-100.664548784099
 51
-85.4175799575261
  0
ARC
  5
115
330
1F
100
AcDbEntity
  8
1
  6
Continuous
 62
     1
100
AcDbCircle
 10
25.46445703574682
 20
2127.57036314591
 30
0.0
 40
752.0000000000232
100
AcDbArc
 50
-26.64099512306825
 51
-13.03422687760079
  0
ARC
  5
116
330
1F
100
AcDbEntity
  8
1
  6
Continuous
 62
     1
100
AcDbCircle
 10
496.4575419796329
 20
2482.619970343187
 30
0.0
 40
97.36715875274049
100
AcDbArc
 50
176.4814435420543
 51
-151.9999999999811
  0
ARC
  5
117
330
1F
100
AcDbEntity
  8
1
  6
Continuous
 62
     1
100
AcDbCircle
 10
759.4824249462436
 20
2114.963311852817
 30
0.0
 40
157.0000000000012
100
AcDbArc
 50
-148.5737281580355
 51
-72.64917685979944
  0
ARC
  5
118
330
1F
100
AcDbEntity
  8
1
  6
Continuous
 62
     1
100
AcDbCircle
 10
3925.324433032874
 20
4049.39458507047
 30
0.0
 40
3867.064685550435
100
AcDbArc
 50
-155.3559788218369
 51
-148.5737281580356
  0
ARC
  5
119
330
1F
100
AcDbEntity
  8
1
  6
Continuous
 62
     7
100
AcDbCircle
 10
1277.728148419734
 20
2842.601515213847
 30
0.0
 40
956.1892585249694
100
AcDbArc
 50
-151.9999999999988
 51
-139.684226953167
  0
ARC
  5
11A
330
1F
100
AcDbEntity
  8
1
  6
Continuous
 62
     1
100
AcDbCircle
 10
2074.085178148884
 20
-2092.591286932393
 30
0.0
 40
4251.139755099253
100
AcDbArc
 50
103.2411959591268
 51
107.3508231401987
  0
ARC
  5
11B
330
1F
100
AcDbEntity
  8
1
  6
Continuous
 62
     7
100
AcDbCircle
 10
946.399480027143
 20
2561.457521357683
 30
0.0
 40
521.6542981590552
100
AcDbArc
 50
-96.51438267980136
 51
-75.34025508866007
  0
ARC
  5
11C
330
1F
100
AcDbEntity
  8
1
  6
Continuous
 62
     7
100
AcDbCircle
 10
518.391778008614
 20
2697.046839497418
 30
0.0
 40
131.1002844955632
100
AcDbArc
 50
140.5096526139224
 51
165.0338670382383
  0
ARC
  5
11D
330
1F
100
AcDbEntity
  8
1
  6
Continuous
 62
     7
100
AcDbCircle
 10
293.3248987302341
 20
2671.915788728741
 30
0.0
 40
161.9999999993884
100
AcDbArc
 50
-3.51855645793715
 51
26.38013640744321
  0
ARC
  5
11E
330
1F
100
AcDbEntity
  8
1
  6
Continuous
 62
     7
100
AcDbCircle
 10
152.6739595292638
 20
2602.156822989277
 30
0.0
 40
318.9999999966956
100
AcDbArc
 50
26.38013640727827
 51
33.97410832831682
  0
ARC
  5
11F
330
1F
100
AcDbEntity
  8
1
  6
Continuous
 62
     7
100
AcDbCircle
 10
984.5853193013645
 20
1942.952768258438
 30
0.0
 40
324.9999999995146
100
AcDbArc
 50
-158.0479127354172
 51
-151.9999999999951
  0
ARC
  5
120
330
1F
100
AcDbEntity
  8
1
  6
Continuous
 62
     7
100
AcDbCircle
 10
1159.285027053704
 20
2023.259967020399
 30
0.0
 40
70.77523236597094
100
AcDbArc
 50
56.07266423293713
 51
111.2203861682707
  0
ARC
  5
121
330
1F
100
AcDbEntity
  8
1
  6
Continuous
 62
     7
100
AcDbCircle
 10
880.6719821684237
 20
2740.809923012308
 30
0.0
 40
698.9670414661433
100
AcDbArc
 50
-81.86916685325073
 51
-68.77961383172095
  0
ARC
  5
122
330
1F
100
AcDbEntity
  8
1
  6
Continuous
 62
     7
100
AcDbCircle
 10
1405.017377672593
 20
1836.290033656453
 30
0.0
 40
238.0000000002281
100
AcDbArc
 50
142.7336473347195
 51
163.4686417197632
  0
ARC
  5
123
330
1F
100
AcDbEntity
  8
1
  6
Continuous
 62
     7
100
AcDbCircle
 10
821.3331542808028
 20
1841.243336991231
 30
0.0
 40
58.76666032185835
100
AcDbArc
 50
-93.70993841289833
 51
-62.51133983145924
  0
ARC
  5
124
330
1F
100
AcDbEntity
  8
1
  6
Continuous
 62
     7
100
AcDbCircle
 10
1051.608389392164
 20
1875.649949890203
 30
0.0
 40
17.00000000000126
100
AcDbArc
 50
-16.53135828022531
 51
117.4886601685192
  0
ARC
  5
125
330
1F
100
AcDbEntity
  8
1
  6
Continuous
 62
     7
100
AcDbCircle
 10
1106.627232480994
 20
1699.496856437781
 30
0.0
 40
84.02728012894414
100
AcDbArc
 50
163.468641719778
 51
-158.3485188713229
  0
ARC
  5
126
330
1F
100
AcDbEntity
  8
1
  6
Continuous
 62
     7
100
AcDbCircle
 10
1171.962344272213
 20
1725.432788401763
 30
0.0
 40
154.3220125035062
100
AcDbArc
 50
-158.3485188712937
 51
-142.2752374566607
  0
ARC
  5
127
330
1F
100
AcDbEntity
  8
1
  6
Continuous
 62
     7
100
AcDbCircle
 10
1040.316769242494
 20
1720.299953348603
 30
0.0
 40
80.46149826208574
100
AcDbArc
 50
-50.41243181199287
 51
-4.25485209183038
  0
ARC
  5
128
330
1F
100
AcDbEntity
  8
1
  6
Continuous
 62
     7
100
AcDbCircle
 10
948.8458841216834
 20
1830.918119381091
 30
0.0
 40
224.0000000000347
100
AcDbArc
 50
-63.18352671459758
 51
-50.4124318120023
  0
ARC
  5
129
330
1F
100
AcDbEntity
  8
1
  6
Continuous
 62
     3
100
AcDbCircle
 10
27.06950965708893
 20
2419.849824196947
 30
0.0
 40
85.99999999922831
100
AcDbArc
 50
-177.1948166403612
 51
-149.7974960101651
  0
ARC
  5
12A
330
1F
100
AcDbEntity
  8
1
  6
Continuous
 62
     3
100
AcDbCircle
 10
-60.87729404754646
 20
2322.663566827442
 30
0.0
 40
93.00000000033222
100
AcDbArc
 50
37.89514354325799
 51
88.73701476595545
  0
ARC
  5
12B
330
1F
100
AcDbEntity
  8
1
  6
Continuous
 62
     3
100
AcDbCircle
 10
367.7928692061214
 20
2316.061269396689
 30
0.0
 40
252.9999999999638
100
AcDbArc
 50
-121.1227398059965
 51
-113.9999999999969
  0
ARC
  5
12C
330
1F
100
AcDbEntity
  8
1
  6
Continuous
 62
     3
100
AcDbCircle
 10
199.1979945907533
 20
2138.611745649618
 30
0.0
 40
58.99999999998475
100
AcDbArc
 50
-146.0000000000029
 51
-90.47793469227605
  0
ARC
  5
12D
330
1F
100
AcDbEntity
  8
1
  6
Continuous
 62
     3
100
AcDbCircle
 10
-218.8148378320639
 20
3948.379413019233
 30
0.0
 40
1904.265476434869
100
AcDbArc
 50
-78.08671146451678
 51
-76.15018177406475
  0
ARC
  5
12E
330
1F
100
AcDbEntity
  8
1
  6
Continuous
 62
     3
100
AcDbCircle
 10
415.9618014166026
 20
1863.392647163597
 30
0.0
 40
290.0000000000359
100
AcDbArc
 50
131.8892001469784
 51
144.3740417996027
  0
ARC
  5
12F
330
1F
100
AcDbEntity
  8
1
  6
Continuous
 62
     3
100
AcDbCircle
 10
230.6744316109725
 20
2145.594758194735
 30
0.0
 40
123.9999999999902
100
AcDbArc
 50
-149.7974960101654
 51
-113.9999999999999
  0
ARC
  5
130
330
1F
100
AcDbEntity
  8
1
  6
Continuous
 62
     3
100
AcDbCircle
 10
210.1425388643947
 20
1764.697479688161
 30
0.0
 40
314.8180517398587
100
AcDbArc
 50
87.78117923466616
 51
89.58935334801217
  0
ARC
  5
131
330
1F
100
AcDbEntity
  8
1
  6
Continuous
 62
     3
100
AcDbCircle
 10
111.5739050472839
 20
955.4695414398007
 30
0.0
 40
1011.676034155475
100
AcDbArc
 50
55.68042071260943
 51
66.00000000000037
  0
ARC
  5
132
330
1F
100
AcDbEntity
  8
1
  6
Continuous
 62
     3
100
AcDbCircle
 10
630.9078885510844
 20
2158.41337294414
 30
0.0
 40
216.0000000000176
100
AcDbArc
 50
-113.9999999999973
 51
-92.8842601889781
  0
ARC
  5
133
330
1F
100
AcDbEntity
  8
1
  6
Continuous
 62
     3
100
AcDbCircle
 10
-1266.264746951265
 20
1352.374213496018
 30
0.0
 40
1997.000000000005
100
AcDbArc
 50
12.68857244275716
 51
14.60112121867164
  0
ARC
  5
134
330
1F
100
AcDbEntity
  8
1
  6
Continuous
 62
     3
100
AcDbCircle
 10
841.7100145360437
 20
1883.393773781982
 30
0.0
 40
405.9999999999929
100
AcDbArc
 50
29.74197150414566
 51
35.83097000617531
  0
ARC
  5
135
330
1F
100
AcDbEntity
  8
1
  6
Continuous
 62
     3
100
AcDbCircle
 10
1132.890470757653
 20
2182.000180916324
 30
0.0
 40
71.80433424427723
100
AcDbArc
 50
-86.49002201049699
 51
-58.06345745548411
  0
ARC
  5
136
330
1F
100
AcDbEntity
  8
1
  6
Continuous
 62
     3
100
AcDbCircle
 10
294.2340863289264
 20
13497.4322786504
 30
0.0
 40
11418.21809629678
100
AcDbArc
 50
-87.82018856470364
 51
-85.79244594612251
  0
ARC
  5
137
330
1F
100
AcDbEntity
  8
1
  6
Continuous
 62
     3
100
AcDbCircle
 10
1176.965659499214
 20
1463.430878088772
 30
0.0
 40
648.1154288048271
100
AcDbArc
 50
93.50997798928027
 51
116.5554836333579
  0
ARC
  5
138
330
1F
100
AcDbEntity
  8
1
  6
Continuous
 62
     3
100
AcDbCircle
 10
1110.301433488423
 20
2035.266354464171
 30
0.0
 40
105.0252621650049
100
AcDbArc
 50
54.77855540950243
 51
116.0287621385284
  0
ARC
  5
139
330
1F
100
AcDbEntity
  8
1
  6
Continuous
 62
     3
100
AcDbCircle
 10
1134.869438820944
 20
2067.324097464169
 30
0.0
 40
87.00000000003666
100
AcDbArc
 50
78.74878192454588
 51
116.0287621385183
  0
ARC
  5
13A
330
1F
100
AcDbEntity
  8
1
  6
Continuous
 62
     3
100
AcDbCircle
 10
1194.768568902884
 20
2368.423905194879
 30
0.0
 40
220.0000000000344
100
AcDbArc
 50
-101.2512180754523
 51
-78.74918750763595
  0
ARC
  5
13B
330
1F
100
AcDbEntity
  8
1
  6
Continuous
 62
     3
100
AcDbCircle
 10
1441.021129548824
 20
1946.919443949095
 30
0.0
 40
239.3543390082774
100
AcDbArc
 50
85.62258943541873
 51
101.2508124923619
  0
ARC
  5
13C
330
1F
100
AcDbEntity
  8
1
  6
Continuous
 62
     3
100
AcDbCircle
 10
1438.427474187794
 20
2181.589560382312
 30
0.0
 40
81.09631157770492
100
AcDbArc
 50
-53.10650646966285
 51
-16.04684608824406
  0
ARC
  5
13D
330
1F
100
AcDbEntity
  8
1
  6
Continuous
 62
     3
100
AcDbCircle
 10
1409.608726271814
 20
2217.341930604877
 30
0.0
 40
126.9999999999842
100
AcDbArc
 50
-78.74918750763727
 51
-52.39156467866155
  0
ARC
  5
13E
330
1F
100
AcDbEntity
  8
1
  6
Continuous
 62
     3
100
AcDbCircle
 10
1452.420737496774
 20
2095.838104697956
 30
0.0
 40
89.99999999999862
100
AcDbArc
 50
44.72600602206335
 51
85.62258943541949
  0
ARC
  5
13F
330
1F
100
AcDbEntity
  8
1
  6
Continuous
 62
     3
100
AcDbCircle
 10
906.2798949928995
 20
6105.058981135271
 30
0.0
 40
3992.771146876944
100
AcDbArc
 50
-86.20032943698593
 51
-81.21093950162111
  0
ARC
  5
140
330
1F
100
AcDbEntity
  8
1
  6
Continuous
 62
     3
100
AcDbCircle
 10
1442.527846714464
 20
1476.79963971913
 30
0.0
 40
607.8283716216034
100
AcDbArc
 50
101.2508124923635
 51
110.8044388485471
  0
ARC
  5
141
330
1F
100
AcDbEntity
  8
1
  6
Continuous
 62
     3
100
AcDbCircle
 10
711.0237200855645
 20
1833.585372126605
 30
0.0
 40
51.53960382781095
100
AcDbArc
 50
-124.3195792873936
 51
-86.29006158702987
  0
ARC
  5
142
330
1F
100
AcDbEntity
  8
1
  6
Continuous
 62
     3
100
AcDbCircle
 10
-2208.116756907619
 20
651.3755338630131
 30
0.0
 40
2813.999999999179
100
AcDbArc
 50
32.87263024174762
 51
37.89514354325787
  0
ARC
  5
143
330
1F
100
AcDbEntity
  8
1
  6
Continuous
 62
     3
100
AcDbCircle
 10
1643.559375620504
 20
510.5490344504919
 30
0.0
 40
1595.999999999999
100
AcDbArc
 50
97.53087355831444
 51
98.96689559302905
  0
ARC
  5
144
330
1F
100
AcDbEntity
  8
1
  6
Continuous
 62
     3
100
AcDbCircle
 10
1425.093743060465
 20
1830.017762837378
 30
0.0
 40
353.0000000000067
100
AcDbArc
 50
95.00092550987857
 51
101.4968436414657
  0
ARC
  5
145
330
1F
100
AcDbEntity
  8
1
  6
Continuous
 62
     7
100
AcDbCircle
 10
942.1701584586645
 20
650.1375921978556
 30
0.0
 40
3218.514469430442
100
AcDbArc
 50
-10.6341190948372
 51
-4.54260865922909
  0
ARC
  5
146
330
1F
100
AcDbEntity
  8
1
  6
Continuous
 62
     1
100
AcDbCircle
 10
4174.949828299164
 20
445.6464426856305
 30
0.0
 40
56.00000001078075
100
AcDbArc
 50
-166.1655758813992
 51
-115.8028896070537
  0
ARC
  5
147
330
1F
100
AcDbEntity
  8
1
  6
Continuous
 62
     7
100
AcDbCircle
 10
4173.054514066744
 20
384.2917242293656
 30
0.0
 40
25.00000000644002
100
AcDbArc
 50
114.1629337204324
 51
154.0539998877738
  0
ARC
  5
148
330
1F
100
AcDbEntity
  8
1
  6
Continuous
 62
     7
100
AcDbCircle
 10
4288.077050937895
 20
127.9115065591632
 30
0.0
 40
306.0000000080306
100
AcDbArc
 50
108.7239510883573
 51
114.1629337164124
  0
ARC
  5
149
330
1F
100
AcDbEntity
  8
1
  6
Continuous
 62
     7
100
AcDbCircle
 10
4043.714239763984
 20
848.8578127008636
 30
0.0
 40
455.2337090617787
100
AcDbArc
 50
-71.27604891168193
 51
-59.11840742288238
  0
ARC
  5
14A
330
1F
100
AcDbEntity
  8
1
  6
Continuous
 62
     1
100
AcDbCircle
 10
3860.574344029204
 20
2441.357286490952
 30
0.0
 40
1721.974437677663
100
AcDbArc
 50
-100.9272425001641
 51
-79.03516947410657
  0
ARC
  5
14B
330
1F
100
AcDbEntity
  8
1
  6
Continuous
 62
     1
100
AcDbCircle
 10
8778.158159481385
 20
737.6272714900492
 30
0.0
 40
4667.583815452181
100
AcDbArc
 50
-179.9999999999987
 51
-176.2488093656807
  0
ARC
  5
14C
330
1F
100
AcDbEntity
  8
1
  6
Continuous
 62
     7
100
AcDbCircle
 10
953.296563833612
 20
-774.9585498932314
 30
0.0
 40
3575.853171861694
100
AcDbArc
 50
20.94215976131409
 51
24.98622344761568
  0
ARC
  5
14D
330
1F
100
AcDbEntity
  8
1
  6
Continuous
 62
     7
100
AcDbCircle
 10
4258.379196536554
 20
489.9171606017685
 30
0.0
 40
37.00000000003717
100
AcDbArc
 50
-59.11840742288661
 51
20.94215976131637
  0
ARC
  5
14E
330
1F
100
AcDbEntity
  8
1
  6
Continuous
 62
     7
100
AcDbCircle
 10
4043.488390595083
 20
1092.221423627177
 30
0.0
 40
21.99999999999947
100
AcDbArc
 50
25.04678295212749
 51
95.74863045855967
  0
ARC
  5
14F
330
1F
100
AcDbEntity
  8
1
  6
Continuous
 62
     7
100
AcDbCircle
 10
4374.017538505794
 20
819.14860330497
 30
0.0
 40
198.0717879698978
100
AcDbArc
 50
-165.6415806938113
 51
-155.0137765522692
  0
ARC
  5
150
330
1F
100
AcDbEntity
  8
1
  6
Continuous
 62
     7
100
AcDbCircle
 10
2350.870225237773
 20
301.2574017646552
 30
0.0
 40
1890.309486562241
100
AcDbArc
 50
14.35841930634827
 51
25.04678295218627
  0
ARC
  5
151
330
1F
100
AcDbEntity
  8
1
  6
Continuous
 62
     7
100
AcDbCircle
 10
3677.660297463324
 20
1092.221423627177
 30
0.0
 40
21.99999999999983
100
AcDbArc
 50
84.25136954143915
 51
154.95321704786
  0
ARC
  5
152
330
1F
100
AcDbEntity
  8
1
  6
Continuous
 62
     7
100
AcDbCircle
 10
5370.278462820634
 20
301.2574017646552
 30
0.0
 40
1890.309486562235
100
AcDbArc
 50
154.9532170478136
 51
165.6415806936518
  0
ARC
  5
153
330
1F
100
AcDbEntity
  8
1
  6
Continuous
 62
     7
100
AcDbCircle
 10
3347.131149552624
 20
819.14860330497
 30
0.0
 40
198.071787969895
100
AcDbArc
 50
-24.9862234477318
 51
-14.35841930618946
  0
ARC
  5
154
330
1F
100
AcDbEntity
  8
1
  6
Continuous
 62
     7
100
AcDbCircle
 10
6767.852124224791
 20
-774.9585498931027
 30
0.0
 40
3575.853171861628
100
AcDbArc
 50
155.0137765523861
 51
159.0578402386878
  0
ARC
  5
155
330
1F
100
AcDbEntity
  8
1
  6
Continuous
 62
     7
100
AcDbCircle
 10
3462.769491521864
 20
489.9171606017685
 30
0.0
 40
37.00000000011168
100
AcDbArc
 50
159.0578402386892
 51
-120.8815925771279
  0
ARC
  5
156
330
1F
100
AcDbEntity
  8
1
  6
Continuous
 62
     7
100
AcDbCircle
 10
3677.434448294423
 20
848.8578127008636
 30
0.0
 40
455.2337090617207
100
AcDbArc
 50
-120.8815925771176
 51
-108.7239510883168
  0
ARC
  5
157
330
1F
100
AcDbEntity
  8
1
  6
Continuous
 62
     7
100
AcDbCircle
 10
3433.071637120514
 20
127.9115065591632
 30
0.0
 40
306.0000000080331
100
AcDbArc
 50
65.83706628358796
 51
71.27604891164124
  0
ARC
  5
158
330
1F
100
AcDbEntity
  8
1
  6
Continuous
 62
     1
100
AcDbCircle
 10
-1057.009471422976
 20
737.6272714900492
 30
0.0
 40
4667.58381545218
100
AcDbArc
 50
-3.75119063431927
 51
-0.00000000000135
  0
ARC
  5
159
330
1F
100
AcDbEntity
  8
1
  6
Continuous
 62
     7
100
AcDbCircle
 10
3548.094173991663
 20
384.2917242293656
 30
0.0
 40
25.00000000644087
100
AcDbArc
 50
25.94600011222436
 51
65.83706627956669
  0
ARC
  5
15A
330
1F
100
AcDbEntity
  8
1
  6
Continuous
 62
     1
100
AcDbCircle
 10
3546.198859759244
 20
445.6464426856305
 30
0.0
 40
56.00000001078183
100
AcDbArc
 50
-64.19711039294629
 51
-13.83442411860079
  0
ARC
  5
15B
330
1F
100
AcDbEntity
  8
1
  6
Continuous
 62
     7
100
AcDbCircle
 10
6778.978529599744
 20
650.1375921978556
 30
0.0
 40
3218.514469430448
100
AcDbArc
 50
-175.4573913407709
 51
-169.3658809051628
  0
ARC
  5
15C
330
1F
100
AcDbEntity
  8
1
  6
Continuous
 62
     7
100
AcDbCircle
 10
3630.559220476775
 20
58.98619997465903
 30
0.0
 40
15.07817154877968
100
AcDbArc
 50
-169.3658809051557
 51
-95.5268477098704
  0
ARC
  5
15D
330
1F
100
AcDbEntity
  8
1
  6
Continuous
 62
     7
100
AcDbCircle
 10
3626.773222906153
 20
330.677633131671
 30
0.0
 40
104.9024545050221
100
AcDbArc
 50
98.46927025979528
 51
104.4624317912272
  0
ARC
  5
15E
330
1F
100
AcDbEntity
  8
1
  6
Continuous
 62
     7
100
AcDbCircle
 10
4374.017538505794
 20
2448.691909551074
 30
0.0
 40
198.0717879698979
100
AcDbArc
 50
-165.6415806938112
 51
-155.0137765522692
  0
ARC
  5
15F
330
1F
100
AcDbEntity
  8
1
  6
Continuous
 62
     7
100
AcDbCircle
 10
4258.379196536554
 20
2119.460466847873
 30
0.0
 40
37.00000000003761
100
AcDbArc
 50
-59.11840742288702
 51
20.94215976131637
  0
ARC
  5
160
330
1F
100
AcDbEntity
  8
1
  6
Continuous
 62
     7
100
AcDbCircle
 10
953.2965638336244
 20
854.5847563528723
 30
0.0
 40
3575.853171861682
100
AcDbArc
 50
20.94215976131417
 51
24.98622344761577
  0
ARC
  5
161
330
1F
100
AcDbEntity
  8
1
  6
Continuous
 62
     1
100
AcDbCircle
 10
8778.158159481385
 20
2367.170577736154
 30
0.0
 40
4667.583815452181
100
AcDbArc
 50
-179.9999999999987
 51
-176.2488093656807
  0
ARC
  5
162
330
1F
100
AcDbEntity
  8
1
  6
Continuous
 62
     7
100
AcDbCircle
 10
4043.714239763984
 20
2478.401118946968
 30
0.0
 40
455.2337090617788
100
AcDbArc
 50
-71.27604891168194
 51
-59.11840742288241
  0
ARC
  5
163
330
1F
100
AcDbEntity
  8
1
  6
Continuous
 62
     7
100
AcDbCircle
 10
4288.077050937895
 20
1757.454812805268
 30
0.0
 40
306.00000000803
100
AcDbArc
 50
108.7239510883574
 51
114.1629337164125
  0
ARC
  5
164
330
1F
100
AcDbEntity
  8
1
  6
Continuous
 62
     7
100
AcDbCircle
 10
4173.054514066744
 20
2013.835030475469
 30
0.0
 40
25.00000000644085
100
AcDbArc
 50
114.1629337204315
 51
154.0539998877729
  0
ARC
  5
165
330
1F
100
AcDbEntity
  8
1
  6
Continuous
 62
     1
100
AcDbCircle
 10
4174.949828299164
 20
2075.189748931735
 30
0.0
 40
56.00000001078063
100
AcDbArc
 50
-166.1655758813997
 51
-115.8028896070535
  0
ARC
  5
166
330
1F
100
AcDbEntity
  8
1
  6
Continuous
 62
     7
100
AcDbCircle
 10
4094.375465152254
 20
1960.220939377775
 30
0.0
 40
104.9024545050234
100
AcDbArc
 50
75.53756820877223
 51
81.53072974019909
  0
ARC
  5
167
330
1F
100
AcDbEntity
  8
1
  6
Continuous
 62
     7
100
AcDbCircle
 10
3626.773222906153
 20
1960.220939377775
 30
0.0
 40
104.9024545050222
100
AcDbArc
 50
98.46927025979527
 51
104.4624317912271
  0
ARC
  5
168
330
1F
100
AcDbEntity
  8
1
  6
Continuous
 62
     1
100
AcDbCircle
 10
3546.198859759244
 20
2075.189748931735
 30
0.0
 40
56.00000001078224
100
AcDbArc
 50
-64.19711039294647
 51
-13.83442411860034
  0
ARC
  5
169
330
1F
100
AcDbEntity
  8
1
  6
Continuous
 62
     7
100
AcDbCircle
 10
3548.094173991663
 20
2013.835030475469
 30
0.0
 40
25.00000000644107
100
AcDbArc
 50
25.94600011222529
 51
65.83706627956754
  0
ARC
  5
16A
330
1F
100
AcDbEntity
  8
1
  6
Continuous
 62
     7
100
AcDbCircle
 10
3433.071637120514
 20
1757.454812805268
 30
0.0
 40
306.0000000080327
100
AcDbArc
 50
65.83706628358794
 51
71.27604891164121
  0
ARC
  5
16B
330
1F
100
AcDbEntity
  8
1
  6
Continuous
 62
     1
100
AcDbCircle
 10
-1057.009471422976
 20
2367.170577736154
 30
0.0
 40
4667.58381545218
100
AcDbArc
 50
-3.75119063431927
 51
-0.00000000000135
  0
ARC
  5
16C
330
1F
100
AcDbEntity
  8
1
  6
Continuous
 62
     7
100
AcDbCircle
 10
3347.131149552624
 20
2448.691909551074
 30
0.0
 40
198.071787969895
100
AcDbArc
 50
-24.9862234477318
 51
-14.35841930618959
  0
ARC
  5
16D
330
1F
100
AcDbEntity
  8
1
  6
Continuous
 62
     7
100
AcDbCircle
 10
3677.434448294423
 20
2478.401118946968
 30
0.0
 40
455.2337090617211
100
AcDbArc
 50
-120.8815925771175
 51
-108.7239510883168
  0
ARC
  5
16E
330
1F
100
AcDbEntity
  8
1
  6
Continuous
 62
     7
100
AcDbCircle
 10
3462.769491521864
 20
2119.460466847873
 30
0.0
 40
37.00000000004336
100
AcDbArc
 50
-169.5947686842688
 51
-120.8815925771275
  0
ARC
  5
16F
330
1F
100
AcDbEntity
  8
1
  6
Continuous
 62
     7
100
AcDbCircle
 10
6767.852124224777
 20
854.5847563530012
 30
0.0
 40
3575.853171861616
100
AcDbArc
 50
155.0137765523861
 51
159.0578402386877
  0
ARC
  5
170
330
1F
100
AcDbEntity
  8
1
  6
Continuous
 62
     1
100
AcDbCircle
 10
3860.574344029204
 20
4070.900592737058
 30
0.0
 40
1721.974437677665
100
AcDbArc
 50
-100.9272425001641
 51
-79.03516947410658
  0
ARC
  5
171
330
1F
100
AcDbEntity
  8
1
  6
Continuous
 62
     7
100
AcDbCircle
 10
-410.7465940143829
 20
2387.170159268246
 30
0.0
 40
4575.694516555652
100
AcDbArc
 50
-9.05512293434547
 51
-4.54260865922761
  0
ARC
  5
172
330
1F
100
AcDbEntity
  8
1
  6
Continuous
 62
     7
100
AcDbCircle
 10
4074.346516741554
 20
1672.377273488431
 30
0.0
 40
33.99999999998241
100
AcDbArc
 50
-84.83738492526113
 51
-9.05512293434412
  0
ARC
  5
173
330
1F
100
AcDbEntity
  8
1
  6
Continuous
 62
     7
100
AcDbCircle
 10
2661.073123581644
 20
2112.524915146391
 30
0.0
 40
1547.907975342582
100
AcDbArc
 50
10.68692695125396
 51
25.04678295212825
  0
ARC
  5
174
330
1F
100
AcDbEntity
  8
1
  6
Continuous
 62
     7
100
AcDbCircle
 10
5060.07556447677
 20
2112.524915146357
 30
0.0
 40
1547.907975342593
100
AcDbArc
 50
154.9532170478706
 51
169.3130730487449
  0
ARC
  5
175
330
1F
100
AcDbEntity
  8
1
  6
Continuous
 62
     7
100
AcDbCircle
 10
3677.660297463333
 20
2758.530471424561
 30
0.0
 40
21.99999999999914
100
AcDbArc
 50
84.25136954146278
 51
154.9532170478743
  0
ARC
  5
176
330
1F
100
AcDbEntity
  8
1
  6
Continuous
 62
     7
100
AcDbCircle
 10
8131.895282072796
 20
2387.170159268246
 30
0.0
 40
4575.694516555656
100
AcDbArc
 50
-175.4573913407724
 51
-170.9448770656546
  0
ARC
  5
177
330
1F
100
AcDbEntity
  8
1
  6
Continuous
 62
     7
100
AcDbCircle
 10
3646.802171316853
 20
1672.377273488431
 30
0.0
 40
33.99999999998594
100
AcDbArc
 50
-170.9448770656559
 51
-95.16261507473888
  0
ARC
  5
178
330
1F
100
AcDbEntity
  8
1
  6
Continuous
 62
     3
100
AcDbCircle
 10
230.6744316109725
 20
2145.594758194735
 30
0.0
 40
123.9999999999868
100
AcDbArc
 50
-150.4911253549506
 51
-149.7974960101654
  0
ARC
  5
179
330
1F
100
AcDbEntity
  8
1
  6
Continuous
 62
     3
100
AcDbCircle
 10
367.7928692061214
 20
2316.061269396689
 30
0.0
 40
252.9999999999609
100
AcDbArc
 50
-147.1273697582522
 51
-121.1227398059965
  0
ARC
  5
17A
330
1F
100
AcDbEntity
  8
1
  6
Continuous
 62
     3
100
AcDbCircle
 10
210.1425388643947
 20
124.5613943339013
 30
0.0
 40
314.8180517398569
100
AcDbArc
 50
66.00000000000107
 51
87.78117923466614
  0
ARC
  5
17B
330
1F
100
AcDbEntity
  8
1
  6
Continuous
 62
     3
100
AcDbCircle
 10
210.1425388643947
 20
1764.697479688161
 30
0.0
 40
314.8180517398578
100
AcDbArc
 50
66.00000000000115
 51
87.78117923466616
  0
ARC
  5
17C
330
1F
100
AcDbEntity
  8
0
  6
Continuous
 62
     7
100
AcDbCircle
 10
3857.292283884533
 20
2876.576121277299
 30
0.0
 40
1771.373730590389
100
AcDbArc
 50
-95.74863045854403
 51
-89.89384041394254
  0
ARC
  5
17D
330
1F
100
AcDbEntity
  8
1
  6
Continuous
 62
     1
100
AcDbCircle
 10
3925.324433032874
 20
2409.258499716209
 30
0.0
 40
3867.064685550435
100
AcDbArc
 50
-155.3559788218369
 51
-153.9315694515303
  0
ARC
  5
17E
330
1F
100
AcDbEntity
  8
1
  6
Continuous
 62
     1
100
AcDbCircle
 10
2982.382181942503
 20
-456.0506444471648
 30
0.0
 40
1982.741426420313
100
AcDbArc
 50
154.573989502667
 51
154.8557462016162
  0
ARC
  5
17F
330
1F
100
AcDbEntity
  8
1
  6
Continuous
 62
     7
100
AcDbCircle
 10
1159.285027053704
 20
383.1238816661385
 30
0.0
 40
70.77523236597159
100
AcDbArc
 50
56.07266423293749
 51
60.41575014720893
  0
ARC
  5
180
330
1F
100
AcDbEntity
  8
1
  6
Continuous
 62
     7
100
AcDbCircle
 10
1159.285027053704
 20
2023.259967020399
 30
0.0
 40
70.77523236597553
100
AcDbArc
 50
-37.26635266528493
 51
17.88577779879768
  0
ARC
  5
181
330
1F
100
AcDbEntity
  8
1
  6
Continuous
 62
     7
100
AcDbCircle
 10
1160.688877096454
 20
395.4428558322366
 30
0.0
 40
31.00000000002365
100
AcDbArc
 50
-0.39374540025224
 51
50.37809708283584
  0
ARC
  5
182
330
1F
100
AcDbEntity
  8
1
  6
Continuous
 62
     7
100
AcDbCircle
 10
1159.285027053704
 20
383.1238816661385
 30
0.0
 40
70.77523236597484
100
AcDbArc
 50
-37.2663526652842
 51
56.07266423293749
  0
ARC
  5
183
330
1F
100
AcDbEntity
  8
1
  6
Continuous
 62
     7
100
AcDbCircle
 10
1160.688877096454
 20
2035.578941186498
 30
0.0
 40
31.00000000002366
100
AcDbArc
 50
-0.39374540025466
 51
50.37809708283546
  0
ARC
  5
184
330
1F
100
AcDbEntity
  8
1
  6
Continuous
 62
     7
100
AcDbCircle
 10
1159.285027053704
 20
2023.259967020399
 30
0.0
 40
70.77523236597176
100
AcDbArc
 50
17.88577779879768
 51
56.07266423293713
  0
ARC
  5
185
330
1F
100
AcDbEntity
  8
1
  6
Continuous
 62
     7
100
AcDbCircle
 10
946.399480027143
 20
921.3214360034231
 30
0.0
 40
521.6542981590794
100
AcDbArc
 50
-139.6842269531671
 51
-96.51438267980134
  0
ARC
  5
186
330
1F
100
AcDbEntity
  8
1
  6
Continuous
 62
     7
100
AcDbCircle
 10
946.399480027143
 20
2561.457521357683
 30
0.0
 40
521.6542981590798
100
AcDbArc
 50
-139.6842269531671
 51
-96.51438267980136
  0
ARC
  5
187
330
1F
100
AcDbEntity
  8
1
  6
Continuous
 62
     7
100
AcDbCircle
 10
3462.769491521864
 20
2119.460466847873
 30
0.0
 40
37.00000000011168
100
AcDbArc
 50
159.0578402386892
 51
-169.5947686842688
  0
ARC
  5
188
330
1F
100
AcDbEntity
  8
1
  6
Continuous
 62
     7
100
AcDbCircle
 10
987.7691239308044
 20
-1648.627503514174
 30
0.0
 40
242.2911354888715
100
AcDbArc
 50
-1.54574488312097
 51
27.42273943326098
  0
ARC
  5
189
330
1F
100
AcDbEntity
  8
1
  6
Continuous
 62
     7
100
AcDbCircle
 10
160.7463432722948
 20
-1626.310389106386
 30
0.0
 40
1069.614973730962
100
AcDbArc
 50
-4.01575600211663
 51
-1.545744883121
  0
ARC
  5
18A
330
1F
100
AcDbEntity
  8
1
  6
Continuous
 62
     7
100
AcDbCircle
 10
160.7463432722948
 20
-2028.271183764148
 30
0.0
 40
1069.614973730961
100
AcDbArc
 50
1.54574488312095
 51
4.01575600211658
  0
ARC
  5
18B
330
1F
100
AcDbEntity
  8
1
  6
Continuous
 62
     7
100
AcDbCircle
 10
987.7691239308044
 20
-2005.95406935636
 30
0.0
 40
242.2911354888724
100
AcDbArc
 50
-27.42273943326121
 51
1.5457448831207
  0
ARC
  5
18C
330
1F
100
AcDbEntity
  8
1
  6
Continuous
 62
     7
100
AcDbCircle
 10
636.8727324442419
 20
-2012.928045136476
 30
0.0
 40
243.0000000000079
100
AcDbArc
 50
-140.9598009075196
 51
-100.1356561030172
  0
ARC
  5
18D
330
1F
100
AcDbEntity
  8
1
  6
Continuous
 62
     7
100
AcDbCircle
 10
1191.688145088674
 20
-2364.940272684888
 30
0.0
 40
247.6494862496209
100
AcDbArc
 50
87.42029092295826
 51
123.2274102202457
  0
ARC
  5
18E
330
1F
100
AcDbEntity
  8
1
  6
Continuous
 62
     7
100
AcDbCircle
 10
706.3845814476092
 20
-1624.092472113468
 30
0.0
 40
638.000000000006
100
AcDbArc
 50
-100.135656103016
 51
-56.77258977975446
  0
ARC
  5
18F
330
1F
100
AcDbEntity
  8
1
  6
Continuous
 62
     1
100
AcDbCircle
 10
1156.835225689828
 20
-2117.312012415865
 30
0.0
 40
46.00000000000612
100
AcDbArc
 50
-0.286167334457
 51
40.74059172379751
  0
ARC
  5
190
330
1F
100
AcDbEntity
  8
1
  6
Continuous
 62
     7
100
AcDbCircle
 10
4043.488390595083
 20
2758.530471424561
 30
0.0
 40
21.9999999999987
100
AcDbArc
 50
25.0467829521232
 51
85.44893705637733
  0
ARC
  5
191
330
1F
100
AcDbEntity
  8
1
  6
Continuous
 62
     7
100
AcDbCircle
 10
424.7066670137489
 20
-2184.983347621601
 30
0.0
 40
30.1619783818746
100
AcDbArc
 50
39.04019909247553
 51
90.00000000000098
  0
ARC
  5
192
330
1F
100
AcDbEntity
  8
1
  6
Continuous
 62
     1
100
AcDbCircle
 10
-916.8060121365768
 20
-1964.115491760544
 30
0.0
 40
1355.000000009664
100
AcDbArc
 50
-8.0908048188262
 51
-6.65560473388092
  0
ARC
  5
193
330
1F
100
AcDbEntity
  8
1
  6
Continuous
 62
     1
100
AcDbCircle
 10
-219340.8051521671
 20
23523.2428584113
 30
0.0
 40
221260.9999999963
100
AcDbArc
 50
-6.65560473388103
 51
-6.60724483619487
  0
ARC
  5
194
330
1F
100
AcDbEntity
  8
1
  6
Continuous
 62
     1
100
AcDbCircle
 10
-484.9254472025598
 20
-1827.290786435178
 30
0.0
 40
941.8096476523034
100
AcDbArc
 50
-6.60724483616701
 51
6.60724483619504
  0
ARC
  5
195
330
1F
100
AcDbEntity
  8
1
  6
Continuous
 62
     7
100
AcDbCircle
 10
1505.909602513109
 20
-1827.290786435265
 30
0.0
 40
1107.28867227451
100
AcDbArc
 50
172.3316786398629
 51
-172.3316786398627
  0
ARC
  5
196
330
1F
100
AcDbEntity
  8
1
  6
Continuous
 62
     7
100
AcDbCircle
 10
-1401.147046809074
 20
-2218.703704627509
 30
0.0
 40
1826.000000000362
100
AcDbArc
 50
3.87185137861105
 51
7.66832136013724
  0
ARC
  5
197
330
1F
100
AcDbEntity
  8
1
  6
Continuous
 62
     1
100
AcDbCircle
 10
636.7452837661244
 20
-2086.971450494124
 30
0.0
 40
132.6389166836193
100
AcDbArc
 50
-0.00000000000138
 51
27.43368548240867
  0
ARC
  5
198
330
1F
100
AcDbEntity
  8
1
  6
Continuous
 62
     1
100
AcDbCircle
 10
1136.999999999994
 20
-1827.290786435269
 30
0.0
 40
430.9999999999952
100
AcDbArc
 50
152.5663145175909
 51
-152.5663145175912
  0
ARC
  5
199
330
1F
100
AcDbEntity
  8
1
  6
Continuous
 62
     1
100
AcDbCircle
 10
636.7452837661244
 20
-1567.610122376411
 30
0.0
 40
132.6389166836196
100
AcDbArc
 50
-27.43368548240867
 51
0.00000000000128
  0
ARC
  5
19A
330
1F
100
AcDbEntity
  8
1
  6
Continuous
 62
     1
100
AcDbCircle
 10
1156.835225689828
 20
-1537.269560454669
 30
0.0
 40
46.00000000000635
100
AcDbArc
 50
-40.74059172379815
 51
0.28616733445587
  0
ARC
  5
19B
330
1F
100
AcDbEntity
  8
1
  6
Continuous
 62
     7
100
AcDbCircle
 10
1191.688145088674
 20
-1289.641300185647
 30
0.0
 40
247.6494862496207
100
AcDbArc
 50
-123.2274102202457
 51
-87.42029092295826
  0
ARC
  5
19C
330
1F
100
AcDbEntity
  8
1
  6
Continuous
 62
     7
100
AcDbCircle
 10
706.3845814476092
 20
-2030.489100757066
 30
0.0
 40
638.000000000005
100
AcDbArc
 50
56.7725897797544
 51
100.135656103016
  0
ARC
  5
19D
330
1F
100
AcDbEntity
  8
1
  6
Continuous
 62
     7
100
AcDbCircle
 10
636.8727324442419
 20
-1641.653527734059
 30
0.0
 40
243.0000000000086
100
AcDbArc
 50
100.1356561030172
 51
140.9598009075196
  0
ARC
  5
19E
330
1F
100
AcDbEntity
  8
1
  6
Continuous
 62
     1
100
AcDbCircle
 10
-916.8060121365768
 20
-1690.466081109991
 30
0.0
 40
1355.000000009655
100
AcDbArc
 50
6.65560473388097
 51
8.09080481882619
  0
ARC
  5
19F
330
1F
100
AcDbEntity
  8
1
  6
Continuous
 62
     7
100
AcDbCircle
 10
424.7066670137489
 20
-1469.598225248933
 30
0.0
 40
30.161978381876
100
AcDbArc
 50
-90.00000000000098
 51
-39.0401990924772
  0
ARC
  5
1A0
330
1F
100
AcDbEntity
  8
1
  6
Continuous
 62
     1
100
AcDbCircle
 10
-219340.8051521671
 20
-27177.82443128184
 30
0.0
 40
221260.9999999963
100
AcDbArc
 50
6.60724483619487
 51
6.65560473388103
  0
ARC
  5
1A1
330
1F
100
AcDbEntity
  8
1
  6
Continuous
 62
     1
100
AcDbCircle
 10
37.12461186672698
 20
-2027.284702078393
 30
0.0
 40
449.9999999999998
100
AcDbArc
 50
-19.83833301353304
 51
-6.56875729746534
  0
ARC
  5
1A2
330
1F
100
AcDbEntity
  8
1
  6
Continuous
 62
     1
100
AcDbCircle
 10
89.65231481381478
 20
-2004.863689783698
 30
0.0
 40
438.0000000000013
100
AcDbArc
 50
-26.45640117994427
 51
-9.86043515900921
  0
ARC
  5
1A3
330
1F
100
AcDbEntity
  8
1
  6
Continuous
 62
     1
100
AcDbCircle
 10
-41.18754801862896
 20
-1953.438149708265
 30
0.0
 40
611.9999999999998
100
AcDbArc
 50
-25.820842446266
 51
-12.02624773273246
  0
ARC
  5
1A4
330
1F
100
AcDbEntity
  8
1
  6
Continuous
 62
     1
100
AcDbCircle
 10
134.7403221426532
 20
-1993.320607723589
 30
0.0
 40
489.0000000000002
100
AcDbArc
 50
-30.56708217678497
 51
-10.53105203074067
  0
ARC
  5
1A5
330
1F
100
AcDbEntity
  8
1
  6
Continuous
 62
     1
100
AcDbCircle
 10
-153.4292215923803
 20
-1954.995769422311
 30
0.0
 40
862.9999999999992
100
AcDbArc
 50
-20.624065600303
 51
-8.67855859469302
  0
ARC
  5
1A6
330
1F
100
AcDbEntity
  8
1
  6
Continuous
 62
     1
100
AcDbCircle
 10
-805.9602106868418
 20
-1946.682880166384
 30
0.0
 40
1606.0
100
AcDbArc
 50
-11.21277080910893
 51
-5.01199671371681
  0
ARC
  5
1A7
330
1F
100
AcDbEntity
  8
1
  6
Continuous
 62
     1
100
AcDbCircle
 10
-4410.633837282467
 20
-1644.555030855512
 30
0.0
 40
5311.000000000001
100
AcDbArc
 50
-6.45489193451922
 51
-4.77930595112318
  0
ARC
  5
1A8
330
1F
100
AcDbEntity
  8
1
  6
Continuous
 62
     1
100
AcDbCircle
 10
-938.5319893018167
 20
-2042.358353268664
 30
0.0
 40
1900.0
100
AcDbArc
 50
-5.12662518733208
 51
-1.34983091361198
  0
ARC
  5
1A9
330
1F
100
AcDbEntity
  8
1
  6
Continuous
 62
     1
100
AcDbCircle
 10
566.9140502153637
 20
-2104.005651392825
 30
0.0
 40
486.9999999999998
100
AcDbArc
 50
-6.75809657191089
 51
1.97918816329197
  0
ARC
  5
1AA
330
1F
100
AcDbEntity
  8
1
  6
Continuous
 62
     1
100
AcDbCircle
 10
827.4937880545236
 20
-2144.0
 30
0.0
 40
316.5062119454766
100
AcDbArc
 50
3.971977562338
 51
10.32891379696152
  0
ARC
  5
1AB
330
1F
100
AcDbEntity
  8
1
  6
Continuous
 62
     1
100
AcDbCircle
 10
-969.0576844646698
 20
-1827.290786435267
 30
0.0
 40
2176.33235971259
100
AcDbArc
 50
-6.86134534783062
 51
6.86134534783059
  0
ARC
  5
1AC
330
1F
100
AcDbEntity
  8
1
  6
Continuous
 62
     7
100
AcDbCircle
 10
3023.586259381735
 20
-1827.290786435267
 30
0.0
 40
1800.271000550941
100
AcDbArc
 50
175.9842439978835
 51
-175.9842439978835
  0
ARC
  5
1AD
330
1F
100
AcDbEntity
  8
1
  6
Continuous
 62
     1
100
AcDbCircle
 10
37.12461186672698
 20
-1627.296870792142
 30
0.0
 40
449.9999999999997
100
AcDbArc
 50
6.56875729746534
 51
19.83833301353304
  0
ARC
  5
1AE
330
1F
100
AcDbEntity
  8
1
  6
Continuous
 62
     1
100
AcDbCircle
 10
89.65231481381478
 20
-1649.717883086837
 30
0.0
 40
438.0000000000013
100
AcDbArc
 50
9.86043515900907
 51
26.45640117994427
  0
ARC
  5
1AF
330
1F
100
AcDbEntity
  8
1
  6
Continuous
 62
     1
100
AcDbCircle
 10
-41.18754801862896
 20
-1701.143423162271
 30
0.0
 40
612.0
100
AcDbArc
 50
12.02624773273257
 51
25.82084244626608
  0
ARC
  5
1B0
330
1F
100
AcDbEntity
  8
1
  6
Continuous
 62
     1
100
AcDbCircle
 10
134.7403221426532
 20
-1661.260965146947
 30
0.0
 40
489.0000000000005
100
AcDbArc
 50
10.5310520307408
 51
30.56708217678509
  0
ARC
  5
1B1
330
1F
100
AcDbEntity
  8
1
  6
Continuous
 62
     1
100
AcDbCircle
 10
-153.4292215923803
 20
-1699.585803448225
 30
0.0
 40
862.9999999999996
100
AcDbArc
 50
8.67855859469308
 51
20.62406560030305
  0
ARC
  5
1B2
330
1F
100
AcDbEntity
  8
1
  6
Continuous
 62
     1
100
AcDbCircle
 10
-805.9602106868418
 20
-1707.898692704151
 30
0.0
 40
1606.0
100
AcDbArc
 50
5.01199671371677
 51
11.21277080910892
  0
ARC
  5
1B3
330
1F
100
AcDbEntity
  8
1
  6
Continuous
 62
     1
100
AcDbCircle
 10
-4410.633837282467
 20
-2010.026542015023
 30
0.0
 40
5311.000000000001
100
AcDbArc
 50
4.77930595112318
 51
6.45489193451922
  0
ARC
  5
1B4
330
1F
100
AcDbEntity
  8
1
  6
Continuous
 62
     1
100
AcDbCircle
 10
-938.5319893018167
 20
-1612.223219601871
 30
0.0
 40
1900.0
100
AcDbArc
 50
1.34983091361198
 51
5.12662518733208
  0
ARC
  5
1B5
330
1F
100
AcDbEntity
  8
1
  6
Continuous
 62
     1
100
AcDbCircle
 10
566.9140502153637
 20
-1550.57592147771
 30
0.0
 40
487.0000000000004
100
AcDbArc
 50
-1.97918816329202
 51
6.75809657191089
  0
ARC
  5
1B6
330
1F
100
AcDbEntity
  8
1
  6
Continuous
 62
     1
100
AcDbCircle
 10
827.4937880545236
 20
-1510.581572870536
 30
0.0
 40
316.5062119454764
100
AcDbArc
 50
-10.32891379696132
 51
-3.97197756233784
  0
ARC
  5
1B7
330
1F
100
AcDbEntity
  8
1
  6
Continuous
 62
     3
100
AcDbCircle
 10
3546.802489489705
 20
-1827.290786435332
 30
0.0
 40
3576.487674511233
100
AcDbArc
 50
177.3294309648551
 51
-177.3294309648572
  0
ARC
  5
1B8
330
1F
100
AcDbEntity
  8
1
  6
Continuous
 62
     7
100
AcDbCircle
 10
-1401.147046809074
 20
-1435.877868243026
 30
0.0
 40
1826.000000000362
100
AcDbArc
 50
-7.66832136013721
 51
-3.87185137861106
  0
ARC
  5
1B9
330
1F
100
AcDbEntity
  8
1
  6
Continuous
 62
     3
100
AcDbCircle
 10
16.01989004971764
 20
-1662.600942769067
 30
0.0
 40
41.86626492363664
100
AcDbArc
 50
98.77052396440607
 51
177.3294309648518
  0
ARC
  5
1BA
330
1F
100
AcDbEntity
  8
1
  6
Continuous
 62
     3
100
AcDbCircle
 10
268.9479123168238
 20
-1595.821999960109
 30
0.0
 40
94.66308714458492
100
AcDbArc
 50
-179.9999999999995
 51
-158.6101845735875
  0
ARC
  5
1BB
330
1F
100
AcDbEntity
  8
1
  6
Continuous
 62
     3
100
AcDbCircle
 10
-322.0000000000056
 20
-1827.290786435269
 30
0.0
 40
540.0000000000055
100
AcDbArc
 50
-21.38981542641278
 51
21.3898154264132
  0
ARC
  5
1BC
330
1F
100
AcDbEntity
  8
1
  6
Continuous
 62
     3
100
AcDbCircle
 10
134.0307867820195
 20
-1334.908963886247
 30
0.0
 40
264.0000000000041
100
AcDbArc
 50
-81.22947603559726
 51
-52.07238218194873
  0
ARC
  5
1BD
330
1F
100
AcDbEntity
  8
1
  6
Continuous
 62
     3
100
AcDbCircle
 10
669.8726122853783
 20
-2022.544036731464
 30
0.0
 40
607.7616964317786
100
AcDbArc
 50
105.7467100614987
 51
127.9276178180517
  0
ARC
  5
1BE
330
1F
100
AcDbEntity
  8
1
  6
Continuous
 62
     3
100
AcDbCircle
 10
16.01989004971764
 20
-1991.980630101468
 30
0.0
 40
41.86626492364163
100
AcDbArc
 50
-177.3294309648574
 51
-98.77052396440607
  0
ARC
  5
1BF
330
1F
100
AcDbEntity
  8
1
  6
Continuous
 62
     3
100
AcDbCircle
 10
268.9479123168238
 20
-2058.759572910426
 30
0.0
 40
94.66308714458418
100
AcDbArc
 50
158.6101845735867
 51
179.9999999999995
  0
ARC
  5
1C0
330
1F
100
AcDbEntity
  8
1
  6
Continuous
 62
     3
100
AcDbCircle
 10
134.0307867820195
 20
-2319.672608984287
 30
0.0
 40
264.0000000000036
100
AcDbArc
 50
52.07238218194873
 51
81.22947603559723
  0
ARC
  5
1C1
330
1F
100
AcDbEntity
  8
1
  6
Continuous
 62
     3
100
AcDbCircle
 10
669.8726122853783
 20
-1632.037536139071
 30
0.0
 40
607.7616964317776
100
AcDbArc
 50
-127.9276178180518
 51
-105.7467100614987
  0
ARC
  5
1C2
330
1F
100
AcDbEntity
  8
1
  6
Continuous
 62
     3
100
AcDbCircle
 10
177.9322012820674
 20
-2050.790388793663
 30
0.0
 40
132.9999999999992
100
AcDbArc
 50
-27.126494798699
 51
-6.22001808833642
  0
ARC
  5
1C3
330
1F
100
AcDbEntity
  8
1
  6
Continuous
 62
     3
100
AcDbCircle
 10
80.70256072813474
 20
-2036.989229549373
 30
0.0
 40
299.9999999999982
100
AcDbArc
 50
-22.79880900302398
 51
-6.02284272447847
  0
ARC
  5
1C4
330
1F
100
AcDbEntity
  8
1
  6
Continuous
 62
     3
100
AcDbCircle
 10
291.6349883518211
 20
-2136.74940292387
 30
0.0
 40
146.1175875738489
100
AcDbArc
 50
-21.18137202322254
 51
-8.02473487292058
  0
ARC
  5
1C5
330
1F
100
AcDbEntity
  8
1
  6
Continuous
 62
     3
100
AcDbCircle
 10
177.9322012820674
 20
-1603.791184076872
 30
0.0
 40
132.9999999999996
100
AcDbArc
 50
6.22001808833642
 51
27.12649479869952
  0
ARC
  5
1C6
330
1F
100
AcDbEntity
  8
1
  6
Continuous
 62
     3
100
AcDbCircle
 10
80.70256072813474
 20
-1617.592343321162
 30
0.0
 40
299.9999999999982
100
AcDbArc
 50
6.02284272447842
 51
22.79880900302398
  0
ARC
  5
1C7
330
1F
100
AcDbEntity
  8
1
  6
Continuous
 62
     3
100
AcDbCircle
 10
291.6349883518211
 20
-1517.832169946665
 30
0.0
 40
146.117587573835
100
AcDbArc
 50
8.02473487292067
 51
21.18137202322303
  0
ARC
  5
1C8
330
1F
100
AcDbEntity
  8
1
  6
Continuous
 62
     3
100
AcDbCircle
 10
1438.484656758882
 20
-1627.226399783188
 30
0.0
 40
25.99999999999995
100
AcDbArc
 50
7.03233395222562
 51
82.8195563330695
  0
ARC
  5
1C9
330
1F
100
AcDbEntity
  8
1
  6
Continuous
 62
     3
100
AcDbCircle
 10
-183.3419844128742
 20
-1827.29078643527
 30
0.0
 40
1660.119766975768
100
AcDbArc
 50
-7.03233395222107
 51
7.03233395222133
  0
ARC
  5
1CA
330
1F
100
AcDbEntity
  8
1
  6
Continuous
 62
     3
100
AcDbCircle
 10
1438.484656758882
 20
-2027.355173087347
 30
0.0
 40
26.00000000000087
100
AcDbArc
 50
-82.81955633306917
 51
-7.03233395222263
  0
LWPOLYLINE
  5
1CB
330
1F
100
AcDbEntity
  8
5
  6
Continuous
 62
     5
100
AcDbPolyline
 90
        5
 70
     0
 43
0.0
 10
833.5006120507933
 20
24.3008432058964
 42
0.02457562856192
 10
833.1360351281928
 20
24.34052285288179
 42
0.04042275891243
 10
832.9128983598639
 20
24.33571750797134
 42
0.00711183057852
 10
832.4957106022739
 20
24.2868699284869
 42
0.0156389570473
 10
832.4084476651639
 20
24.27260335152074
  0
LWPOLYLINE
  5
1CC
330
1F
100
AcDbEntity
  8
5
  6
Continuous
 62
     5
100
AcDbPolyline
 90
        5
 70
     0
 43
0.0
 10
833.5006120507933
 20
1620.207162310188
 42
0.02457562856192
 10
833.1360351281928
 20
1620.246841957174
 42
0.04042275891243
 10
832.9128983598639
 20
1620.242036612263
 42
0.00711183057852
 10
832.4957106022738
 20
1620.193189032779
 42
0.0156389570473
 10
832.4084476651639
 20
1620.178922455812
  0
ENDSEC
  0
SECTION
  2
OBJECTS
  0
DICTIONARY
  5
C
330
0
100
AcDbDictionary
281
     1
  3
ACAD_GROUP
350
D
  3
ACAD_LAYOUT
350
1A
  3
ACAD_MLINESTYLE
350
17
  3
ACAD_PLOTSETTINGS
350
19
  3
ACAD_PLOTSTYLENAME
350
E
  3
ACAD_TABLESTYLE
350
2A
  3
AcDbVariableDictionary
350
2C
  0
DICTIONARY
  5
D
102
{ACAD_REACTORS
330
C
102
}
330
C
100
AcDbDictionary
281
     1
  0
DICTIONARY
  5
1A
102
{ACAD_REACTORS
330
C
102
}
330
C
100
AcDbDictionary
281
     1
  3
Layout1
350
1E
  3
Layout2
350
26
  3
Model
350
22
  0
DICTIONARY
  5
17
102
{ACAD_REACTORS
330
C
102
}
330
C
100
AcDbDictionary
281
     1
  3
Standard
350
18
  0
DICTIONARY
  5
19
102
{ACAD_REACTORS
330
C
102
}
330
C
100
AcDbDictionary
281
     1
  0
ACDBDICTIONARYWDFLT
  5
E
102
{ACAD_REACTORS
330
C
102
}
330
C
100
AcDbDictionary
281
     1
  3
Normal
350
F
100
AcDbDictionaryWithDefault
340
F
  0
DICTIONARY
  5
2A
102
{ACAD_REACTORS
330
C
102
}
330
C
100
AcDbDictionary
281
     1
  3
Standard
350
2B
  0
DICTIONARY
  5
2C
102
{ACAD_REACTORS
330
C
102
}
330
C
100
AcDbDictionary
281
     1
  3
CTABLESTYLE
350
2D
  0
LAYOUT
  5
1E
102
{ACAD_REACTORS
330
1A
102
}
330
1A
100
AcDbPlotSettings
  1

  2

  4

  6

 40
0.0
 41
0.0
 42
0.0
 43
0.0
 44
0.0
 45
0.0
 46
0.0
 47
0.0
 48
0.0
 49
0.0
140
0.0
141
0.0
142
1.0
143
1.0
 70
   688
 72
     0
 73
     0
 74
     5
  7

 75
    16
147
1.0
148
0.0
149
0.0
100
AcDbLayout
  1
Layout1
 70
     1
 71
     1
 10
0.0
 20
0.0
 11
12.0
 21
9.0
 12
0.0
 22
0.0
 32
0.0
 14
1.00000000000000E+20
 24
1.00000000000000E+20
 34
1.00000000000000E+20
 15
-1.00000000000000E+20
 25
-1.00000000000000E+20
 35
-1.00000000000000E+20
146
0.0
 13
0.0
 23
0.0
 33
0.0
 16
1.0
 26
0.0
 36
0.0
 17
0.0
 27
1.0
 37
0.0
 76
     0
330
1B
  0
LAYOUT
  5
26
102
{ACAD_REACTORS
330
1A
102
}
330
1A
100
AcDbPlotSettings
  1

  2

  4

  6

 40
0.0
 41
0.0
 42
0.0
 43
0.0
 44
0.0
 45
0.0
 46
0.0
 47
0.0
 48
0.0
 49
0.0
140
0.0
141
0.0
142
1.0
143
1.0
 70
   688
 72
     0
 73
     0
 74
     5
  7

 75
    16
147
1.0
148
0.0
149
0.0
100
AcDbLayout
  1
Layout2
 70
     1
 71
     2
 10
0.0
 20
0.0
 11
0.0
 21
0.0
 12
0.0
 22
0.0
 32
0.0
 14
0.0
 24
0.0
 34
0.0
 15
0.0
 25
0.0
 35
0.0
146
0.0
 13
0.0
 23
0.0
 33
0.0
 16
1.0
 26
0.0
 36
0.0
 17
0.0
 27
1.0
 37
0.0
 76
     0
330
23
  0
LAYOUT
  5
22
102
{ACAD_REACTORS
330
1A
102
}
330
1A
100
AcDbPlotSettings
  1

  2

  4

  6

 40
0.0
 41
0.0
 42
0.0
 43
0.0
 44
0.0
 45
0.0
 46
0.0
 47
0.0
 48
0.0
 49
0.0
140
0.0
141
0.0
142
1.0
143
1.0
 70
  1712
 72
     0
 73
     0
 74
     0
  7

 75
     0
147
1.0
148
0.0
149
0.0
100
AcDbLayout
  1
Model
 70
     1
 71
     0
 10
0.0
 20
0.0
 11
0.0
 21
0.0
 12
0.0
 22
0.0
 32
0.0
 14
-58.82743774417395
 24
-2262.092472113474
 34
0.0
 15
4295.379196536657
 25
2780.530471424558
 35
0.0
146
0.0
 13
0.0
 23
0.0
 33
0.0
 16
1.0
 26
0.0
 36
0.0
 17
0.0
 27
1.0
 37
0.0
 76
     0
330
1F
  0
MLINESTYLE
  5
18
102
{ACAD_REACTORS
330
17
102
}
330
17
100
AcDbMlineStyle
  2
Standard
 70
     0
  3

 62
   256
 51
90.0
 52
90.0
 71
     2
 49
0.5
 62
   256
  6
BYLAYER
 49
-0.5
 62
   256
  6
BYLAYER
  0
ACDBPLACEHOLDER
  5
F
102
{ACAD_REACTORS
330
E
102
}
330
E
  0
TABLESTYLE
  5
2B
102
{ACAD_REACTORS
330
2A
102
}
330
2A
100
AcDbTableStyle
  3
Standard
 70
     0
 71
     0
 40
0.06
 41
0.06
280
     0
281
     0
  7
Standard
140
0.18
170
     2
 62
     0
 63
     7
283
     0
274
    -2
284
     1
 64
     0
275
    -2
285
     1
 65
     0
276
    -2
286
     1
 66
     0
277
    -2
287
     1
 67
     0
278
    -2
288
     1
 68
     0
279
    -2
289
     1
 69
     0
  7
Standard
140
0.25
170
     5
 62
     0
 63
     7
283
     0
274
    -2
284
     1
 64
     0
275
    -2
285
     1
 65
     0
276
    -2
286
     1
 66
     0
277
    -2
287
     1
 67
     0
278
    -2
288
     1
 68
     0
279
    -2
289
     1
 69
     0
  7
Standard
140
0.18
170
     5
 62
     0
 63
     7
283
     0
274
    -2
284
     1
 64
     0
275
    -2
285
     1
 65
     0
276
    -2
286
     1
 66
     0
277
    -2
287
     1
 67
     0
278
    -2
288
     1
 68
     0
279
    -2
289
     1
 69
     0
  0
DICTIONARYVAR
  5
2D
102
{ACAD_REACTORS
330
2C
102
}
330
2C
100
DictionaryVariables
280
     0
  1
Standard
  0
ENDSEC
  0
EOF
