  0
SECTION
  2
HEADER
  9
$ACADVER
  1
AC1024
  9
$ACADMAINTVER
 70
     6
  9
$DWGCODEPAGE
  3
ANSI_1252
  9
$INSBASE
 10
0.0
 20
0.0
 30
0.0
  9
$EXTMIN
 10
-3014.155782552098
 20
-10669.14270544697
 30
0.0
  9
$EXTMAX
 10
1154.584870682375
 20
1556.959453003801
 30
0.0
  9
$LIMMIN
 10
0.0
 20
0.0
  9
$LIMMAX
 10
12.0
 20
9.0
  9
$ORTHOMODE
 70
     0
  9
$REGENMODE
 70
     1
  9
$FILLMODE
 70
     1
  9
$QTEXTMODE
 70
     0
  9
$MIRRTEXT
 70
     1
  9
$LTSCALE
 40
1.0
  9
$ATTMODE
 70
     1
  9
$TEXTSIZE
 40
0.2
  9
$TRACEWID
 40
0.05
  9
$TEXTSTYLE
  7
Standard
  9
$CLAYER
  8
0
  9
$CELTYPE
  6
ByLayer
  9
$CECOLOR
 62
   256
  9
$CELTSCALE
 40
1.0
  9
$DISPSILH
 70
     0
  9
$DIMSCALE
 40
1.0
  9
$DIMASZ
 40
0.18
  9
$DIMEXO
 40
0.0625
  9
$DIMDLI
 40
0.38
  9
$DIMRND
 40
0.0
  9
$DIMDLE
 40
0.0
  9
$DIMEXE
 40
0.18
  9
$DIMTP
 40
0.0
  9
$DIMTM
 40
0.0
  9
$DIMTXT
 40
0.18
  9
$DIMCEN
 40
0.09
  9
$DIMTSZ
 40
0.0
  9
$DIMTOL
 70
     0
  9
$DIMLIM
 70
     0
  9
$DIMTIH
 70
     1
  9
$DIMTOH
 70
     1
  9
$DIMSE1
 70
     0
  9
$DIMSE2
 70
     0
  9
$DIMTAD
 70
     0
  9
$DIMZIN
 70
     0
  9
$DIMBLK
  1

  9
$DIMASO
 70
     1
  9
$DIMSHO
 70
     1
  9
$DIMPOST
  1

  9
$DIMAPOST
  1

  9
$DIMALT
 70
     0
  9
$DIMALTD
 70
     2
  9
$DIMALTF
 40
25.4
  9
$DIMLFAC
 40
1.0
  9
$DIMTOFL
 70
     0
  9
$DIMTVP
 40
0.0
  9
$DIMTIX
 70
     0
  9
$DIMSOXD
 70
     0
  9
$DIMSAH
 70
     0
  9
$DIMBLK1
  1

  9
$DIMBLK2
  1

  9
$DIMSTYLE
  2
Standard
  9
$DIMCLRD
 70
     0
  9
$DIMCLRE
 70
     0
  9
$DIMCLRT
 70
     0
  9
$DIMTFAC
 40
1.0
  9
$DIMGAP
 40
0.09
  9
$DIMJUST
 70
     0
  9
$DIMSD1
 70
     0
  9
$DIMSD2
 70
     0
  9
$DIMTOLJ
 70
     1
  9
$DIMTZIN
 70
     0
  9
$DIMALTZ
 70
     0
  9
$DIMALTTZ
 70
     0
  9
$DIMUPT
 70
     0
  9
$DIMDEC
 70
     4
  9
$DIMTDEC
 70
     4
  9
$DIMALTU
 70
     2
  9
$DIMALTTD
 70
     2
  9
$DIMTXSTY
  7
Standard
  9
$DIMAUNIT
 70
     0
  9
$DIMADEC
 70
     0
  9
$DIMALTRND
 40
0.0
  9
$DIMAZIN
 70
     0
  9
$DIMDSEP
 70
    46
  9
$DIMATFIT
 70
     3
  9
$DIMFRAC
 70
     0
  9
$DIMLDRBLK
  1

  9
$DIMLUNIT
 70
     2
  9
$DIMLWD
 70
    -2
  9
$DIMLWE
 70
    -2
  9
$DIMTMOVE
 70
     0
  9
$DIMFXL
 40
1.0
  9
$DIMFXLON
 70
     0
  9
$DIMJOGANG
 40
0.78539816339745
  9
$DIMTFILL
 70
     0
  9
$DIMTFILLCLR
 70
     0
  9
$DIMARCSYM
 70
     0
  9
$DIMLTYPE
  6

  9
$DIMLTEX1
  6

  9
$DIMLTEX2
  6

  9
$DIMTXTDIRECTION
 70
     0
  9
$LUNITS
 70
     2
  9
$LUPREC
 70
     4
  9
$SKETCHINC
 40
0.1
  9
$FILLETRAD
 40
0.5
  9
$AUNITS
 70
     0
  9
$AUPREC
 70
     0
  9
$MENU
  1
.
  9
$ELEVATION
 40
0.0
  9
$PELEVATION
 40
0.0
  9
$THICKNESS
 40
0.0
  9
$LIMCHECK
 70
     0
  9
$CHAMFERA
 40
0.5
  9
$CHAMFERB
 40
0.5
  9
$CHAMFERC
 40
1.0
  9
$CHAMFERD
 40
0.0
  9
$SKPOLY
 70
     0
  9
$TDCREATE
 40
2456902.478238148
  9
$TDUCREATE
 40
2456902.394904815
  9
$TDUPDATE
 40
2456902.47823816
  9
$TDUUPDATE
 40
2456902.394904826
  9
$TDINDWG
 40
0.0000000116
  9
$TDUSRTIMER
 40
0.0000000116
  9
$USRTIMER
 70
     1
  9
$ANGBASE
 50
0.0
  9
$ANGDIR
 70
     0
  9
$PDMODE
 70
     0
  9
$PDSIZE
 40
0.0
  9
$PLINEWID
 40
0.0
  9
$SPLFRAME
 70
     0
  9
$SPLINETYPE
 70
     6
  9
$SPLINESEGS
 70
     8
  9
$HANDSEED
  5
2E1
  9
$SURFTAB1
 70
     6
  9
$SURFTAB2
 70
     6
  9
$SURFTYPE
 70
     6
  9
$SURFU
 70
     6
  9
$SURFV
 70
     6
  9
$UCSBASE
  2

  9
$UCSNAME
  2

  9
$UCSORG
 10
0.0
 20
0.0
 30
0.0
  9
$UCSXDIR
 10
1.0
 20
0.0
 30
0.0
  9
$UCSYDIR
 10
0.0
 20
1.0
 30
0.0
  9
$UCSORTHOREF
  2

  9
$UCSORTHOVIEW
 70
     0
  9
$UCSORGTOP
 10
0.0
 20
0.0
 30
0.0
  9
$UCSORGBOTTOM
 10
0.0
 20
0.0
 30
0.0
  9
$UCSORGLEFT
 10
0.0
 20
0.0
 30
0.0
  9
$UCSORGRIGHT
 10
0.0
 20
0.0
 30
0.0
  9
$UCSORGFRONT
 10
0.0
 20
0.0
 30
0.0
  9
$UCSORGBACK
 10
0.0
 20
0.0
 30
0.0
  9
$PUCSBASE
  2

  9
$PUCSNAME
  2

  9
$PUCSORG
 10
0.0
 20
0.0
 30
0.0
  9
$PUCSXDIR
 10
1.0
 20
0.0
 30
0.0
  9
$PUCSYDIR
 10
0.0
 20
1.0
 30
0.0
  9
$PUCSORTHOREF
  2

  9
$PUCSORTHOVIEW
 70
     0
  9
$PUCSORGTOP
 10
0.0
 20
0.0
 30
0.0
  9
$PUCSORGBOTTOM
 10
0.0
 20
0.0
 30
0.0
  9
$PUCSORGLEFT
 10
0.0
 20
0.0
 30
0.0
  9
$PUCSORGRIGHT
 10
0.0
 20
0.0
 30
0.0
  9
$PUCSORGFRONT
 10
0.0
 20
0.0
 30
0.0
  9
$PUCSORGBACK
 10
0.0
 20
0.0
 30
0.0
  9
$USERI1
 70
     0
  9
$USERI2
 70
     0
  9
$USERI3
 70
     0
  9
$USERI4
 70
     0
  9
$USERI5
 70
     0
  9
$USERR1
 40
17.0
  9
$USERR2
 40
0.0
  9
$USERR3
 40
0.0
  9
$USERR4
 40
0.0
  9
$USERR5
 40
0.0
  9
$WORLDVIEW
 70
     1
  9
$SHADEDGE
 70
     3
  9
$SHADEDIF
 70
    70
  9
$TILEMODE
 70
     1
  9
$MAXACTVP
 70
    64
  9
$PINSBASE
 10
0.0
 20
0.0
 30
0.0
  9
$PLIMCHECK
 70
     0
  9
$PEXTMIN
 10
1.00000000000000E+20
 20
1.00000000000000E+20
 30
1.00000000000000E+20
  9
$PEXTMAX
 10
-1.00000000000000E+20
 20
-1.00000000000000E+20
 30
-1.00000000000000E+20
  9
$PLIMMIN
 10
0.0
 20
0.0
  9
$PLIMMAX
 10
12.0
 20
9.0
  9
$UNITMODE
 70
     0
  9
$VISRETAIN
 70
     1
  9
$PLINEGEN
 70
     0
  9
$PSLTSCALE
 70
     1
  9
$TREEDEPTH
 70
  3020
  9
$CMLSTYLE
  2
Standard
  9
$CMLJUST
 70
     0
  9
$CMLSCALE
 40
1.0
  9
$PROXYGRAPHICS
 70
     1
  9
$MEASUREMENT
 70
     1
  9
$CELWEIGHT
370
    -1
  9
$ENDCAPS
280
     0
  9
$JOINSTYLE
280
     0
  9
$LWDISPLAY
290
     0
  9
$INSUNITS
 70
     1
  9
$HYPERLINKBASE
  1

  9
$STYLESHEET
  1

  9
$XEDIT
290
     1
  9
$CEPSNTYPE
380
     0
  9
$PSTYLEMODE
290
     1
  9
$FINGERPRINTGUID
  2
{CBB33002-8EE7-497E-960C-E5D2355B3BD6}
  9
$VERSIONGUID
  2
{FAEB1C32-E019-11D5-929B-00C0DF256EC4}
  9
$EXTNAMES
290
     1
  9
$PSVPSCALE
 40
0.0
  9
$OLESTARTUP
290
     0
  9
$SORTENTS
280
   127
  9
$INDEXCTL
280
     0
  9
$HIDETEXT
280
     1
  9
$XCLIPFRAME
280
     2
  9
$HALOGAP
280
     0
  9
$OBSCOLOR
 70
   257
  9
$OBSLTYPE
280
     0
  9
$INTERSECTIONDISPLAY
280
     0
  9
$INTERSECTIONCOLOR
 70
   257
  9
$DIMASSOC
280
     2
  9
$PROJECTNAME
  1

  9
$CAMERADISPLAY
290
     0
  9
$LENSLENGTH
 40
50.0
  9
$CAMERAHEIGHT
 40
0.0
  9
$STEPSPERSEC
 40
2.0
  9
$STEPSIZE
 40
6.0
  9
$3DDWFPREC
 40
2.0
  9
$PSOLWIDTH
 40
0.25
  9
$PSOLHEIGHT
 40
4.0
  9
$LOFTANG1
 40
1.5707963267949
  9
$LOFTANG2
 40
1.5707963267949
  9
$LOFTMAG1
 40
0.0
  9
$LOFTMAG2
 40
0.0
  9
$LOFTPARAM
 70
     7
  9
$LOFTNORMALS
280
     1
  9
$LATITUDE
 40
37.795
  9
$LONGITUDE
 40
-122.394
  9
$NORTHDIRECTION
 40
0.0
  9
$TIMEZONE
 70
 -8000
  9
$LIGHTGLYPHDISPLAY
280
     1
  9
$TILEMODELIGHTSYNCH
280
     1
  9
$SOLIDHIST
280
     1
  9
$SHOWHIST
280
     1
  9
$DWFFRAME
280
     2
  9
$DGNFRAME
280
     2
  9
$REALWORLDSCALE
290
     1
  9
$INTERFERECOLOR
 62
   256
  9
$CSHADOW
280
     0
  9
$SHADOWPLANELOCATION
 40
0.0
  0
ENDSEC
  0
SECTION
  2
CLASSES
  0
CLASS
  1
ACDBDICTIONARYWDFLT
  2
AcDbDictionaryWithDefault
  3
ObjectDBX Classes
 90
        0
 91
        4
280
     0
281
     0
  0
CLASS
  1
VISUALSTYLE
  2
AcDbVisualStyle
  3
ObjectDBX Classes
 90
     4095
 91
        4
280
     0
281
     0
  0
CLASS
  1
MATERIAL
  2
AcDbMaterial
  3
ObjectDBX Classes
 90
     1153
 91
        4
280
     0
281
     0
  0
CLASS
  1

  2
exOdDbSpline
  3

 90
        0
 91
        4
280
     0
281
     1
  0
CLASS
  1

  2
exOdDbPolyline
  3

 90
        0
 91
        4
280
     0
281
     1
  0
ENDSEC
  0
SECTION
  2
TABLES
  0
TABLE
  2
VPORT
  5
8
330
0
100
AcDbSymbolTable
 70
     1
  0
VPORT
  5
29
330
8
100
AcDbSymbolTableRecord
100
AcDbViewportTableRecord
  2
*Active
 70
     0
 10
0.0
 20
0.0
 11
1.0
 21
1.0
 12
-929.7854559348616
 22
-4556.091626221584
 13
0.0
 23
0.0
 14
0.5
 24
0.5
 15
0.5
 25
0.5
 16
0.0
 26
0.0
 36
1.0
 17
0.0
 27
0.0
 37
0.0
 40
13448.71237429585
 41
1.60267857142857
 42
50.0
 43
0.0
 44
0.0
 50
0.0
 51
0.0
 71
     0
 72
   100
 73
     1
 74
     3
 75
     0
 76
     0
 77
     0
 78
     0
281
     0
 65
     1
110
0.0
120
0.0
130
0.0
111
1.0
121
0.0
131
0.0
112
0.0
122
1.0
132
0.0
 79
     0
146
0.0
 60
     3
 61
     5
292
     1
282
     1
141
0.0
142
0.0
 63
   250
  0
ENDTAB
  0
TABLE
  2
LTYPE
  5
5
330
0
100
AcDbSymbolTable
 70
    38
  0
LTYPE
  5
14
330
5
100
AcDbSymbolTableRecord
100
AcDbLinetypeTableRecord
  2
ByBlock
 70
     0
  3

 72
    65
 73
     0
 40
0.0
  0
LTYPE
  5
15
330
5
100
AcDbSymbolTableRecord
100
AcDbLinetypeTableRecord
  2
ByLayer
 70
     0
  3

 72
    65
 73
     0
 40
0.0
  0
LTYPE
  5
16
330
5
100
AcDbSymbolTableRecord
100
AcDbLinetypeTableRecord
  2
Continuous
 70
     0
  3
Solid line
 72
    65
 73
     0
 40
0.0
  0
LTYPE
  5
3F
330
5
100
AcDbSymbolTableRecord
100
AcDbLinetypeTableRecord
  2
DASHED
 70
     0
  3
Dashed
 72
    65
 73
     2
 40
15.0
 49
7.0
 74
     0
 49
-8.0
 74
     0
  0
LTYPE
  5
40
330
5
100
AcDbSymbolTableRecord
100
AcDbLinetypeTableRecord
  2
DOTTED
 70
     0
  3
Dotted
 72
    65
 73
     2
 40
1.0
 49
0.0
 74
     0
 49
-1.0
 74
     0
  0
LTYPE
  5
41
330
5
100
AcDbSymbolTableRecord
100
AcDbLinetypeTableRecord
  2
DOT_CENTER
 70
     0
  3
Dot_Center
 72
    65
 73
     4
 40
14.0
 49
12.0
 74
     0
 49
-1.0
 74
     0
 49
0.0
 74
     0
 49
-1.0
 74
     0
  0
LTYPE
  5
42
330
5
100
AcDbSymbolTableRecord
100
AcDbLinetypeTableRecord
  2
LONG_DASHED
 70
     0
  3
Long_Dashed
 72
    65
 73
     2
 40
15.0
 49
10.0
 74
     0
 49
-5.0
 74
     0
  0
LTYPE
  5
43
330
5
100
AcDbSymbolTableRecord
100
AcDbLinetypeTableRecord
  2
DASH_CENTER
 70
     0
  3
Dash_Center
 72
    65
 73
     4
 40
14.0
 49
11.0
 74
     0
 49
-1.0
 74
     0
 49
1.0
 74
     0
 49
-1.0
 74
     0
  0
LTYPE
  5
44
330
5
100
AcDbSymbolTableRecord
100
AcDbLinetypeTableRecord
  2
PHANTOM
 70
     0
  3
Phantom
 72
    65
 73
     6
 40
13.0
 49
10.0
 74
     0
 49
-1.0
 74
     0
 49
0.0
 74
     0
 49
-1.0
 74
     0
 49
0.0
 74
     0
 49
-1.0
 74
     0
  0
LTYPE
  5
45
330
5
100
AcDbSymbolTableRecord
100
AcDbLinetypeTableRecord
  2
CENTER_DASH_DASH
 70
     0
  3
Center_Dash_Dash
 72
    65
 73
     6
 40
14.0
 49
9.0
 74
     0
 49
-1.0
 74
     0
 49
1.0
 74
     0
 49
-1.0
 74
     0
 49
1.0
 74
     0
 49
-1.0
 74
     0
  0
LTYPE
  5
46
330
5
100
AcDbSymbolTableRecord
100
AcDbLinetypeTableRecord
  2
AI_Linetype_1
 70
     0
  3
AI_Linetype_1
 72
    65
 73
     2
 40
2.0
 49
1.0
 74
     0
 49
-1.0
 74
     0
  0
LTYPE
  5
47
330
5
100
AcDbSymbolTableRecord
100
AcDbLinetypeTableRecord
  2
AI_Linetype_2
 70
     0
  3
AI_Linetype_2
 72
    65
 73
     2
 40
2.0
 49
1.0
 74
     0
 49
-1.0
 74
     0
  0
LTYPE
  5
48
330
5
100
AcDbSymbolTableRecord
100
AcDbLinetypeTableRecord
  2
AI_Linetype_3
 70
     0
  3
AI_Linetype_3
 72
    65
 73
     2
 40
2.0
 49
1.0
 74
     0
 49
-1.0
 74
     0
  0
LTYPE
  5
49
330
5
100
AcDbSymbolTableRecord
100
AcDbLinetypeTableRecord
  2
AI_Linetype_4
 70
     0
  3
AI_Linetype_4
 72
    65
 73
     2
 40
2.0
 49
1.0
 74
     0
 49
-1.0
 74
     0
  0
LTYPE
  5
4A
330
5
100
AcDbSymbolTableRecord
100
AcDbLinetypeTableRecord
  2
AI_Linetype_5
 70
     0
  3
AI_Linetype_5
 72
    65
 73
     2
 40
2.0
 49
1.0
 74
     0
 49
-1.0
 74
     0
  0
LTYPE
  5
4B
330
5
100
AcDbSymbolTableRecord
100
AcDbLinetypeTableRecord
  2
AI_Linetype_6
 70
     0
  3
AI_Linetype_6
 72
    65
 73
     2
 40
2.0
 49
1.0
 74
     0
 49
-1.0
 74
     0
  0
LTYPE
  5
4C
330
5
100
AcDbSymbolTableRecord
100
AcDbLinetypeTableRecord
  2
AI_Linetype_7
 70
     0
  3
AI_Linetype_7
 72
    65
 73
     2
 40
2.0
 49
1.0
 74
     0
 49
-1.0
 74
     0
  0
LTYPE
  5
4D
330
5
100
AcDbSymbolTableRecord
100
AcDbLinetypeTableRecord
  2
AI_Linetype_8
 70
     0
  3
AI_Linetype_8
 72
    65
 73
     2
 40
2.0
 49
1.0
 74
     0
 49
-1.0
 74
     0
  0
LTYPE
  5
4E
330
5
100
AcDbSymbolTableRecord
100
AcDbLinetypeTableRecord
  2
AI_Linetype_9
 70
     0
  3
AI_Linetype_9
 72
    65
 73
     2
 40
2.0
 49
1.0
 74
     0
 49
-1.0
 74
     0
  0
LTYPE
  5
4F
330
5
100
AcDbSymbolTableRecord
100
AcDbLinetypeTableRecord
  2
AI_Linetype_10
 70
     0
  3
AI_Linetype_10
 72
    65
 73
     2
 40
2.0
 49
1.0
 74
     0
 49
-1.0
 74
     0
  0
LTYPE
  5
50
330
5
100
AcDbSymbolTableRecord
100
AcDbLinetypeTableRecord
  2
AI_Linetype_11
 70
     0
  3
AI_Linetype_11
 72
    65
 73
     2
 40
2.0
 49
1.0
 74
     0
 49
-1.0
 74
     0
  0
LTYPE
  5
51
330
5
100
AcDbSymbolTableRecord
100
AcDbLinetypeTableRecord
  2
AI_Linetype_12
 70
     0
  3
AI_Linetype_12
 72
    65
 73
     2
 40
2.0
 49
1.0
 74
     0
 49
-1.0
 74
     0
  0
LTYPE
  5
52
330
5
100
AcDbSymbolTableRecord
100
AcDbLinetypeTableRecord
  2
AI_Linetype_13
 70
     0
  3
AI_Linetype_13
 72
    65
 73
     2
 40
2.0
 49
1.0
 74
     0
 49
-1.0
 74
     0
  0
LTYPE
  5
53
330
5
100
AcDbSymbolTableRecord
100
AcDbLinetypeTableRecord
  2
AI_Linetype_14
 70
     0
  3
AI_Linetype_14
 72
    65
 73
     2
 40
2.0
 49
1.0
 74
     0
 49
-1.0
 74
     0
  0
LTYPE
  5
54
330
5
100
AcDbSymbolTableRecord
100
AcDbLinetypeTableRecord
  2
AI_Linetype_15
 70
     0
  3
AI_Linetype_15
 72
    65
 73
     2
 40
2.0
 49
1.0
 74
     0
 49
-1.0
 74
     0
  0
LTYPE
  5
55
330
5
100
AcDbSymbolTableRecord
100
AcDbLinetypeTableRecord
  2
AI_Linetype_16
 70
     0
  3
AI_Linetype_16
 72
    65
 73
     2
 40
2.0
 49
1.0
 74
     0
 49
-1.0
 74
     0
  0
LTYPE
  5
56
330
5
100
AcDbSymbolTableRecord
100
AcDbLinetypeTableRecord
  2
AI_Linetype_17
 70
     0
  3
AI_Linetype_17
 72
    65
 73
     2
 40
2.0
 49
1.0
 74
     0
 49
-1.0
 74
     0
  0
LTYPE
  5
57
330
5
100
AcDbSymbolTableRecord
100
AcDbLinetypeTableRecord
  2
AI_Linetype_18
 70
     0
  3
AI_Linetype_18
 72
    65
 73
     2
 40
2.0
 49
1.0
 74
     0
 49
-1.0
 74
     0
  0
LTYPE
  5
58
330
5
100
AcDbSymbolTableRecord
100
AcDbLinetypeTableRecord
  2
AI_Linetype_19
 70
     0
  3
AI_Linetype_19
 72
    65
 73
     2
 40
2.0
 49
1.0
 74
     0
 49
-1.0
 74
     0
  0
LTYPE
  5
59
330
5
100
AcDbSymbolTableRecord
100
AcDbLinetypeTableRecord
  2
AI_Linetype_20
 70
     0
  3
AI_Linetype_20
 72
    65
 73
     2
 40
2.0
 49
1.0
 74
     0
 49
-1.0
 74
     0
  0
LTYPE
  5
5A
330
5
100
AcDbSymbolTableRecord
100
AcDbLinetypeTableRecord
  2
AI_Linetype_21
 70
     0
  3
AI_Linetype_21
 72
    65
 73
     2
 40
2.0
 49
1.0
 74
     0
 49
-1.0
 74
     0
  0
LTYPE
  5
5B
330
5
100
AcDbSymbolTableRecord
100
AcDbLinetypeTableRecord
  2
AI_Linetype_22
 70
     0
  3
AI_Linetype_22
 72
    65
 73
     2
 40
2.0
 49
1.0
 74
     0
 49
-1.0
 74
     0
  0
LTYPE
  5
5C
330
5
100
AcDbSymbolTableRecord
100
AcDbLinetypeTableRecord
  2
AI_Linetype_23
 70
     0
  3
AI_Linetype_23
 72
    65
 73
     2
 40
2.0
 49
1.0
 74
     0
 49
-1.0
 74
     0
  0
LTYPE
  5
5D
330
5
100
AcDbSymbolTableRecord
100
AcDbLinetypeTableRecord
  2
AI_Linetype_24
 70
     0
  3
AI_Linetype_24
 72
    65
 73
     2
 40
2.0
 49
1.0
 74
     0
 49
-1.0
 74
     0
  0
LTYPE
  5
5E
330
5
100
AcDbSymbolTableRecord
100
AcDbLinetypeTableRecord
  2
AI_Linetype_25
 70
     0
  3
AI_Linetype_25
 72
    65
 73
     2
 40
2.0
 49
1.0
 74
     0
 49
-1.0
 74
     0
  0
LTYPE
  5
5F
330
5
100
AcDbSymbolTableRecord
100
AcDbLinetypeTableRecord
  2
AI_Linetype_26
 70
     0
  3
AI_Linetype_26
 72
    65
 73
     2
 40
2.0
 49
1.0
 74
     0
 49
-1.0
 74
     0
  0
LTYPE
  5
60
330
5
100
AcDbSymbolTableRecord
100
AcDbLinetypeTableRecord
  2
AI_Linetype_27
 70
     0
  3
AI_Linetype_27
 72
    65
 73
     2
 40
2.0
 49
1.0
 74
     0
 49
-1.0
 74
     0
  0
LTYPE
  5
61
330
5
100
AcDbSymbolTableRecord
100
AcDbLinetypeTableRecord
  2
AI_Linetype_28
 70
     0
  3
AI_Linetype_28
 72
    65
 73
     2
 40
2.0
 49
1.0
 74
     0
 49
-1.0
 74
     0
  0
LTYPE
  5
62
330
5
100
AcDbSymbolTableRecord
100
AcDbLinetypeTableRecord
  2
AI_Linetype_29
 70
     0
  3
AI_Linetype_29
 72
    65
 73
     2
 40
2.0
 49
1.0
 74
     0
 49
-1.0
 74
     0
  0
LTYPE
  5
63
330
5
100
AcDbSymbolTableRecord
100
AcDbLinetypeTableRecord
  2
AI_Linetype_30
 70
     0
  3
AI_Linetype_30
 72
    65
 73
     2
 40
2.0
 49
1.0
 74
     0
 49
-1.0
 74
     0
  0
ENDTAB
  0
TABLE
  2
LAYER
  5
2
330
0
100
AcDbSymbolTable
 70
     5
  0
LAYER
  5
10
330
2
100
AcDbSymbolTableRecord
100
AcDbLayerTableRecord
  2
0
 70
     0
 62
     7
  6
Continuous
370
    -3
390
F
347
3E
  0
LAYER
  5
64
330
2
100
AcDbSymbolTableRecord
100
AcDbLayerTableRecord
  2
$DDT_AUDIT_GENERATED__3B_
 70
     0
 62
     7
  6
Continuous
370
    -3
390
F
347
3E
  0
LAYER
  5
65
330
2
100
AcDbSymbolTableRecord
100
AcDbLayerTableRecord
  2
$DDT_AUDIT_GENERATED__545_
 70
     0
 62
     7
  6
Continuous
370
    -3
390
F
347
3E
  0
LAYER
  5
66
330
2
100
AcDbSymbolTableRecord
100
AcDbLayerTableRecord
  2
$DDT_AUDIT_GENERATED__93_
 70
     0
 62
     7
  6
Continuous
370
    -3
390
F
347
3E
  0
LAYER
  5
67
330
2
100
AcDbSymbolTableRecord
100
AcDbLayerTableRecord
  2
1
 70
     0
 62
     7
  6
Continuous
370
    -3
390
F
347
3E
  0
ENDTAB
  0
TABLE
  2
STYLE
  5
3
330
0
100
AcDbSymbolTable
 70
     1
  0
STYLE
  5
11
330
3
100
AcDbSymbolTableRecord
100
AcDbTextStyleTableRecord
  2
Standard
 70
     0
 40
0.0
 41
1.0
 50
0.0
 71
     0
 42
0.2
  3
txt
  4

  0
ENDTAB
  0
TABLE
  2
VIEW
  5
6
330
0
100
AcDbSymbolTable
 70
     0
  0
ENDTAB
  0
TABLE
  2
UCS
  5
7
330
0
100
AcDbSymbolTable
 70
     0
  0
ENDTAB
  0
TABLE
  2
APPID
  5
9
330
0
100
AcDbSymbolTable
 70
     1
  0
APPID
  5
12
330
9
100
AcDbSymbolTableRecord
100
AcDbRegAppTableRecord
  2
ACAD
 70
     0
  0
ENDTAB
  0
TABLE
  2
DIMSTYLE
  5
A
330
0
100
AcDbSymbolTable
 70
     1
100
AcDbDimStyleTable
  0
DIMSTYLE
105
27
330
A
100
AcDbSymbolTableRecord
100
AcDbDimStyleTableRecord
  2
Standard
 70
     0
340
11
  0
ENDTAB
  0
TABLE
  2
BLOCK_RECORD
  5
1
330
0
100
AcDbSymbolTable
 70
     1
  0
BLOCK_RECORD
  5
1F
330
1
100
AcDbSymbolTableRecord
100
AcDbBlockTableRecord
  2
*Model_Space
340
22
 70
     0
280
     1
281
     0
  0
BLOCK_RECORD
  5
1B
330
1
100
AcDbSymbolTableRecord
100
AcDbBlockTableRecord
  2
*Paper_Space
340
1E
 70
     0
280
     1
281
     0
  0
BLOCK_RECORD
  5
23
330
1
100
AcDbSymbolTableRecord
100
AcDbBlockTableRecord
  2
*Paper_Space0
340
26
 70
     0
280
     1
281
     0
  0
ENDTAB
  0
ENDSEC
  0
SECTION
  2
BLOCKS
  0
BLOCK
  5
20
330
1F
100
AcDbEntity
  8
0
100
AcDbBlockBegin
  2
*Model_Space
 70
     0
 10
0.0
 20
0.0
 30
0.0
  3
*Model_Space
  1

  0
ENDBLK
  5
21
330
1F
100
AcDbEntity
  8
0
100
AcDbBlockEnd
  0
BLOCK
  5
1C
330
1B
100
AcDbEntity
 67
     1
  8
0
100
AcDbBlockBegin
  2
*Paper_Space
 70
     0
 10
0.0
 20
0.0
 30
0.0
  3
*Paper_Space
  1

  0
ENDBLK
  5
1D
330
1B
100
AcDbEntity
 67
     1
  8
0
100
AcDbBlockEnd
  0
BLOCK
  5
24
330
23
100
AcDbEntity
  8
0
100
AcDbBlockBegin
  2
*Paper_Space0
 70
     0
 10
0.0
 20
0.0
 30
0.0
  3
*Paper_Space0
  1

  0
ENDBLK
  5
25
330
23
100
AcDbEntity
  8
0
100
AcDbBlockEnd
  0
ENDSEC
  0
SECTION
  2
ENTITIES
  0
LINE
  5
68
330
1F
100
AcDbEntity
  8
1
  6
Continuous
 62
     7
100
AcDbLine
 10
-1447.367851653261
 20
-10669.14270544697
 30
0.0
 11
-1447.367851653261
 21
-9919.142705446968
 31
0.0
  0
LINE
  5
69
330
1F
100
AcDbEntity
  8
1
  6
Continuous
 62
     7
100
AcDbLine
 10
-885.3592345364341
 20
-10669.14270544697
 30
0.0
 11
-1447.367851653261
 21
-10669.14270544697
 31
0.0
  0
LINE
  5
6A
330
1F
100
AcDbEntity
  8
1
  6
Continuous
 62
     7
100
AcDbLine
 10
-885.3592345364341
 20
-9919.142705446968
 30
0.0
 11
-885.3592345364341
 21
-10669.14270544697
 31
0.0
  0
LINE
  5
6B
330
1F
100
AcDbEntity
  8
1
  6
Continuous
 62
     7
100
AcDbLine
 10
-1447.367851653261
 20
-9919.142705446968
 30
0.0
 11
-885.3592345364341
 21
-9919.142705446968
 31
0.0
  0
LINE
  5
18D
330
1F
100
AcDbEntity
  8
1
  6
Continuous
 62
     7
100
AcDbLine
 10
-2791.631930837208
 20
-5812.551762175729
 30
0.0
 11
-640.7495363807489
 21
-5812.551762175729
 31
0.0
  0
LINE
  5
18E
330
1F
100
AcDbEntity
  8
1
  6
Continuous
 62
     7
100
AcDbLine
 10
-640.7495363807489
 20
-6641.021810630413
 30
0.0
 11
-640.7495363807489
 21
-5812.551762175729
 31
0.0
  0
LINE
  5
18F
330
1F
100
AcDbEntity
  8
1
  6
Continuous
 62
     7
100
AcDbLine
 10
-640.7495363807489
 20
-6641.021810630413
 30
0.0
 11
-2791.631930837208
 21
-6641.021810630413
 31
0.0
  0
LINE
  5
190
330
1F
100
AcDbEntity
  8
1
  6
Continuous
 62
     7
100
AcDbLine
 10
-2791.631930837208
 20
-6641.021810630413
 30
0.0
 11
-2791.631930837208
 21
-5812.551762175729
 31
0.0
  0
LINE
  5
191
330
1F
100
AcDbEntity
  8
1
  6
Continuous
 62
     7
100
AcDbLine
 10
-640.7495363807489
 20
-5995.84689393669
 30
0.0
 11
-763.8941971219856
 21
-5995.84689393669
 31
0.0
  0
LINE
  5
192
330
1F
100
AcDbEntity
  8
1
  6
Continuous
 62
     7
100
AcDbLine
 10
-763.8941971219856
 20
-5995.84689393669
 30
0.0
 11
-763.8941971219856
 21
-6641.021810630413
 31
0.0
  0
LINE
  5
193
330
1F
100
AcDbEntity
  8
1
  6
Continuous
 62
     7
100
AcDbLine
 10
-2791.631930837208
 20
-5995.84689393669
 30
0.0
 11
-2668.470640162042
 21
-5995.84689393669
 31
0.0
  0
LINE
  5
194
330
1F
100
AcDbEntity
  8
1
  6
Continuous
 62
     7
100
AcDbLine
 10
-2668.470640162042
 20
-5995.84689393669
 30
0.0
 11
-2668.470640162042
 21
-6641.021810630413
 31
0.0
  0
LINE
  5
195
330
1F
100
AcDbEntity
  8
1
  6
DASHED
 62
     3
100
AcDbLine
 10
-429.5493754876088
 20
-5995.84689393669
 30
0.0
 11
-429.5493754876088
 21
-6641.021810630413
 31
0.0
  0
LINE
  5
196
330
1F
100
AcDbEntity
  8
1
  6
DASHED
 62
     3
100
AcDbLine
 10
-3013.841107991078
 20
-5995.84689393669
 30
0.0
 11
-3013.841107991078
 21
-6641.021810630413
 31
0.0
  0
LINE
  5
197
330
1F
100
AcDbEntity
  8
1
  6
DASHED
 62
     3
100
AcDbLine
 10
-640.7495363807489
 20
-5995.84689393669
 30
0.0
 11
-429.5493754876088
 21
-5995.84689393669
 31
0.0
  0
LINE
  5
198
330
1F
100
AcDbEntity
  8
1
  6
DASHED
 62
     3
100
AcDbLine
 10
-429.5493754876088
 20
-6641.021810630413
 30
0.0
 11
-640.7495363807489
 21
-6641.021810630413
 31
0.0
  0
LINE
  5
199
330
1F
100
AcDbEntity
  8
1
  6
DASHED
 62
     3
100
AcDbLine
 10
-3013.841107991078
 20
-5995.84689393669
 30
0.0
 11
-2791.631930837208
 21
-5995.84689393669
 31
0.0
  0
LINE
  5
19A
330
1F
100
AcDbEntity
  8
1
  6
DASHED
 62
     3
100
AcDbLine
 10
-2791.631930837208
 20
-6641.021810630413
 30
0.0
 11
-3013.841107991078
 21
-6641.021810630413
 31
0.0
  0
LINE
  5
19B
330
1F
100
AcDbEntity
  8
1
  6
DASHED
 62
     3
100
AcDbLine
 10
508.8220940544343
 20
-4670.302235831342
 30
0.0
 11
1153.846051902105
 21
-4670.302235831342
 31
0.0
  0
LINE
  5
19C
330
1F
100
AcDbEntity
  8
1
  6
Continuous
 62
     7
100
AcDbLine
 10
-2668.470640162042
 20
-6049.195721979617
 30
0.0
 11
-763.8941971219856
 21
-6049.195721979617
 31
0.0
  0
LINE
  5
19D
330
1F
100
AcDbEntity
  8
1
  6
Continuous
 62
     1
100
AcDbLine
 10
-1716.190733608978
 20
-5812.551762175729
 30
0.0
 11
-1716.190733608978
 21
-6641.021810630413
 31
0.0
  0
LINE
  5
19E
330
1F
100
AcDbEntity
  8
1
  6
Continuous
 62
     7
100
AcDbLine
 10
-2669.302136858472
 20
-2691.833673486927
 30
0.0
 11
-763.0793303594851
 21
-2691.833673486927
 31
0.0
  0
LINE
  5
19F
330
1F
100
AcDbEntity
  8
1
  6
Continuous
 62
     7
100
AcDbLine
 10
-763.0793303594851
 20
-3520.303721941614
 30
0.0
 11
-763.0793303594851
 21
-2691.833673486927
 31
0.0
  0
LINE
  5
1A0
330
1F
100
AcDbEntity
  8
1
  6
Continuous
 62
     7
100
AcDbLine
 10
-763.0793303594851
 20
-3520.303721941614
 30
0.0
 11
-2669.302136858472
 21
-3520.303721941614
 31
0.0
  0
LINE
  5
1A1
330
1F
100
AcDbEntity
  8
1
  6
Continuous
 62
     7
100
AcDbLine
 10
-2669.302136858472
 20
-3520.303721941614
 30
0.0
 11
-2669.302136858472
 21
-2691.833673486927
 31
0.0
  0
LINE
  5
1A2
330
1F
100
AcDbEntity
  8
1
  6
Continuous
 62
     7
100
AcDbLine
 10
-763.0793303594851
 20
-2875.128805247891
 30
0.0
 11
-886.2239911007214
 21
-2875.128805247891
 31
0.0
  0
LINE
  5
1A3
330
1F
100
AcDbEntity
  8
1
  6
Continuous
 62
     7
100
AcDbLine
 10
-886.2239911007214
 20
-2875.128805247891
 30
0.0
 11
-886.2239911007214
 21
-3520.303721941614
 31
0.0
  0
LINE
  5
1A4
330
1F
100
AcDbEntity
  8
1
  6
Continuous
 62
     7
100
AcDbLine
 10
-2669.302136858472
 20
-2875.128805247891
 30
0.0
 11
-2546.140846183306
 21
-2875.128805247891
 31
0.0
  0
LINE
  5
1A5
330
1F
100
AcDbEntity
  8
1
  6
Continuous
 62
     7
100
AcDbLine
 10
-2546.140846183306
 20
-2875.128805247891
 30
0.0
 11
-2546.140846183306
 21
-3520.303721941614
 31
0.0
  0
LINE
  5
1A6
330
1F
100
AcDbEntity
  8
1
  6
DASHED
 62
     3
100
AcDbLine
 10
-551.8791694663441
 20
-2875.128805247891
 30
0.0
 11
-551.8791694663441
 21
-3520.303721941614
 31
0.0
  0
LINE
  5
1A7
330
1F
100
AcDbEntity
  8
1
  6
DASHED
 62
     3
100
AcDbLine
 10
-2891.511314012342
 20
-2875.128805247891
 30
0.0
 11
-2891.511314012342
 21
-3520.303721941614
 31
0.0
  0
LINE
  5
1A8
330
1F
100
AcDbEntity
  8
1
  6
DASHED
 62
     3
100
AcDbLine
 10
-763.0793303594851
 20
-2875.128805247891
 30
0.0
 11
-551.8791694663441
 21
-2875.128805247891
 31
0.0
  0
LINE
  5
1A9
330
1F
100
AcDbEntity
  8
1
  6
DASHED
 62
     3
100
AcDbLine
 10
-551.8791694663441
 20
-3520.303721941614
 30
0.0
 11
-763.0793303594851
 21
-3520.303721941614
 31
0.0
  0
LINE
  5
1AA
330
1F
100
AcDbEntity
  8
1
  6
DASHED
 62
     3
100
AcDbLine
 10
-2891.511314012342
 20
-2875.128805247891
 30
0.0
 11
-2669.302136858472
 21
-2875.128805247891
 31
0.0
  0
LINE
  5
1AB
330
1F
100
AcDbEntity
  8
1
  6
DASHED
 62
     3
100
AcDbLine
 10
-2669.302136858472
 20
-3520.303721941614
 30
0.0
 11
-2891.511314012342
 21
-3520.303721941614
 31
0.0
  0
LINE
  5
1AC
330
1F
100
AcDbEntity
  8
1
  6
Continuous
 62
     7
100
AcDbLine
 10
-2546.140846183306
 20
-2928.477633290821
 30
0.0
 11
-886.2239911007214
 21
-2928.477633290821
 31
0.0
  0
LINE
  5
1AD
330
1F
100
AcDbEntity
  8
1
  6
Continuous
 62
     1
100
AcDbLine
 10
-1716.190733608978
 20
-2691.833673486927
 30
0.0
 11
-1716.190733608978
 21
-3520.303721941614
 31
0.0
  0
LINE
  5
1AE
330
1F
100
AcDbEntity
  8
1
  6
Continuous
 62
     7
100
AcDbLine
 10
-2546.988972813665
 20
89.93909779280875
 30
0.0
 11
-885.3758644703635
 21
89.93909779280875
 31
0.0
  0
LINE
  5
1AF
330
1F
100
AcDbEntity
  8
1
  6
Continuous
 62
     7
100
AcDbLine
 10
-885.3758644703635
 20
-738.5309506618723
 30
0.0
 11
-885.3758644703635
 21
89.93909779280875
 31
0.0
  0
LINE
  5
1B0
330
1F
100
AcDbEntity
  8
1
  6
Continuous
 62
     7
100
AcDbLine
 10
-885.3758644703635
 20
-738.5309506618723
 30
0.0
 11
-2546.988972813665
 21
-738.5309506618723
 31
0.0
  0
LINE
  5
1B1
330
1F
100
AcDbEntity
  8
1
  6
Continuous
 62
     7
100
AcDbLine
 10
-2546.988972813665
 20
-738.5309506618723
 30
0.0
 11
-2546.988972813665
 21
89.93909779280875
 31
0.0
  0
LINE
  5
1B2
330
1F
100
AcDbEntity
  8
1
  6
Continuous
 62
     7
100
AcDbLine
 10
-885.3758644703635
 20
-93.35603396814986
 30
0.0
 11
-1008.5205252116
 21
-93.35603396814986
 31
0.0
  0
LINE
  5
1B3
330
1F
100
AcDbEntity
  8
1
  6
Continuous
 62
     7
100
AcDbLine
 10
-1008.5205252116
 20
-93.35603396814986
 30
0.0
 11
-1008.5205252116
 21
-738.5309506618723
 31
0.0
  0
LINE
  5
1B4
330
1F
100
AcDbEntity
  8
1
  6
Continuous
 62
     7
100
AcDbLine
 10
-2546.988972813665
 20
-93.35603396814986
 30
0.0
 11
-2423.8276821385
 21
-93.35603396814986
 31
0.0
  0
LINE
  5
1B5
330
1F
100
AcDbEntity
  8
1
  6
Continuous
 62
     7
100
AcDbLine
 10
-2423.8276821385
 20
-93.35603396814986
 30
0.0
 11
-2423.8276821385
 21
-738.5309506618723
 31
0.0
  0
LINE
  5
1B6
330
1F
100
AcDbEntity
  8
1
  6
DASHED
 62
     3
100
AcDbLine
 10
-674.1757035772225
 20
-93.35603396814986
 30
0.0
 11
-674.1757035772225
 21
-738.5309506618723
 31
0.0
  0
LINE
  5
1B7
330
1F
100
AcDbEntity
  8
1
  6
DASHED
 62
     3
100
AcDbLine
 10
-2769.198149967535
 20
-93.35603396814986
 30
0.0
 11
-2769.198149967535
 21
-738.5309506618723
 31
0.0
  0
LINE
  5
1B8
330
1F
100
AcDbEntity
  8
1
  6
DASHED
 62
     3
100
AcDbLine
 10
-885.3758644703635
 20
-93.35603396814986
 30
0.0
 11
-674.1757035772225
 21
-93.35603396814986
 31
0.0
  0
LINE
  5
1B9
330
1F
100
AcDbEntity
  8
1
  6
DASHED
 62
     3
100
AcDbLine
 10
-674.1757035772225
 20
-738.5309506618723
 30
0.0
 11
-885.3758644703635
 21
-738.5309506618723
 31
0.0
  0
LINE
  5
1BA
330
1F
100
AcDbEntity
  8
1
  6
DASHED
 62
     3
100
AcDbLine
 10
-2769.198149967535
 20
-93.35603396814986
 30
0.0
 11
-2546.988972813665
 21
-93.35603396814986
 31
0.0
  0
LINE
  5
1BB
330
1F
100
AcDbEntity
  8
1
  6
DASHED
 62
     3
100
AcDbLine
 10
-2546.988972813665
 20
-738.5309506618723
 30
0.0
 11
-2769.198149967535
 21
-738.5309506618723
 31
0.0
  0
LINE
  5
1BC
330
1F
100
AcDbEntity
  8
1
  6
Continuous
 62
     7
100
AcDbLine
 10
-2423.8276821385
 20
-146.7048620110782
 30
0.0
 11
-1008.5205252116
 21
-146.7048620110782
 31
0.0
  0
LINE
  5
1BD
330
1F
100
AcDbEntity
  8
1
  6
Continuous
 62
     1
100
AcDbLine
 10
-1716.190733608978
 20
89.93909779280875
 30
0.0
 11
-1716.190733608978
 21
-738.5309506618723
 31
0.0
  0
SPLINE
  5
1BE
330
1F
100
AcDbEntity
  8
$DDT_AUDIT_GENERATED__3B_
  6
Continuous
 62
     7
100
AcDbSpline
210
0.0
220
0.0
230
1.0
 70
     8
 71
     3
 72
     9
 73
     5
 74
     3
 42
0.0000000001
 43
0.0000000001
 44
0.00000001
 40
0.0
 40
0.0
 40
0.0
 40
0.0
 40
26.89394988255075
 40
53.78787535651068
 40
53.78787535651068
 40
53.78787535651068
 40
53.78787535651068
 10
-763.8941971219856
 20
-4681.510811299214
 30
0.0
 10
-771.8277852696891
 20
-4677.090102806231
 30
0.0
 10
-787.694954364677
 20
-4668.248689832439
 30
0.0
 10
-805.8082839368799
 20
-4666.890411128625
 30
0.0
 10
-814.8649446131253
 20
-4666.211272084906
 30
0.0
 11
-763.8941971219856
 21
-4681.510811299214
 31
0.0
 11
-788.2565021940463
 21
-4670.119471085657
 31
0.0
 11
-814.8649446131253
 21
-4666.211272084906
 31
0.0
  0
SPLINE
  5
1BF
330
1F
100
AcDbEntity
  8
$DDT_AUDIT_GENERATED__3B_
  6
Continuous
 62
     7
100
AcDbSpline
210
0.0
220
0.0
230
1.0
 70
     8
 71
     3
 72
     9
 73
     5
 74
     3
 42
0.0000000001
 43
0.0000000001
 44
0.00000001
 40
0.0
 40
0.0
 40
0.0
 40
0.0
 40
26.89394988254973
 40
53.78787535651025
 40
53.78787535651025
 40
53.78787535651025
 40
53.78787535651025
 10
-886.2073611667934
 20
-1790.230498473904
 30
0.0
 10
-894.1409493144965
 20
-1785.809789980921
 30
0.0
 10
-910.0081184094843
 20
-1776.96837700713
 30
0.0
 10
-928.1214479816871
 20
-1775.610098303315
 30
0.0
 10
-937.1781086579326
 20
-1774.930959259596
 30
0.0
 11
-886.2073611667934
 21
-1790.230498473904
 31
0.0
 11
-910.5696662388532
 21
-1778.839158260348
 31
0.0
 11
-937.1781086579326
 21
-1774.930959259596
 31
0.0
  0
SPLINE
  5
1C0
330
1F
100
AcDbEntity
  8
$DDT_AUDIT_GENERATED__3B_
  6
Continuous
 62
     7
100
AcDbSpline
210
0.0
220
0.0
230
1.0
 70
     8
 71
     3
 72
     9
 73
     5
 74
     3
 42
0.0000000001
 43
0.0000000001
 44
0.00000001
 40
0.0
 40
0.0
 40
0.0
 40
0.0
 40
26.89381411708198
 40
53.7873546942587
 40
53.7873546942587
 40
53.7873546942587
 40
53.7873546942587
 10
-1008.5205252116
 20
1101.016554483549
 30
0.0
 10
-1016.454409928036
 20
1105.436422464823
 30
0.0
 10
-1032.322098664505
 20
1114.276113472413
 30
0.0
 10
-1050.434912061383
 20
1115.636102594816
 30
0.0
 10
-1059.49127270274
 20
1116.316093697851
 30
0.0
 11
-1008.5205252116
 21
1101.016554483549
 31
0.0
 11
-1032.883466234906
 21
1112.406213936714
 31
0.0
 11
-1059.49127270274
 21
1116.316093697851
 31
0.0
  0
SPLINE
  5
1C1
330
1F
100
AcDbEntity
  8
$DDT_AUDIT_GENERATED__3B_
  6
Continuous
 62
     7
100
AcDbSpline
210
0.0
220
0.0
230
1.0
 70
     8
 71
     3
 72
     9
 73
     5
 74
     3
 42
0.0000000001
 43
0.0000000001
 44
0.00000001
 40
0.0
 40
0.0
 40
0.0
 40
0.0
 40
26.89392547395322
 40
53.78787535650994
 40
53.78787535650994
 40
53.78787535650994
 40
53.78787535650994
 10
-2372.890194515217
 20
1116.316093697851
 30
0.0
 10
-2381.946855191461
 20
1115.636954654135
 30
0.0
 10
-2400.060184763663
 20
1114.278675950323
 30
0.0
 10
-2415.927353858652
 20
1105.437262976533
 30
0.0
 10
-2423.860942006357
 20
1101.016554483549
 30
0.0
 11
-2372.890194515217
 21
1116.316093697851
 31
0.0
 11
-2399.49863693429
 21
1112.407894697106
 31
0.0
 11
-2423.860942006357
 21
1101.016554483549
 31
0.0
  0
SPLINE
  5
1C2
330
1F
100
AcDbEntity
  8
$DDT_AUDIT_GENERATED__3B_
  6
Continuous
 62
     7
100
AcDbSpline
210
0.0
220
0.0
230
1.0
 70
     8
 71
     3
 72
     9
 73
     5
 74
     3
 42
0.0000000001
 43
0.0000000001
 44
0.00000001
 40
0.0
 40
0.0
 40
0.0
 40
0.0
 40
26.88642428726525
 40
53.7726379630545
 40
53.7726379630545
 40
53.7726379630545
 40
53.7726379630545
 10
-2495.203358560024
 20
-1774.930959259596
 30
0.0
 10
-2504.257713531917
 20
-1775.60929597576
 30
0.0
 10
-2522.366352549536
 20
-1776.965964094423
 30
0.0
 10
-2538.227122301979
 20
-1785.808998559258
 30
0.0
 10
-2546.157476117235
 20
-1790.230498473904
 30
0.0
 11
-2495.203358560024
 21
-1774.930959259596
 31
0.0
 11
-2521.804451757284
 21
-1778.8375756556
 31
0.0
 11
-2546.157476117235
 21
-1790.230498473904
 31
0.0
  0
SPLINE
  5
1C3
330
1F
100
AcDbEntity
  8
$DDT_AUDIT_GENERATED__3B_
  6
Continuous
 62
     7
100
AcDbSpline
210
0.0
220
0.0
230
1.0
 70
     8
 71
     3
 72
     9
 73
     5
 74
     3
 42
0.0000000001
 43
0.0000000001
 44
0.00000001
 40
0.0
 40
0.0
 40
0.0
 40
0.0
 40
26.88565367329568
 40
53.77159569064941
 40
53.77159569064941
 40
53.77159569064941
 40
53.77159569064941
 10
-2617.53315253876
 20
-4666.211272084906
 30
0.0
 10
-2626.586906962754
 20
-4666.891313528955
 30
0.0
 10
-2644.694512910716
 20
-4668.251403710382
 30
0.0
 10
-2660.556322681837
 20
-4677.090992969173
 30
0.0
 10
-2668.487270095971
 20
-4681.510811299214
 30
0.0
 11
-2617.53315253876
 21
-4666.211272084906
 31
0.0
 11
-2644.132972787928
 21
-4670.121251132467
 31
0.0
 11
-2668.487270095971
 21
-4681.510811299214
 31
0.0
  0
SPLINE
  5
1C4
330
1F
100
AcDbEntity
  8
$DDT_AUDIT_GENERATED__3B_
  6
Continuous
 62
     7
100
AcDbSpline
210
0.0
220
0.0
230
1.0
 70
     8
 71
     3
 72
     9
 73
     5
 74
     3
 42
0.0000000001
 43
0.0000000001
 44
0.00000001
 40
0.0
 40
0.0
 40
0.0
 40
0.0
 40
7.475478180005098
 40
14.95098364290543
 40
14.95098364290543
 40
14.95098364290543
 40
14.95098364290543
 10
363.8980321134568
 20
-4228.045772934318
 30
0.0
 10
361.505935709589
 20
-4227.305251295594
 30
0.0
 10
356.7217341715336
 20
-4225.824205315498
 30
0.0
 10
351.7164480714364
 20
-4225.653343728403
 30
0.0
 10
349.2138004545077
 20
-4225.567912778959
 30
0.0
 11
363.8980321134568
 21
-4228.045772934318
 31
0.0
 11
356.6664719630629
 21
-4226.151752920969
 31
0.0
 11
349.2138004545077
 21
-4225.567912778959
 31
0.0
  0
SPLINE
  5
1C5
330
1F
100
AcDbEntity
  8
$DDT_AUDIT_GENERATED__3B_
  6
Continuous
 62
     7
100
AcDbSpline
210
0.0
220
0.0
230
1.0
 70
     8
 71
     3
 72
    12
 73
     8
 74
     6
 42
0.0000000001
 43
0.0000000001
 44
0.00000001
 40
0.0
 40
0.0
 40
0.0
 40
0.0
 40
58.50903136103889
 40
117.3103803620302
 40
175.8800617352929
 40
180.2751018973469
 40
184.6701420593976
 40
184.6701420593976
 40
184.6701420593976
 40
184.6701420593976
 10
476.1999759332502
 20
-4317.830786214799
 30
0.0
 10
488.8124988231816
 20
-4332.758433041398
 30
0.0
 10
514.1005581727325
 20
-4362.688306881431
 30
0.0
 10
542.5401475452363
 20
-4414.37919510161
 30
0.0
 10
556.0521966491424
 20
-4452.916150462403
 30
0.0
 10
561.0347462958678
 20
-4474.809702562166
 30
0.0
 10
561.6962920577713
 20
-4477.664071200967
 30
0.0
 10
562.027064938723
 20
-4479.091255520369
 30
0.0
 11
476.1999759332502
 21
-4317.830786214799
 31
0.0
 11
512.465629047021
 21
-4363.744936049449
 31
0.0
 11
541.0831237963719
 21
-4415.112607191981
 31
0.0
 11
560.0481028012142
 21
-4470.526839547138
 31
0.0
 11
561.037583869966
 21
-4474.809047533756
 31
0.0
 11
562.027064938723
 21
-4479.091255520369
 31
0.0
  0
SPLINE
  5
1C6
330
1F
100
AcDbEntity
  8
$DDT_AUDIT_GENERATED__3B_
  6
Continuous
 62
     7
100
AcDbSpline
210
0.0
220
0.0
230
1.0
 70
     8
 71
     3
 72
     9
 73
     5
 74
     3
 42
0.0000000001
 43
0.0000000001
 44
0.00000001
 40
0.0
 40
0.0
 40
0.0
 40
0.0
 40
72.33192044971962
 40
144.6638765824349
 40
144.6638765824349
 40
144.6638765824349
 40
144.6638765824349
 10
476.1999759332502
 20
-4317.830786214799
 30
0.0
 10
459.97378523821
 20
-4299.75116633333
 30
0.0
 10
427.5213958433777
 20
-4263.591917651301
 30
0.0
 10
385.1058235108587
 20
-4239.894489788392
 30
0.0
 10
363.8980321134568
 20
-4228.045772934318
 30
0.0
 11
476.1999759332502
 21
-4317.830786214799
 31
0.0
 11
425.0306093424743
 21
-4266.707380238247
 31
0.0
 11
363.8980321134568
 21
-4228.045772934318
 31
0.0
  0
SPLINE
  5
1C7
330
1F
100
AcDbEntity
  8
$DDT_AUDIT_GENERATED__93_
  6
Continuous
 62
     7
100
AcDbSpline
210
0.0
220
0.0
230
1.0
 70
     8
 71
     3
 72
     9
 73
     5
 74
     3
 42
0.0000000001
 43
0.0000000001
 44
0.00000001
 40
0.0
 40
0.0
 40
0.0
 40
0.0
 40
61.58256612895251
 40
123.1651195264928
 40
123.1651195264928
 40
123.1651195264928
 40
123.1651195264928
 10
374.2584809509699
 20
-4486.242127109665
 30
0.0
 10
371.9325784711418
 20
-4465.835131079523
 30
0.0
 10
367.2807739923364
 20
-4425.021143238129
 30
0.0
 10
358.9723165034639
 20
-4384.791919754328
 30
0.0
 10
354.8180881884446
 20
-4364.677310091647
 30
0.0
 11
374.2584809509699
 21
-4486.242127109665
 31
0.0
 11
366.3666100699773
 21
-4425.167330138864
 31
0.0
 11
354.8180881884446
 21
-4364.677310091647
 31
0.0
  0
SPLINE
  5
1C8
330
1F
100
AcDbEntity
  8
$DDT_AUDIT_GENERATED__93_
  6
Continuous
 62
     7
100
AcDbSpline
210
0.0
220
0.0
230
1.0
 70
     8
 71
     3
 72
     9
 73
     5
 74
     3
 42
0.0000000001
 43
0.0000000001
 44
0.00000001
 40
0.0
 40
0.0
 40
0.0
 40
0.0
 40
155.2663123252594
 40
310.5326252775903
 40
310.5326252775903
 40
310.5326252775903
 40
310.5326252775903
 10
389.4748704956328
 20
-4796.307245208295
 30
0.0
 10
388.8501959555597
 20
-4744.535924492783
 30
0.0
 10
387.6008468728904
 20
-4640.99328285267
 30
0.0
 10
378.7059362642639
 20
-4537.825845760109
 30
0.0
 10
374.2584809509699
 20
-4486.242127109665
 30
0.0
 11
389.4748704956328
 21
-4796.307245208295
 31
0.0
 11
385.6894565016435
 21
-4641.087084198267
 31
0.0
 11
374.2584809509699
 21
-4486.242127109665
 31
0.0
  0
SPLINE
  5
1C9
330
1F
100
AcDbEntity
  8
$DDT_AUDIT_GENERATED__93_
  6
Continuous
 62
     1
100
AcDbSpline
210
0.0
220
0.0
230
1.0
 70
     8
 71
     3
 72
     9
 73
     5
 74
     3
 42
0.0000000001
 43
0.0000000001
 44
0.00000001
 40
0.0
 40
0.0
 40
0.0
 40
0.0
 40
195.0502758430597
 40
390.1004845890869
 40
390.1004845890869
 40
390.1004845890869
 40
390.1004845890869
 10
508.1627089440071
 20
-4591.44308914195
 30
0.0
 10
501.1672407434181
 20
-4525.502418870619
 30
0.0
 10
487.1763067486721
 20
-4393.621101011462
 30
0.0
 10
408.0285203850288
 20
-4287.206553756579
 30
0.0
 10
368.4546340098914
 20
-4233.999289280753
 30
0.0
 11
508.1627089440071
 21
-4591.44308914195
 31
0.0
 11
470.8870856465472
 21
-4399.987773169163
 31
0.0
 11
368.4546340098914
 21
-4233.999289280753
 31
0.0
  0
SPLINE
  5
1CA
330
1F
100
AcDbEntity
  8
$DDT_AUDIT_GENERATED__93_
  6
Continuous
 62
     7
100
AcDbSpline
210
0.0
220
0.0
230
1.0
 70
     8
 71
     3
 72
    11
 73
     7
 74
     5
 42
0.0000000001
 43
0.0000000001
 44
0.00000001
 40
0.0
 40
0.0
 40
0.0
 40
0.0
 40
19.50036965447837
 40
39.00079909650165
 40
53.62257123258044
 40
68.24438052445709
 40
68.24438052445709
 40
68.24438052445709
 40
68.24438052445709
 10
368.4546340098914
 20
-4233.999289280753
 30
0.0
 10
362.8093511902681
 20
-4230.116358442539
 30
0.0
 10
351.5187682427548
 20
-4222.350484861159
 30
0.0
 10
332.3355082764543
 20
-4229.573486587179
 30
0.0
 10
323.1085406862637
 20
-4244.33094023669
 30
0.0
 10
324.6249163430936
 20
-4254.2504886221
 30
0.0
 10
325.3831051348334
 20
-4259.210269116506
 30
0.0
 11
368.4546340098914
 21
-4233.999289280753
 31
0.0
 11
350.8533384328201
 21
-4225.605314616158
 31
0.0
 11
332.4674569883997
 21
-4232.10347681289
 31
0.0
 11
324.8715485987598
 21
-4244.597411186642
 31
0.0
 11
325.3831051348334
 21
-4259.210269116506
 31
0.0
  0
SPLINE
  5
1CB
330
1F
100
AcDbEntity
  8
$DDT_AUDIT_GENERATED__93_
  6
Continuous
 62
     7
100
AcDbSpline
210
0.0
220
0.0
230
1.0
 70
     8
 71
     3
 72
     9
 73
     5
 74
     3
 42
0.0000000001
 43
0.0000000001
 44
0.00000001
 40
0.0
 40
0.0
 40
0.0
 40
0.0
 40
54.76816613434829
 40
109.5363305315986
 40
109.5363305315986
 40
109.5363305315986
 40
109.5363305315986
 10
354.8180881884446
 20
-4364.677310091647
 30
0.0
 10
350.6139979311734
 20
-4346.903619700004
 30
0.0
 10
342.2058175499733
 20
-4311.356239480452
 30
0.0
 10
330.9906758805943
 20
-4276.59225905405
 30
0.0
 10
325.3831051348334
 20
-4259.210269116506
 30
0.0
 11
354.8180881884446
 21
-4364.677310091647
 31
0.0
 11
341.5040770723289
 21
-4311.552088871218
 31
0.0
 11
325.3831051348334
 21
-4259.210269116506
 31
0.0
  0
SPLINE
  5
1CC
330
1F
100
AcDbEntity
  8
$DDT_AUDIT_GENERATED__93_
  6
Continuous
 62
     1
100
AcDbSpline
210
0.0
220
0.0
230
1.0
 70
     8
 71
     3
 72
     9
 73
     5
 74
     3
 42
0.0000000001
 43
0.0000000001
 44
0.00000001
 40
0.0
 40
0.0
 40
0.0
 40
0.0
 40
102.1175933194028
 40
204.2351864114955
 40
204.2351864114955
 40
204.2351864114955
 40
204.2351864114955
 10
508.6782368957938
 20
-4795.675307719007
 30
0.0
 10
508.8355346759677
 20
-4761.635990645341
 30
0.0
 10
509.1501302359654
 20
-4693.55735657378
 30
0.0
 10
508.4918493744157
 20
-4625.481178260638
 30
0.0
 10
508.1627089440071
 20
-4591.44308914195
 30
0.0
 11
508.6782368957938
 21
-4795.675307719007
 31
0.0
 11
508.9069111303874
 21
-4693.557970437616
 31
0.0
 11
508.1627089440071
 21
-4591.44308914195
 31
0.0
  0
SPLINE
  5
1CD
330
1F
100
AcDbEntity
  8
$DDT_AUDIT_GENERATED__93_
  6
AI_Linetype_1
 62
     3
100
AcDbSpline
210
0.0
220
0.0
230
1.0
 70
     8
 71
     3
 72
     9
 73
     5
 74
     3
 42
0.0000000001
 43
0.0000000001
 44
0.00000001
 40
0.0
 40
0.0
 40
0.0
 40
0.0
 40
34.06737404997128
 40
68.13170328246294
 40
68.13170328246294
 40
68.13170328246294
 40
68.13170328246294
 10
-2724.696446774618
 20
1116.316093697851
 30
0.0
 10
-2736.724432348544
 20
1113.508294809956
 30
0.0
 10
-2760.779328478971
 20
1107.892947984976
 30
0.0
 10
-2766.403046535607
 20
1083.840218024744
 30
0.0
 10
-2769.214779901464
 20
1071.814390504937
 30
0.0
 11
-2724.696446774618
 21
1116.316093697851
 31
0.0
 11
-2756.172197122494
 21
1103.282939256243
 31
0.0
 11
-2769.214779901464
 21
1071.814390504937
 31
0.0
  0
SPLINE
  5
1CE
330
1F
100
AcDbEntity
  8
$DDT_AUDIT_GENERATED__93_
  6
Continuous
 62
     7
100
AcDbSpline
210
0.0
220
0.0
230
1.0
 70
     8
 71
     3
 72
     9
 73
     5
 74
     3
 42
0.0000000001
 43
0.0000000001
 44
0.00000001
 40
0.0
 40
0.0
 40
0.0
 40
0.0
 40
32.32048344715838
 40
64.73052901692337
 40
64.73052901692337
 40
64.73052901692337
 40
64.73052901692337
 10
-2423.860942006357
 20
1270.276022008773
 30
0.0
 10
-2426.670198241382
 20
1281.651427265122
 30
0.0
 10
-2432.296495339771
 20
1304.433759751864
 30
0.0
 10
-2455.221359923009
 20
1309.47594526008
 30
0.0
 10
-2466.699651806414
 20
1312.000526235615
 30
0.0
 11
-2423.860942006357
 21
1270.276022008773
 31
0.0
 11
-2436.601393584081
 21
1299.979465308393
 31
0.0
 11
-2466.699651806414
 21
1312.000526235615
 31
0.0
  0
SPLINE
  5
1CF
330
1F
100
AcDbEntity
  8
$DDT_AUDIT_GENERATED__93_
  6
Continuous
 62
     7
100
AcDbSpline
210
0.0
220
0.0
230
1.0
 70
     8
 71
     3
 72
     9
 73
     5
 74
     3
 42
0.0000000001
 43
0.0000000001
 44
0.00000001
 40
0.0
 40
0.0
 40
0.0
 40
0.0
 40
32.3996387203977
 40
64.71285297006736
 40
64.71285297006736
 40
64.71285297006736
 40
64.71285297006736
 10
-965.6984453454711
 20
1312.000526235615
 30
0.0
 10
-977.1712056958502
 20
1309.472262609802
 30
0.0
 10
-1000.08612336274
 20
1304.422479379233
 30
0.0
 10
-1005.711562199704
 20
1281.648035989099
 30
0.0
 10
-1008.5205252116
 20
1270.276022008773
 30
0.0
 11
-965.6984453454711
 21
1312.000526235615
 31
0.0
 11
-995.7828038694898
 21
1299.97272671074
 31
0.0
 11
-1008.5205252116
 21
1270.276022008773
 31
0.0
  0
SPLINE
  5
1D0
330
1F
100
AcDbEntity
  8
$DDT_AUDIT_GENERATED__93_
  6
Continuous
 62
     7
100
AcDbSpline
210
0.0
220
0.0
230
1.0
 70
     8
 71
     3
 72
     9
 73
     5
 74
     3
 42
0.0000000001
 43
0.0000000001
 44
0.00000001
 40
0.0
 40
0.0
 40
0.0
 40
0.0
 40
32.39074669093461
 40
64.69129537377088
 40
64.69129537377088
 40
64.69129537377088
 40
64.69129537377088
 10
-843.3686513667353
 20
-1579.279786589694
 30
0.0
 10
-854.8402877018686
 20
-1581.801171452889
 30
0.0
 10
-877.7516154850063
 20
-1586.8369199181
 30
0.0
 10
-883.3803086483147
 20
-1609.603574995936
 30
0.0
 10
-886.190731232864
 20
-1620.971030948676
 30
0.0
 11
-843.3686513667353
 21
-1579.279786589694
 31
0.0
 11
-873.4508448712429
 21
-1591.289037405363
 31
0.0
 11
-886.190731232864
 21
-1620.971030948676
 31
0.0
  0
SPLINE
  5
1D1
330
1F
100
AcDbEntity
  8
$DDT_AUDIT_GENERATED__93_
  6
AI_Linetype_6
 62
     3
100
AcDbSpline
210
0.0
220
0.0
230
1.0
 70
     8
 71
     3
 72
     9
 73
     5
 74
     3
 42
0.0000000001
 43
0.0000000001
 44
0.00000001
 40
0.0
 40
0.0
 40
0.0
 40
0.0
 40
32.99149920879898
 40
65.98180519626595
 40
65.98180519626595
 40
65.98180519626595
 40
65.98180519626595
 10
-551.8625395324152
 20
-1822.126711748944
 30
0.0
 10
-554.5832022574612
 20
-1810.4787848524
 30
0.0
 10
-560.024429307878
 20
-1787.183352336162
 30
0.0
 10
-583.3198357116388
 20
-1781.742366650972
 30
0.0
 10
-594.9673282753306
 20
-1779.021923006032
 30
0.0
 11
-551.8625395324152
 21
-1822.126711748944
 31
0.0
 11
-564.4882339856999
 21
-1791.646704209305
 31
0.0
 11
-594.9673282753306
 21
-1779.021923006032
 31
0.0
  0
SPLINE
  5
1D2
330
1F
100
AcDbEntity
  8
$DDT_AUDIT_GENERATED__93_
  6
Continuous
 62
     7
100
AcDbSpline
210
0.0
220
0.0
230
1.0
 70
     8
 71
     3
 72
     9
 73
     5
 74
     3
 42
0.0000000001
 43
0.0000000001
 44
0.00000001
 40
0.0
 40
0.0
 40
0.0
 40
0.0
 40
32.06813251259629
 40
64.05119456743313
 40
64.05119456743313
 40
64.05119456743313
 40
64.05119456743313
 10
-721.7705744808582
 20
-4470.526839547143
 30
0.0
 10
-733.0741316899841
 20
-4473.175845648689
 30
0.0
 10
-755.6512599908433
 20
-4478.466830558826
 30
0.0
 10
-761.1489853709706
 20
-4500.988723664988
 30
0.0
 10
-763.8941971219856
 20
-4512.234713840058
 30
0.0
 11
-721.7705744808582
 21
-4470.526839547143
 31
0.0
 11
-751.4000457263109
 21
-4482.793035231231
 31
0.0
 11
-763.8941971219856
 21
-4512.234713840058
 31
0.0
  0
SPLINE
  5
1D3
330
1F
100
AcDbEntity
  8
$DDT_AUDIT_GENERATED__93_
  6
Continuous
 62
     7
100
AcDbSpline
210
0.0
220
0.0
230
1.0
 70
     8
 71
     3
 72
    27
 73
    23
 74
    21
 42
0.0000000001
 43
0.0000000001
 44
0.00000001
 40
0.0
 40
0.0
 40
0.0
 40
0.0
 40
6.708856191846031
 40
13.41733259771304
 40
16.68413620869163
 40
19.95099156329062
 40
23.19627206669672
 40
26.4415148149587
 40
29.68456296199118
 40
32.92765614640712
 40
36.18374894629183
 40
39.43976976770296
 40
42.7229113575401
 40
46.00635763072803
 40
49.33392994135536
 40
52.66072884223956
 40
56.05246256231646
 40
59.44643417846092
 40
62.93774859084394
 40
66.42476171003058
 40
66.92372901446842
 40
67.42269631890625
 40
67.42269631890625
 40
67.42269631890625
 40
67.42269631890625
 10
-2668.470640162042
 20
-4512.251343773986
 30
0.0
 10
-2668.57518549892
 20
-4510.012625521828
 30
0.0
 10
-2668.784270254403
 20
-4505.53531575056
 30
0.0
 10
-2670.205590979107
 20
-4500.115335972518
 30
0.0
 10
-2671.79458969174
 20
-4495.995898652567
 30
0.0
 10
-2673.213849313133
 20
-4493.056733597503
 30
0.0
 10
-2674.855285572911
 20
-4490.245279421487
 30
0.0
 10
-2676.70648797374
 20
-4487.576640259642
 30
0.0
 10
-2678.757926983329
 20
-4485.05980081487
 30
0.0
 10
-2680.99839628055
 20
-4482.704696561055
 30
0.0
 10
-2683.415184485149
 20
-4480.524461010602
 30
0.0
 10
-2686.001078589869
 20
-4478.525854711829
 30
0.0
 10
-2688.739373190802
 20
-4476.725013065636
 30
0.0
 10
-2691.627369243129
 20
-4475.125806338853
 30
0.0
 10
-2694.642300322402
 20
-4473.745497420292
 30
0.0
 10
-2697.788853886312
 20
-4472.589712057648
 30
0.0
 10
-2701.038346726833
 20
-4471.68038518241
 30
0.0
 10
-2704.400870051254
 20
-4471.009837322896
 30
0.0
 10
-2707.835248330782
 20
-4470.583839625901
 30
0.0
 10
-2710.330190939589
 20
-4470.489423915849
 30
0.0
 10
-2711.824871618917
 20
-4470.518824116538
 30
0.0
 10
-2712.157474494134
 20
-4470.524167736941
 30
0.0
 10
-2712.323775931744
 20
-4470.526839547143
 30
0.0
 11
-2668.470640162042
 21
-4512.251343773986
 31
0.0
 11
-2669.017773674168
 21
-4505.56483524391
 31
0.0
 11
-2670.655813480259
 21
-4499.059415866058
 31
0.0
 11
-2671.83564467954
 21
-4496.013105938637
 31
0.0
 11
-2673.254822704289
 21
-4493.070610799823
 31
0.0
 11
-2674.890928959628
 21
-4490.267933175295
 31
0.0
 11
-2676.740373706053
 21
-4487.601258349774
 31
0.0
 11
-2678.788999292973
 21
-4485.087198985203
 31
0.0
 11
-2681.02416153639
 21
-4482.737368534212
 31
0.0
 11
-2683.441660237668
 21
-4480.556121104235
 31
0.0
 11
-2686.017881246138
 21
-4478.564951371394
 31
0.0
 11
-2688.760815259847
 21
-4476.760697593414
 31
0.0
 11
-2691.633227886136
 21
-4475.170016879616
 31
0.0
 11
-2694.658894705463
 21
-4473.785070028333
 31
0.0
 11
-2697.781896507225
 21
-4472.638575077138
 31
0.0
 11
-2701.047552664188
 21
-4471.722415979384
 31
0.0
 11
-2704.375582160242
 21
-4471.056635982247
 31
0.0
 11
-2707.841141623624
 21
-4470.633346563679
 31
0.0
 11
-2711.325979896028
 21
-4470.51020961322
 31
0.0
 11
-2711.824877913886
 21
-4470.518524580182
 31
0.0
 11
-2712.323775931744
 21
-4470.526839547143
 31
0.0
  0
SPLINE
  5
1D4
330
1F
100
AcDbEntity
  8
$DDT_AUDIT_GENERATED__93_
  6
AI_Linetype_11
 62
     3
100
AcDbSpline
210
0.0
220
0.0
230
1.0
 70
     8
 71
     3
 72
     9
 73
     5
 74
     3
 42
0.0000000001
 43
0.0000000001
 44
0.00000001
 40
0.0
 40
0.0
 40
0.0
 40
0.0
 40
34.06151025471127
 40
68.12421449790915
 40
68.12421449790915
 40
68.12421449790915
 40
68.12421449790915
 10
-2847.026240753354
 20
-1774.964219127453
 30
0.0
 10
-2859.053103506365
 20
-1777.770930487591
 30
0.0
 10
-2883.107250600731
 20
-1783.384451594024
 30
0.0
 10
-2888.721013367628
 20
-1807.438624881988
 30
0.0
 10
-2891.527943946271
 20
-1819.465922320371
 30
0.0
 11
-2847.026240753354
 21
-1774.964219127453
 31
0.0
 11
-2878.496894528081
 21
-1787.994354653344
 31
0.0
 11
-2891.527943946271
 21
-1819.465922320371
 31
0.0
  0
SPLINE
  5
1D5
330
1F
100
AcDbEntity
  8
$DDT_AUDIT_GENERATED__93_
  6
Continuous
 62
     7
100
AcDbSpline
210
0.0
220
0.0
230
1.0
 70
     8
 71
     3
 72
     9
 73
     5
 74
     3
 42
0.0000000001
 43
0.0000000001
 44
0.00000001
 40
0.0
 40
0.0
 40
0.0
 40
0.0
 40
32.31090055418269
 40
64.71324142641826
 40
64.71324142641826
 40
64.71324142641826
 40
64.71324142641826
 10
-2546.157476117235
 20
-1620.971030948676
 30
0.0
 10
-2548.975074115524
 20
-1609.60215315023
 30
0.0
 10
-2554.618243955377
 20
-1586.832223463976
 30
0.0
 10
-2577.537163681454
 20
-1581.799635909693
 30
0.0
 10
-2589.012815851222
 20
-1579.279786589694
 30
0.0
 11
-2546.157476117235
 21
-1620.971030948676
 31
0.0
 11
-2558.917010821719
 21
-1591.286210438062
 31
0.0
 11
-2589.012815851222
 21
-1579.279786589694
 31
0.0
  0
SPLINE
  5
1D6
330
1F
100
AcDbEntity
  8
$DDT_AUDIT_GENERATED__93_
  6
AI_Linetype_16
 62
     3
100
AcDbSpline
210
0.0
220
0.0
230
1.0
 70
     8
 71
     3
 72
     9
 73
     5
 74
     3
 42
0.0000000001
 43
0.0000000001
 44
0.00000001
 40
0.0
 40
0.0
 40
0.0
 40
0.0
 40
32.97030589505244
 40
65.94246357329308
 40
65.94246357329308
 40
65.94246357329308
 40
65.94246357329308
 10
-429.5493754876088
 20
-4713.373764706399
 30
0.0
 10
-432.270966363327
 20
-4701.734192818301
 30
0.0
 10
-437.7143009734069
 20
-4678.454395303447
 30
0.0
 10
-460.9962385892801
 20
-4673.019673194307
 30
0.0
 10
-472.6375342965948
 20
-4670.302235831342
 30
0.0
 11
-429.5493754876088
 21
-4713.373764706399
 31
0.0
 11
-442.1735483996723
 21
-4682.916067336118
 31
0.0
 11
-472.6375342965948
 21
-4670.302235831342
 31
0.0
  0
SPLINE
  5
1D7
330
1F
100
AcDbEntity
  8
$DDT_AUDIT_GENERATED__93_
  6
AI_Linetype_21
 62
     3
100
AcDbSpline
210
0.0
220
0.0
230
1.0
 70
     8
 71
     3
 72
     9
 73
     5
 74
     3
 42
0.0000000001
 43
0.0000000001
 44
0.00000001
 40
0.0
 40
0.0
 40
0.0
 40
0.0
 40
32.97215767825322
 40
65.94246357330182
 40
65.94246357330182
 40
65.94246357330182
 40
65.94246357330182
 10
-674.1923335111514
 20
1069.136971142432
 30
0.0
 10
-676.9097708741148
 20
1080.778266849753
 30
0.0
 10
-682.3444929832513
 20
1104.060204465633
 30
0.0
 10
-705.6242904981111
 20
1109.503539075707
 30
0.0
 10
-717.263862386209
 20
1112.225129951421
 30
0.0
 11
-674.1923335111514
 21
1069.136971142432
 31
0.0
 11
-686.8061650159273
 21
1099.600957039368
 31
0.0
 11
-717.263862386209
 21
1112.225129951421
 31
0.0
  0
SPLINE
  5
1D8
330
1F
100
AcDbEntity
  8
$DDT_AUDIT_GENERATED__93_
  6
AI_Linetype_26
 62
     3
100
AcDbSpline
210
0.0
220
0.0
230
1.0
 70
     8
 71
     3
 72
     9
 73
     5
 74
     3
 42
0.0000000001
 43
0.0000000001
 44
0.00000001
 40
0.0
 40
0.0
 40
0.0
 40
0.0
 40
34.06041933881567
 40
68.12083867763344
 40
68.12083867763344
 40
68.12083867763344
 40
68.12083867763344
 10
-2969.33940479816
 20
-4666.211272084906
 30
0.0
 10
-2981.364925770274
 20
-4669.019652177098
 30
0.0
 10
-3005.415967714503
 20
-4674.63641236148
 30
0.0
 10
-3011.032727898887
 20
-4698.687454305711
 30
0.0
 10
-3013.841107991078
 20
-4710.712975277826
 30
0.0
 11
-2969.33940479816
 21
-4666.211272084906
 31
0.0
 11
-3000.807397274542
 21
-4679.244982801442
 31
0.0
 11
-3013.841107991078
 21
-4710.712975277826
 31
0.0
  0
SPLINE
  5
1D9
330
1F
100
AcDbEntity
  8
$DDT_AUDIT_GENERATED__545_
  6
Continuous
 62
     7
100
AcDbSpline
210
0.0
220
0.0
230
1.0
 70
    11
 71
     3
 72
    75
 73
    71
 74
    69
 42
0.0000000001
 43
0.0000000001
 44
0.00000001
 40
0.0
 40
0.0
 40
0.0
 40
0.0
 40
29.0154250967562
 40
57.81499101607791
 40
95.3529905593133
 40
132.9728932453833
 40
170.5623103000827
 40
208.1306575595727
 40
237.0357429887658
 40
265.9443152468791
 40
277.5071717871192
 40
289.0697781874227
 40
301.4712033879784
 40
313.8727259645501
 40
343.4456235336503
 40
373.0182168179429
 40
408.3140730485687
 40
443.6112220655745
 40
473.1858940239424
 40
502.7567133309554
 40
515.155857804964
 40
527.559662553954
 40
537.1173023762805
 40
546.663771886317
 40
564.3547550335783
 40
582.1432548232585
 40
591.7839270707939
 40
601.2499904809607
 40
614.5113816051438
 40
628.7247215087039
 40
644.1500318569626
 40
656.7654654798686
 40
665.1658480327901
 40
674.8728114642886
 40
695.3215094754225
 40
714.438734463688
 40
733.2988285485955
 40
754.0047121670792
 40
764.1661564230677
 40
772.1135260477157
 40
784.7847106145636
 40
804.1939642195206
 40
848.8536444319228
 40
886.9693485422152
 40
943.8784576971094
 40
1003.663787674671
 40
1071.105799710495
 40
1137.399614303056
 40
1203.693429460693
 40
1271.135440949879
 40
1330.920768734696
 40
1387.829880301711
 40
1425.945590722174
 40
1470.605266293585
 40
1490.014516235771
 40
1502.685709323685
 40
1510.633098264978
 40
1520.794525420587
 40
1541.500213556396
 40
1560.360509439484
 40
1579.478534380622
 40
1599.926406496704
 40
1609.632201678148
 40
1618.033612269617
 40
1630.649567781712
 40
1646.075565583466
 40
1660.291143344353
 40
1673.533799989584
 40
1684.976467880201
 40
1696.663538653563
 40
1696.663538653563
 40
1696.663538653563
 40
1696.663538653563
 10
337.4465823913349
 20
-8983.940797569281
 30
0.0
 10
327.7749816303579
 20
-8984.043497501003
 30
0.0
 10
308.5037316230819
 20
-8984.248133332114
 30
0.0
 10
276.7203556541085
 20
-8983.853864839584
 30
0.0
 10
242.0676231112398
 20
-8983.846408412026
 30
0.0
 10
204.4853711361637
 20
-8983.957908005577
 30
0.0
 10
166.8927707527534
 20
-8983.966710503362
 30
0.0
 10
132.2051730069332
 20
-8983.937454943785
 30
0.0
 10
100.4111676525188
 20
-8983.936597182328
 30
0.0
 10
77.28566395289687
 20
-8983.940948994572
 30
0.0
 10
59.94098544929804
 20
-8983.941089600761
 30
0.0
 10
48.09868942442591
 20
-8983.940735627119
 30
0.0
 10
35.9768380259458
 20
-8983.940722580992
 30
0.0
 10
17.85155624547408
 20
-8983.940867321688
 30
0.0
 10
-5.997448224449901
 20
-8983.940588259255
 30
0.0
 10
-37.47789728562434
 20
-8983.940554056613
 30
0.0
 10
-70.86642997910266
 20
-8983.9423116154
 30
0.0
 10
-104.255656161223
 20
-8983.941920405234
 30
0.0
 10
-135.7365347816814
 20
-8983.936139904712
 30
0.0
 10
-159.5847499689384
 20
-8983.937391690812
 30
0.0
 10
-177.7093332012654
 20
-8983.946447494123
 30
0.0
 10
-189.1628754401552
 20
-8983.944330175016
 30
0.0
 10
-199.6654739857065
 20
-8983.927289542848
 30
0.0
 10
-211.9306418910351
 20
-8983.933262207347
 30
0.0
 10
-226.9382716287336
 20
-8984.059763714471
 30
0.0
 10
-241.980769020186
 20
-8984.032748503618
 30
0.0
 10
-254.2734164482615
 20
-8983.73218339617
 30
0.0
 10
-265.0743642607873
 20
-8983.81001767653
 30
0.0
 10
-277.3161493102521
 20
-8985.209705701882
 30
0.0
 10
-291.4220644079854
 20
-8988.077386774092
 30
0.0
 10
-304.9452641656623
 20
-8990.46406243537
 30
0.0
 10
-316.8448035665537
 20
-8997.49494759836
 30
0.0
 10
-317.1918260409835
 20
-9008.48611165388
 30
0.0
 10
-315.0825396227224
 20
-9020.968958299012
 30
0.0
 10
-314.9683766105617
 20
-9037.567920349793
 30
0.0
 10
-316.2567314914008
 20
-9057.003398480403
 30
0.0
 10
-314.9376719636767
 20
-9076.46536207748
 30
0.0
 10
-315.1645754922808
 20
-9093.378705076302
 30
0.0
 10
-317.0776372534297
 20
-9105.63355589706
 30
0.0
 10
-317.1572406399596
 20
-9117.49391072331
 30
0.0
 10
-300.1282453310378
 20
-9118.916355073557
 30
0.0
 10
-277.3310812458854
 20
-9111.837913259375
 30
0.0
 10
-241.7995034006189
 20
-9109.975630643901
 30
0.0
 10
-195.9515286837201
 20
-9116.052626351107
 30
0.0
 10
-144.1018694920623
 20
-9116.379789064671
 30
0.0
 10
-82.82854664549396
 20
-9114.179775928587
 30
0.0
 10
-18.29100017707937
 20
-9114.147239196554
 30
0.0
 10
48.37829588068026
 20
-9114.827710685047
 30
0.0
 10
115.0475917194715
 20
-9114.147236731913
 30
0.0
 10
179.5851375157127
 20
-9114.179774632463
 30
0.0
 10
240.858460053149
 20
-9116.379795301507
 30
0.0
 10
292.7081215234127
 20
-9116.052630318187
 30
0.0
 10
338.5560969478844
 20
-9109.975617187081
 30
0.0
 10
374.0876708507029
 20
-9111.837900074119
 30
0.0
 10
396.8848394314535
 20
-9118.916374943585
 30
0.0
 10
413.9138322654244
 20
-9117.493908373632
 30
0.0
 10
413.8342420769708
 20
-9105.633550663824
 30
0.0
 10
411.9211813183055
 20
-9093.37876243101
 30
0.0
 10
411.6941405061252
 20
-9076.465420335371
 30
0.0
 10
413.0132158507422
 20
-9057.003224307537
 30
0.0
 10
411.7255932025034
 20
-9037.567572181877
 30
0.0
 10
411.8394523240707
 20
-9020.969319987413
 30
0.0
 10
413.9477667243862
 20
-9008.486162761277
 30
0.0
 10
413.6008937554302
 20
-8997.496308132519
 30
0.0
 10
401.7085002035712
 20
-8990.455033005423
 30
0.0
 10
388.1813429912613
 20
-8988.06874409959
 30
0.0
 10
374.072261715166
 20
-8985.24831681488
 30
0.0
 10
361.1860062596008
 20
-8983.757412283738
 30
0.0
 10
349.0467217763517
 20
-8983.65552659528
 30
0.0
 10
341.3404386109155
 20
-8983.845039740903
 30
0.0
 10
337.4465823913345
 20
-8983.940797569283
 30
0.0
 11
337.4465823913349
 21
-8983.940797569281
 31
0.0
 11
308.4318216423305
 21
-8984.137144770699
 31
0.0
 11
279.6329250503106
 21
-8983.940797569281
 31
0.0
 11
242.0949994305368
 21
-8983.866300104428
 31
0.0
 11
204.4751705069876
 21
-8983.940797569267
 31
0.0
 11
166.885758336356
 21
-8983.959959471553
 31
0.0
 11
129.3174159636731
 21
-8983.94079756927
 31
0.0
 11
100.4123307076348
 21
-8983.937633692773
 31
0.0
 11
71.50375862265551
 21
-8983.940797569268
 31
0.0
 11
59.94090208448566
 21
-8983.941016374587
 31
0.0
 11
48.37829568625239
 21
-8983.940797569274
 31
0.0
 11
35.97687048582431
 21
-8983.940741310866
 31
0.0
 11
23.57534790938033
 21
-8983.940797569276
 31
0.0
 11
-5.997549659303226
 21
-8983.940640576475
 31
0.0
 11
-35.57014294317912
 21
-8983.940797569261
 31
0.0
 11
-70.86599915554162
 21
-8983.941933014812
 31
0.0
 11
-106.1631481542848
 21
-8983.940797569265
 31
0.0
 11
-135.7378199062574
 21
-8983.937303553068
 31
0.0
 11
-165.3086390068482
 21
-8983.94079756927
 31
0.0
 11
-177.7077827576562
 21
-8983.945032440668
 31
0.0
 11
-190.1115867837174
 21
-8983.94079756926
 31
0.0
 11
-199.6692212145587
 21
-8983.930645735974
 31
0.0
 11
-209.2156853268014
 21
-8983.940797569268
 31
0.0
 11
-226.9064464727944
 21
-8984.029424834307
 31
0.0
 11
-244.6947254782336
 21
-8983.94079756927
 31
0.0
 11
-254.3340912198885
 21
-8983.782085619478
 31
0.0
 11
-263.7988240213094
 21
-8983.94079756927
 31
0.0
 11
-276.9841663942755
 21
-8985.35897987639
 31
0.0
 11
-290.9638210936843
 21
-8987.925745486926
 31
0.0
 11
-305.8996782981938
 21
-8991.780660389566
 31
0.0
 11
-315.8338872838893
 21
-8999.556305528233
 31
0.0
 11
-316.9198491994424
 21
-9007.88619830986
 31
0.0
 11
-315.8338872838779
 21
-9017.532224734165
 31
0.0
 11
-315.222822898291
 21
-9037.971790548223
 31
0.0
 11
-315.833887283874
 21
-9057.079246987232
 31
0.0
 11
-315.2222591762312
 21
-9075.929420990395
 31
0.0
 11
-315.8338872838817
 21
-9096.626269240312
 31
0.0
 11
-316.9204781455472
 21
-9106.72945040601
 31
0.0
 11
-315.8338872838815
 21
-9114.602188446243
 31
0.0
 11
-303.6372403742859
 21
-9118.037406414549
 31
0.0
 11
-284.5344028098895
 21
-9114.602188446235
 31
0.0
 11
-239.9937508243278
 21
-9111.343759779667
 31
0.0
 11
-202.0175801057271
 21
-9114.602188446228
 31
0.0
 11
-145.1252364864046
 21
-9115.983471293654
 31
0.0
 11
-85.35586524810782
 21
-9114.602188446243
 31
0.0
 11
-17.9146789087484
 21
-9114.268463139984
 31
0.0
 11
48.37829568624834
 21
-9114.602188446243
 31
0.0
 11
114.6712708370214
 21
-9114.268461291407
 31
0.0
 11
182.1124566205885
 21
-9114.60218844624
 31
0.0
 11
241.881825558511
 21
-9115.983475925565
 31
0.0
 11
298.7741714782081
 21
-9114.602188446244
 31
0.0
 11
336.7503476233599
 21
-9111.343749211126
 31
0.0
 11
381.2909941823724
 21
-9114.602188446228
 31
0.0
 11
400.3938260257954
 21
-9118.037417533224
 31
0.0
 11
412.5904786563755
 21
-9114.602188446224
 31
0.0
 11
413.6770788871095
 21
-9106.729432199347
 31
0.0
 11
412.5904786563765
 21
-9096.626269240287
 31
0.0
 11
411.9787483550032
 21
-9075.929619578668
 31
0.0
 11
412.5904786563703
 21
-9057.07924698723
 31
0.0
 11
411.9798330268999
 21
-9037.970976799556
 31
0.0
 11
412.590478656381
 21
-9017.532224734157
 31
0.0
 11
413.6758687159939
 21
-9007.88730957006
 31
0.0
 11
412.5904786563907
 21
-8999.556305528231
 31
0.0
 11
402.6607524501816
 21
-8991.774090486684
 31
0.0
 11
387.7224912079034
 21
-8987.925745486928
 31
0.0
 11
373.7355739054332
 21
-8985.386297623769
 31
0.0
 11
360.5720453277318
 21
-8983.940797569281
 31
0.0
 11
349.1315378950512
 21
-8983.71845068324
 31
0.0
 11
337.4465823913345
 21
-8983.940797569283
 31
0.0
  0
LWPOLYLINE
  5
1DA
330
1F
100
AcDbEntity
  8
$DDT_AUDIT_GENERATED__3B_
  6
Continuous
 62
     1
100
AcDbPolyline
 90
        2
 70
     0
 43
0.0
 10
-1716.190733608978
 20
-1334.287599953648
 10
-1716.190733608978
 20
-2005.954001395621
  0
LWPOLYLINE
  5
1DB
330
1F
100
AcDbEntity
  8
$DDT_AUDIT_GENERATED__3B_
  6
Continuous
 62
     7
100
AcDbPolyline
 90
        2
 70
     0
 43
0.0
 10
-1008.5205252116
 20
988.3321221833976
 10
-1008.5205252116
 20
1101.016554483549
  0
LWPOLYLINE
  5
1DC
330
1F
100
AcDbEntity
  8
$DDT_AUDIT_GENERATED__3B_
  6
Continuous
 62
     7
100
AcDbPolyline
 90
        2
 70
     0
 43
0.0
 10
-885.3758644703635
 20
988.3321221833976
 10
-885.3758644703635
 20
995.6492931119792
  0
LWPOLYLINE
  5
1DD
330
1F
100
AcDbEntity
  8
$DDT_AUDIT_GENERATED__3B_
  6
Continuous
 62
     1
100
AcDbPolyline
 90
        2
 70
     0
 43
0.0
 10
-1716.190733608978
 20
885.3263114296878
 10
-1716.190733608978
 20
1556.959453003801
  0
LWPOLYLINE
  5
1DE
330
1F
100
AcDbEntity
  8
$DDT_AUDIT_GENERATED__3B_
  6
Continuous
 62
     7
100
AcDbPolyline
 90
        2
 70
     0
 43
0.0
 10
-886.2073611667934
 20
-1902.914930774057
 10
-886.2073611667934
 20
-1790.230498473904
  0
LWPOLYLINE
  5
1DF
330
1F
100
AcDbEntity
  8
$DDT_AUDIT_GENERATED__3B_
  6
Continuous
 62
     7
100
AcDbPolyline
 90
        2
 70
     0
 43
0.0
 10
-763.0793303594851
 20
-1902.914930774057
 10
-763.0793303594851
 20
-1895.597759845476
  0
LWPOLYLINE
  5
1E0
330
1F
100
AcDbEntity
  8
$DDT_AUDIT_GENERATED__3B_
  6
Continuous
 62
     7
100
AcDbPolyline
 90
        2
 70
     0
 43
0.0
 10
-640.7495363807489
 20
-4794.178613665435
 10
-640.7661663146773
 20
-4786.861442736853
  0
LWPOLYLINE
  5
1E1
330
1F
100
AcDbEntity
  8
$DDT_AUDIT_GENERATED__3B_
  6
Continuous
 62
     7
100
AcDbPolyline
 90
        2
 70
     0
 43
0.0
 10
-763.8941971219856
 20
-4794.178613665435
 10
-763.8941971219856
 20
-4681.510811299214
  0
LWPOLYLINE
  5
1E2
330
1F
100
AcDbEntity
  8
$DDT_AUDIT_GENERATED__3B_
  6
Continuous
 62
     7
100
AcDbPolyline
 90
        2
 70
     0
 43
0.0
 10
-2668.487270095971
 20
-4681.510811299214
 10
-2668.470640162042
 20
-4794.178613665435
  0
LWPOLYLINE
  5
1E3
330
1F
100
AcDbEntity
  8
$DDT_AUDIT_GENERATED__3B_
  6
Continuous
 62
     7
100
AcDbPolyline
 90
        2
 70
     0
 43
0.0
 10
-2791.631930837208
 20
-4786.861442736853
 10
-2791.631930837208
 20
-4794.178613665435
  0
LWPOLYLINE
  5
1E4
330
1F
100
AcDbEntity
  8
$DDT_AUDIT_GENERATED__3B_
  6
Continuous
 62
     1
100
AcDbPolyline
 90
        2
 70
     0
 43
0.0
 10
-1716.190733608978
 20
-4225.567912778959
 10
-1716.190733608978
 20
-4897.201054353073
  0
LWPOLYLINE
  5
1E5
330
1F
100
AcDbEntity
  8
$DDT_AUDIT_GENERATED__3B_
  6
Continuous
 62
     7
100
AcDbPolyline
 90
        2
 70
     0
 43
0.0
 10
-2669.302136858472
 20
-1895.597759845476
 10
-2669.302136858472
 20
-1902.914930774057
  0
LWPOLYLINE
  5
1E6
330
1F
100
AcDbEntity
  8
$DDT_AUDIT_GENERATED__3B_
  6
Continuous
 62
     7
100
AcDbPolyline
 90
        2
 70
     0
 43
0.0
 10
-2546.157476117235
 20
-1790.230498473904
 10
-2546.157476117235
 20
-1902.914930774057
  0
LWPOLYLINE
  5
1E7
330
1F
100
AcDbEntity
  8
$DDT_AUDIT_GENERATED__3B_
  6
Continuous
 62
     7
100
AcDbPolyline
 90
        2
 70
     0
 43
0.0
 10
-2546.988972813665
 20
995.6492931119792
 10
-2546.988972813665
 20
988.3321221833976
  0
LWPOLYLINE
  5
1E8
330
1F
100
AcDbEntity
  8
$DDT_AUDIT_GENERATED__3B_
  6
Continuous
 62
     7
100
AcDbPolyline
 90
        2
 70
     0
 43
0.0
 10
-2423.860942006357
 20
1101.016554483549
 10
-2423.860942006357
 20
988.3321221833976
  0
LWPOLYLINE
  5
1E9
330
1F
100
AcDbEntity
  8
$DDT_AUDIT_GENERATED__3B_
  6
Continuous
 62
     5
100
AcDbPolyline
 90
        2
 70
     0
 43
0.0
 10
389.5247602974196
 20
-5075.57372567117
 10
413.255676013523
 20
-5075.57372567117
  0
LWPOLYLINE
  5
1EA
330
1F
100
AcDbEntity
  8
$DDT_AUDIT_GENERATED__3B_
  6
Continuous
 62
     7
100
AcDbPolyline
 90
        2
 70
     0
 43
0.0
 10
508.6782368957938
 20
-4795.675307719007
 10
508.6782368957938
 20
-4897.217684287003
  0
LWPOLYLINE
  5
1EB
330
1F
100
AcDbEntity
  8
$DDT_AUDIT_GENERATED__93_
  6
Continuous
 62
     5
100
AcDbPolyline
 90
        2
 70
     0
 43
0.0
 10
413.2390460795941
 20
-4944.563106181709
 10
413.2390460795941
 20
-4945.02874433171
  0
LWPOLYLINE
  5
1EC
330
1F
100
AcDbEntity
  8
$DDT_AUDIT_GENERATED__93_
  6
Continuous
 62
     5
100
AcDbPolyline
 90
        2
 70
     0
 43
0.0
 10
413.2390460795941
 20
-4944.563106181709
 10
413.2390460795941
 20
-4943.49879041028
  0
LWPOLYLINE
  5
1ED
330
1F
100
AcDbEntity
  8
$DDT_AUDIT_GENERATED__93_
  6
Continuous
 62
     5
100
AcDbPolyline
 90
        2
 70
     0
 43
0.0
 10
413.255676013523
 20
-4946.142949904925
 10
413.255676013523
 20
-4920.632631258462
  0
LWPOLYLINE
  5
1EE
330
1F
100
AcDbEntity
  8
$DDT_AUDIT_GENERATED__93_
  6
Continuous
 62
     5
100
AcDbPolyline
 90
        2
 70
     0
 43
0.0
 10
-2546.988972813665
 20
857.5210619010777
 10
-2546.988972813665
 20
885.3263114296878
  0
LWPOLYLINE
  5
1EF
330
1F
100
AcDbEntity
  8
$DDT_AUDIT_GENERATED__93_
  6
Continuous
 62
     5
100
AcDbPolyline
 90
        2
 70
     0
 43
0.0
 10
-2546.988972813665
 20
857.5210619010777
 10
-2547.022232681522
 20
876.1465879011012
  0
LWPOLYLINE
  5
1F0
330
1F
100
AcDbEntity
  8
$DDT_AUDIT_GENERATED__93_
  6
Continuous
 62
     5
100
AcDbPolyline
 90
        2
 70
     0
 43
0.0
 10
-2669.302136858472
 20
-2033.742620990304
 10
-2669.302136858472
 20
-2005.954001395621
  0
LWPOLYLINE
  5
1F1
330
1F
100
AcDbEntity
  8
$DDT_AUDIT_GENERATED__93_
  6
Continuous
 62
     5
100
AcDbPolyline
 90
        2
 70
     0
 43
0.0
 10
-2669.302136858472
 20
-2033.742620990304
 10
-2669.335396726329
 20
-2015.100465056348
  0
LWPOLYLINE
  5
1F2
330
1F
100
AcDbEntity
  8
$DDT_AUDIT_GENERATED__93_
  6
Continuous
 62
     5
100
AcDbPolyline
 90
        2
 70
     0
 43
0.0
 10
-2791.631930837208
 20
-4924.989673947754
 10
-2791.631930837208
 20
-4897.201054353073
  0
LWPOLYLINE
  5
1F3
330
1F
100
AcDbEntity
  8
$DDT_AUDIT_GENERATED__93_
  6
Continuous
 62
     5
100
AcDbPolyline
 90
        2
 70
     0
 43
0.0
 10
-2791.631930837208
 20
-4924.989673947754
 10
-2791.665190705065
 20
-4906.380777881658
  0
LWPOLYLINE
  5
1F4
330
1F
100
AcDbEntity
  8
$DDT_AUDIT_GENERATED__93_
  6
Continuous
 62
     5
100
AcDbPolyline
 90
        2
 70
     0
 43
0.0
 10
-2667.938482276327
 20
-5075.540465803313
 10
-2668.287710888828
 20
-4897.201054353073
  0
LWPOLYLINE
  5
1F5
330
1F
100
AcDbEntity
  8
$DDT_AUDIT_GENERATED__93_
  6
Continuous
 62
     5
100
AcDbPolyline
 90
        2
 70
     0
 43
0.0
 10
-2423.295524252785
 20
706.9868999794471
 10
-2423.644752865285
 20
885.3263114296878
  0
LWPOLYLINE
  5
1F6
330
1F
100
AcDbEntity
  8
$DDT_AUDIT_GENERATED__93_
  6
Continuous
 62
     5
100
AcDbPolyline
 90
        2
 70
     0
 43
0.0
 10
-2545.608688297592
 20
-2184.276782911933
 10
-2545.974546844021
 20
-2005.954001395621
  0
LWPOLYLINE
  5
1F7
330
1F
100
AcDbEntity
  8
$DDT_AUDIT_GENERATED__93_
  6
Continuous
 62
     5
100
AcDbPolyline
 90
        2
 70
     0
 43
0.0
 10
-763.0793303594851
 20
-2033.742620990304
 10
-763.0793303594851
 20
-2184.310042779788
  0
LWPOLYLINE
  5
1F8
330
1F
100
AcDbEntity
  8
$DDT_AUDIT_GENERATED__93_
  6
Continuous
 62
     5
100
AcDbPolyline
 90
        2
 70
     0
 43
0.0
 10
-885.3758644703635
 20
857.5210619010777
 10
-885.3758644703635
 20
706.9370101776603
  0
LWPOLYLINE
  5
1F9
330
1F
100
AcDbEntity
  8
$DDT_AUDIT_GENERATED__93_
  6
Continuous
 62
     5
100
AcDbPolyline
 90
        2
 70
     0
 43
0.0
 10
-640.7495363807489
 20
-4924.989673947754
 10
-640.7495363807489
 20
-5075.57372567117
  0
LWPOLYLINE
  5
1FA
330
1F
100
AcDbEntity
  8
$DDT_AUDIT_GENERATED__93_
  6
Continuous
 62
     7
100
AcDbPolyline
 90
        2
 70
     0
 43
0.0
 10
1151.491702971656
 20
-4897.201054353073
 10
1153.936303259159
 20
-4897.201054353073
  0
LWPOLYLINE
  5
1FB
330
1F
100
AcDbEntity
  8
$DDT_AUDIT_GENERATED__93_
  6
Continuous
 62
     5
100
AcDbPolyline
 90
        2
 70
     0
 43
0.0
 10
1045.060125828657
 20
-4920.499591787034
 10
1040.370484460793
 20
-4920.582741456676
  0
LWPOLYLINE
  5
1FC
330
1F
100
AcDbEntity
  8
$DDT_AUDIT_GENERATED__93_
  6
Continuous
 62
     7
100
AcDbPolyline
 90
        2
 70
     0
 43
0.0
 10
-2480.968135117148
 20
885.3263114296878
 10
-2545.542168561877
 20
885.3263114296878
  0
LWPOLYLINE
  5
1FD
330
1F
100
AcDbEntity
  8
$DDT_AUDIT_GENERATED__93_
  6
Continuous
 62
     7
100
AcDbPolyline
 90
        2
 70
     0
 43
0.0
 10
-2480.968135117148
 20
885.3263114296878
 10
-2423.644752865285
 20
885.3263114296878
  0
LWPOLYLINE
  5
1FE
330
1F
100
AcDbEntity
  8
$DDT_AUDIT_GENERATED__93_
  6
Continuous
 62
     7
100
AcDbPolyline
 90
        2
 70
     0
 43
0.0
 10
-2725.594463206762
 20
-4897.201054353073
 10
-2790.168496651492
 20
-4897.201054353073
  0
LWPOLYLINE
  5
1FF
330
1F
100
AcDbEntity
  8
$DDT_AUDIT_GENERATED__93_
  6
Continuous
 62
     7
100
AcDbPolyline
 90
        2
 70
     0
 43
0.0
 10
-2725.594463206762
 20
-4897.201054353073
 10
-2668.287710888828
 20
-4897.201054353073
  0
LWPOLYLINE
  5
200
330
1F
100
AcDbEntity
  8
$DDT_AUDIT_GENERATED__93_
  6
Continuous
 62
     7
100
AcDbPolyline
 90
        2
 70
     0
 43
0.0
 10
-2603.281299161955
 20
-2005.954001395621
 10
-2667.855332606684
 20
-2005.954001395621
  0
LWPOLYLINE
  5
201
330
1F
100
AcDbEntity
  8
$DDT_AUDIT_GENERATED__93_
  6
Continuous
 62
     7
100
AcDbPolyline
 90
        2
 70
     0
 43
0.0
 10
-2603.281299161955
 20
-2005.954001395621
 10
-2545.974546844021
 20
-2005.954001395621
  0
LWPOLYLINE
  5
202
330
1F
100
AcDbEntity
  8
$DDT_AUDIT_GENERATED__93_
  6
Continuous
 62
     7
100
AcDbPolyline
 90
        2
 70
     0
 43
0.0
 10
-2466.450202797485
 20
885.3263114296878
 10
-2545.542168561877
 20
885.3263114296878
  0
LWPOLYLINE
  5
203
330
1F
100
AcDbEntity
  8
$DDT_AUDIT_GENERATED__93_
  6
Continuous
 62
     7
100
AcDbPolyline
 90
        2
 70
     0
 43
0.0
 10
-2466.450202797485
 20
885.3263114296878
 10
-2546.988972813665
 20
885.3263114296878
  0
LWPOLYLINE
  5
204
330
1F
100
AcDbEntity
  8
$DDT_AUDIT_GENERATED__93_
  6
Continuous
 62
     7
100
AcDbPolyline
 90
        2
 70
     0
 43
0.0
 10
-2577.371862101206
 20
-2005.954001395621
 10
-2667.855332606684
 20
-2005.954001395621
  0
LWPOLYLINE
  5
205
330
1F
100
AcDbEntity
  8
$DDT_AUDIT_GENERATED__93_
  6
Continuous
 62
     7
100
AcDbPolyline
 90
        2
 70
     0
 43
0.0
 10
-2577.371862101206
 20
-2005.954001395621
 10
-2669.302136858472
 20
-2005.954001395621
  0
LWPOLYLINE
  5
206
330
1F
100
AcDbEntity
  8
$DDT_AUDIT_GENERATED__93_
  6
Continuous
 62
     7
100
AcDbPolyline
 90
        2
 70
     0
 43
0.0
 10
-2688.426560876355
 20
-4897.201054353073
 10
-2790.168496651492
 20
-4897.201054353073
  0
LWPOLYLINE
  5
207
330
1F
100
AcDbEntity
  8
$DDT_AUDIT_GENERATED__93_
  6
Continuous
 62
     7
100
AcDbPolyline
 90
        2
 70
     0
 43
0.0
 10
-2688.426560876355
 20
-4897.201054353073
 10
-2791.631930837208
 20
-4897.201054353073
  0
LWPOLYLINE
  5
208
330
1F
100
AcDbEntity
  8
$DDT_AUDIT_GENERATED__93_
  6
Continuous
 62
     5
100
AcDbPolyline
 90
        2
 70
     0
 43
0.0
 10
1121.77401104126
 20
-4920.649261192392
 10
1131.136663843059
 20
-4920.649261192392
  0
LWPOLYLINE
  5
209
330
1F
100
AcDbEntity
  8
$DDT_AUDIT_GENERATED__93_
  6
Continuous
 62
     5
100
AcDbPolyline
 90
        2
 70
     0
 43
0.0
 10
1121.77401104126
 20
-4920.649261192392
 10
1115.837124628751
 20
-4920.649261192392
  0
LWPOLYLINE
  5
20A
330
1F
100
AcDbEntity
  8
$DDT_AUDIT_GENERATED__93_
  6
Continuous
 62
     7
100
AcDbPolyline
 90
        2
 70
     0
 43
0.0
 10
-965.9478943544004
 20
885.3263114296878
 10
-1716.190733608978
 20
885.3263114296878
  0
LWPOLYLINE
  5
20B
330
1F
100
AcDbEntity
  8
$DDT_AUDIT_GENERATED__93_
  6
Continuous
 62
     7
100
AcDbPolyline
 90
        2
 70
     0
 43
0.0
 10
-965.9478943544004
 20
885.3263114296878
 10
-988.5978643651447
 20
885.3263114296878
  0
LWPOLYLINE
  5
20C
330
1F
100
AcDbEntity
  8
$DDT_AUDIT_GENERATED__93_
  6
Continuous
 62
     7
100
AcDbPolyline
 90
        2
 70
     0
 43
0.0
 10
-855.0096051167511
 20
-2005.954001395621
 10
-1716.190733608978
 20
-2005.954001395621
  0
LWPOLYLINE
  5
20D
330
1F
100
AcDbEntity
  8
$DDT_AUDIT_GENERATED__93_
  6
Continuous
 62
     7
100
AcDbPolyline
 90
        2
 70
     0
 43
0.0
 10
-855.0096051167511
 20
-2005.954001395621
 10
-866.2680703864089
 20
-2005.954001395621
  0
LWPOLYLINE
  5
20E
330
1F
100
AcDbEntity
  8
$DDT_AUDIT_GENERATED__93_
  6
Continuous
 62
     7
100
AcDbPolyline
 90
        2
 70
     0
 43
0.0
 10
-743.954906341602
 20
-4897.201054353073
 10
-1716.190733608978
 20
-4897.201054353073
  0
LWPOLYLINE
  5
20F
330
1F
100
AcDbEntity
  8
$DDT_AUDIT_GENERATED__93_
  6
Continuous
 62
     7
100
AcDbPolyline
 90
        2
 70
     0
 43
0.0
 10
389.740949438491
 20
-4897.201054353073
 10
1107.688457003741
 20
-4897.201054353073
  0
LWPOLYLINE
  5
210
330
1F
100
AcDbEntity
  8
$DDT_AUDIT_GENERATED__93_
  6
Continuous
 62
     5
100
AcDbPolyline
 90
        2
 70
     0
 43
0.0
 10
-2790.168496651492
 20
-5075.57372567117
 10
-2669.68462533883
 20
-5075.57372567117
  0
LWPOLYLINE
  5
211
330
1F
100
AcDbEntity
  8
$DDT_AUDIT_GENERATED__93_
  6
Continuous
 62
     5
100
AcDbPolyline
 90
        2
 70
     0
 43
0.0
 10
-2669.68462533883
 20
-5075.57372567117
 10
-2667.938482276327
 20
-5075.57372567117
  0
LWPOLYLINE
  5
212
330
1F
100
AcDbEntity
  8
$DDT_AUDIT_GENERATED__93_
  6
Continuous
 62
     5
100
AcDbPolyline
 90
        2
 70
     0
 43
0.0
 10
-762.7134718130555
 20
-5075.57372567117
 10
-642.1963406325372
 20
-5075.57372567117
  0
LWPOLYLINE
  5
213
330
1F
100
AcDbEntity
  8
$DDT_AUDIT_GENERATED__93_
  6
Continuous
 62
     5
100
AcDbPolyline
 90
        2
 70
     0
 43
0.0
 10
-642.1963406325372
 20
-5075.57372567117
 10
-640.7329064468208
 20
-5075.57372567117
  0
LWPOLYLINE
  5
214
330
1F
100
AcDbEntity
  8
$DDT_AUDIT_GENERATED__93_
  6
Continuous
 62
     5
100
AcDbPolyline
 90
        2
 70
     0
 43
0.0
 10
-885.0266358578629
 20
-2184.310042779788
 10
-764.526134611272
 20
-2184.310042779788
  0
LWPOLYLINE
  5
215
330
1F
100
AcDbEntity
  8
$DDT_AUDIT_GENERATED__93_
  6
Continuous
 62
     5
100
AcDbPolyline
 90
        2
 70
     0
 43
0.0
 10
-764.526134611272
 20
-2184.310042779788
 10
-763.0460704916272
 20
-2184.310042779788
  0
LWPOLYLINE
  5
216
330
1F
100
AcDbEntity
  8
$DDT_AUDIT_GENERATED__93_
  6
Continuous
 62
     5
100
AcDbPolyline
 90
        2
 70
     0
 43
0.0
 10
-2667.855332606684
 20
-2184.310042779788
 10
-2547.354831360094
 20
-2184.310042779788
  0
LWPOLYLINE
  5
217
330
1F
100
AcDbEntity
  8
$DDT_AUDIT_GENERATED__93_
  6
Continuous
 62
     5
100
AcDbPolyline
 90
        2
 70
     0
 43
0.0
 10
-2547.354831360094
 20
-2184.310042779788
 10
-2545.608688297592
 20
-2184.310042779788
  0
LWPOLYLINE
  5
218
330
1F
100
AcDbEntity
  8
$DDT_AUDIT_GENERATED__93_
  6
Continuous
 62
     5
100
AcDbPolyline
 90
        2
 70
     0
 43
0.0
 10
-1007.323169968741
 20
706.9370101776603
 10
-886.8392986560793
 20
706.9370101776603
  0
LWPOLYLINE
  5
219
330
1F
100
AcDbEntity
  8
$DDT_AUDIT_GENERATED__93_
  6
Continuous
 62
     5
100
AcDbPolyline
 90
        2
 70
     0
 43
0.0
 10
-886.8392986560793
 20
706.9370101776603
 10
-885.3592345364341
 20
706.9370101776603
  0
LWPOLYLINE
  5
21A
330
1F
100
AcDbEntity
  8
$DDT_AUDIT_GENERATED__93_
  6
Continuous
 62
     5
100
AcDbPolyline
 90
        2
 70
     0
 43
0.0
 10
-2545.542168561877
 20
706.9370101776603
 10
-2425.041667315287
 20
706.9370101776603
  0
LWPOLYLINE
  5
21B
330
1F
100
AcDbEntity
  8
$DDT_AUDIT_GENERATED__93_
  6
Continuous
 62
     5
100
AcDbPolyline
 90
        2
 70
     0
 43
0.0
 10
-2425.041667315287
 20
706.9370101776603
 10
-2423.295524252785
 20
706.9370101776603
  0
LWPOLYLINE
  5
21C
330
1F
100
AcDbEntity
  8
$DDT_AUDIT_GENERATED__93_
  6
Continuous
 62
     7
100
AcDbPolyline
 90
        2
 70
     0
 43
0.0
 10
-706.7703740772658
 20
-4897.201054353073
 10
-762.7134718130555
 20
-4897.201054353073
  0
LWPOLYLINE
  5
21D
330
1F
100
AcDbEntity
  8
$DDT_AUDIT_GENERATED__93_
  6
Continuous
 62
     7
100
AcDbPolyline
 90
        2
 70
     0
 43
0.0
 10
-951.4133321008085
 20
885.3263114296878
 10
-1007.323169968741
 20
885.3263114296878
  0
LWPOLYLINE
  5
21E
330
1F
100
AcDbEntity
  8
$DDT_AUDIT_GENERATED__93_
  6
Continuous
 62
     7
100
AcDbPolyline
 90
        2
 70
     0
 43
0.0
 10
-829.0835381220736
 20
-2005.954001395621
 10
-885.0266358578629
 20
-2005.954001395621
  0
LWPOLYLINE
  5
21F
330
1F
100
AcDbEntity
  8
$DDT_AUDIT_GENERATED__93_
  6
Continuous
 62
     5
100
AcDbPolyline
 90
        2
 70
     0
 43
0.0
 10
-1007.323169968741
 20
706.9370101776603
 10
-886.8392986560793
 20
706.9370101776603
  0
LWPOLYLINE
  5
220
330
1F
100
AcDbEntity
  8
$DDT_AUDIT_GENERATED__93_
  6
Continuous
 62
     5
100
AcDbPolyline
 90
        2
 70
     0
 43
0.0
 10
-1008.736714352671
 20
885.3263114296878
 10
-1009.085942965172
 20
706.9868999794471
  0
LWPOLYLINE
  5
221
330
1F
100
AcDbEntity
  8
$DDT_AUDIT_GENERATED__93_
  6
Continuous
 62
     5
100
AcDbPolyline
 90
        2
 70
     0
 43
0.0
 10
-885.3426046025061
 20
876.1465879011012
 10
-885.3758644703635
 20
857.5210619010777
  0
LWPOLYLINE
  5
222
330
1F
100
AcDbEntity
  8
$DDT_AUDIT_GENERATED__93_
  6
Continuous
 62
     7
100
AcDbPolyline
 90
        2
 70
     0
 43
0.0
 10
-886.8392986560793
 20
885.3263114296878
 10
-965.9478943544004
 20
885.3263114296878
  0
LWPOLYLINE
  5
223
330
1F
100
AcDbEntity
  8
$DDT_AUDIT_GENERATED__93_
  6
Continuous
 62
     5
100
AcDbPolyline
 90
        2
 70
     0
 43
0.0
 10
-885.3758644703635
 20
885.3263114296878
 10
-885.3758644703635
 20
857.5210619010777
  0
LWPOLYLINE
  5
224
330
1F
100
AcDbEntity
  8
$DDT_AUDIT_GENERATED__93_
  6
Continuous
 62
     7
100
AcDbPolyline
 90
        2
 70
     0
 43
0.0
 10
-886.8392986560793
 20
885.3263114296878
 10
-951.4133321008085
 20
885.3263114296878
  0
LWPOLYLINE
  5
225
330
1F
100
AcDbEntity
  8
$DDT_AUDIT_GENERATED__93_
  6
Continuous
 62
     5
100
AcDbPolyline
 90
        2
 70
     0
 43
0.0
 10
-1009.085942965172
 20
706.9370101776603
 10
-1007.323169968741
 20
706.9370101776603
  0
LWPOLYLINE
  5
226
330
1F
100
AcDbEntity
  8
$DDT_AUDIT_GENERATED__93_
  6
Continuous
 62
     7
100
AcDbPolyline
 90
        2
 70
     0
 43
0.0
 10
-885.3758644703635
 20
891.4294971814797
 10
-885.3758644703635
 20
988.3321221833976
  0
LWPOLYLINE
  5
227
330
1F
100
AcDbEntity
  8
$DDT_AUDIT_GENERATED__93_
  6
Continuous
 62
     7
100
AcDbPolyline
 90
        2
 70
     0
 43
0.0
 10
-885.3758644703635
 20
1556.959453003801
 10
-1716.190733608978
 20
1556.959453003801
  0
LWPOLYLINE
  5
228
330
1F
100
AcDbEntity
  8
$DDT_AUDIT_GENERATED__93_
  6
Continuous
 62
     7
100
AcDbPolyline
 90
        2
 70
     0
 43
0.0
 10
-885.3758644703635
 20
1556.959453003801
 10
-885.3758644703635
 20
1548.544706435932
  0
LWPOLYLINE
  5
229
330
1F
100
AcDbEntity
  8
$DDT_AUDIT_GENERATED__93_
  6
Continuous
 62
     7
100
AcDbPolyline
 90
        2
 70
     0
 43
0.0
 10
-885.3758644703635
 20
1325.321103312419
 10
-885.3758644703635
 20
1312.000526235615
  0
LWPOLYLINE
  5
22A
330
1F
100
AcDbEntity
  8
$DDT_AUDIT_GENERATED__93_
  6
Continuous
 62
     7
100
AcDbPolyline
 90
        2
 70
     0
 43
0.0
 10
-885.3758644703635
 20
1548.544706435932
 10
-885.3758644703635
 20
1325.321103312419
  0
LWPOLYLINE
  5
22B
330
1F
100
AcDbEntity
  8
$DDT_AUDIT_GENERATED__93_
  6
Continuous
 62
     7
100
AcDbPolyline
 90
        2
 70
     0
 43
0.0
 10
-885.3758644703635
 20
885.3263114296878
 10
-965.9478943544004
 20
885.3263114296878
  0
LWPOLYLINE
  5
22C
330
1F
100
AcDbEntity
  8
$DDT_AUDIT_GENERATED__93_
  6
Continuous
 62
     7
100
AcDbPolyline
 90
        2
 70
     0
 43
0.0
 10
-885.3426046025061
 20
891.4294971814797
 10
-885.3426046025061
 20
885.3263114296878
  0
LWPOLYLINE
  5
22D
330
1F
100
AcDbEntity
  8
$DDT_AUDIT_GENERATED__93_
  6
Continuous
 62
     7
100
AcDbPolyline
 90
        2
 70
     0
 43
0.0
 10
-1716.190733608978
 20
988.3321221833976
 10
-885.3758644703635
 20
988.3321221833976
  0
LWPOLYLINE
  5
22E
330
1F
100
AcDbEntity
  8
$DDT_AUDIT_GENERATED__93_
  6
Continuous
 62
     7
100
AcDbPolyline
 90
        2
 70
     0
 43
0.0
 10
-1008.736714352671
 20
885.3263114296878
 10
-951.4133321008085
 20
885.3263114296878
  0
LWPOLYLINE
  5
22F
330
1F
100
AcDbEntity
  8
$DDT_AUDIT_GENERATED__93_
  6
Continuous
 62
     7
100
AcDbPolyline
 90
        2
 70
     0
 43
0.0
 10
-1297.266068013773
 20
885.3096814957607
 10
-1008.736714352671
 20
885.3263114296878
  0
LWPOLYLINE
  5
230
330
1F
100
AcDbEntity
  8
$DDT_AUDIT_GENERATED__93_
  6
Continuous
 62
     7
100
AcDbPolyline
 90
        2
 70
     0
 43
0.0
 10
-1716.190733608978
 20
1116.316093697851
 10
-1059.49127270274
 20
1116.316093697851
  0
LWPOLYLINE
  5
231
330
1F
100
AcDbEntity
  8
$DDT_AUDIT_GENERATED__93_
  6
Continuous
 62
     5
100
AcDbPolyline
 90
        2
 70
     0
 43
0.0
 10
-885.0266358578629
 20
-2184.310042779788
 10
-764.526134611272
 20
-2184.310042779788
  0
LWPOLYLINE
  5
232
330
1F
100
AcDbEntity
  8
$DDT_AUDIT_GENERATED__93_
  6
Continuous
 62
     5
100
AcDbPolyline
 90
        2
 70
     0
 43
0.0
 10
-886.4235503078648
 20
-2005.954001395621
 10
-886.772778920365
 20
-2184.276782911933
  0
LWPOLYLINE
  5
233
330
1F
100
AcDbEntity
  8
$DDT_AUDIT_GENERATED__93_
  6
Continuous
 62
     5
100
AcDbPolyline
 90
        2
 70
     0
 43
0.0
 10
-763.0460704916272
 20
-2015.100465056348
 10
-763.0793303594851
 20
-2033.742620990304
  0
LWPOLYLINE
  5
234
330
1F
100
AcDbEntity
  8
$DDT_AUDIT_GENERATED__93_
  6
Continuous
 62
     7
100
AcDbPolyline
 90
        2
 70
     0
 43
0.0
 10
-764.526134611272
 20
-2005.954001395621
 10
-855.0096051167511
 20
-2005.954001395621
  0
LWPOLYLINE
  5
235
330
1F
100
AcDbEntity
  8
$DDT_AUDIT_GENERATED__93_
  6
Continuous
 62
     5
100
AcDbPolyline
 90
        2
 70
     0
 43
0.0
 10
-763.0793303594851
 20
-2005.954001395621
 10
-763.0793303594851
 20
-2033.742620990304
  0
LWPOLYLINE
  5
236
330
1F
100
AcDbEntity
  8
$DDT_AUDIT_GENERATED__93_
  6
Continuous
 62
     7
100
AcDbPolyline
 90
        2
 70
     0
 43
0.0
 10
-764.526134611272
 20
-2005.954001395621
 10
-829.0835381220736
 20
-2005.954001395621
  0
LWPOLYLINE
  5
237
330
1F
100
AcDbEntity
  8
$DDT_AUDIT_GENERATED__93_
  6
Continuous
 62
     5
100
AcDbPolyline
 90
        2
 70
     0
 43
0.0
 10
-886.772778920365
 20
-2184.310042779788
 10
-885.0266358578629
 20
-2184.310042779788
  0
LWPOLYLINE
  5
238
330
1F
100
AcDbEntity
  8
$DDT_AUDIT_GENERATED__93_
  6
Continuous
 62
     7
100
AcDbPolyline
 90
        2
 70
     0
 43
0.0
 10
-763.0793303594851
 20
-1999.8341857099
 10
-763.0793303594851
 20
-1902.914930774057
  0
LWPOLYLINE
  5
239
330
1F
100
AcDbEntity
  8
$DDT_AUDIT_GENERATED__93_
  6
Continuous
 62
     7
100
AcDbPolyline
 90
        2
 70
     0
 43
0.0
 10
-763.0793303594851
 20
-1334.287599953648
 10
-1716.190733608978
 20
-1334.287599953648
  0
LWPOLYLINE
  5
23A
330
1F
100
AcDbEntity
  8
$DDT_AUDIT_GENERATED__93_
  6
Continuous
 62
     7
100
AcDbPolyline
 90
        2
 70
     0
 43
0.0
 10
-763.0793303594851
 20
-1334.287599953648
 10
-763.0793303594851
 20
-1342.702346521515
  0
LWPOLYLINE
  5
23B
330
1F
100
AcDbEntity
  8
$DDT_AUDIT_GENERATED__93_
  6
Continuous
 62
     7
100
AcDbPolyline
 90
        2
 70
     0
 43
0.0
 10
-763.0793303594851
 20
-1565.942579578961
 10
-763.0793303594851
 20
-1579.279786589694
  0
LWPOLYLINE
  5
23C
330
1F
100
AcDbEntity
  8
$DDT_AUDIT_GENERATED__93_
  6
Continuous
 62
     7
100
AcDbPolyline
 90
        2
 70
     0
 43
0.0
 10
-763.0793303594851
 20
-1342.702346521515
 10
-763.0793303594851
 20
-1565.942579578961
  0
LWPOLYLINE
  5
23D
330
1F
100
AcDbEntity
  8
$DDT_AUDIT_GENERATED__93_
  6
Continuous
 62
     7
100
AcDbPolyline
 90
        2
 70
     0
 43
0.0
 10
-763.0793303594851
 20
-2005.954001395621
 10
-855.0096051167511
 20
-2005.954001395621
  0
LWPOLYLINE
  5
23E
330
1F
100
AcDbEntity
  8
$DDT_AUDIT_GENERATED__93_
  6
Continuous
 62
     7
100
AcDbPolyline
 90
        2
 70
     0
 43
0.0
 10
-763.0294405576992
 20
-1999.8341857099
 10
-763.0294405576992
 20
-2005.954001395621
  0
LWPOLYLINE
  5
23F
330
1F
100
AcDbEntity
  8
$DDT_AUDIT_GENERATED__93_
  6
Continuous
 62
     7
100
AcDbPolyline
 90
        2
 70
     0
 43
0.0
 10
-1716.190733608978
 20
-1902.914930774057
 10
-763.0793303594851
 20
-1902.914930774057
  0
LWPOLYLINE
  5
240
330
1F
100
AcDbEntity
  8
$DDT_AUDIT_GENERATED__93_
  6
Continuous
 62
     7
100
AcDbPolyline
 90
        2
 70
     0
 43
0.0
 10
-886.4235503078648
 20
-2005.954001395621
 10
-829.0835381220736
 20
-2005.954001395621
  0
LWPOLYLINE
  5
241
330
1F
100
AcDbEntity
  8
$DDT_AUDIT_GENERATED__93_
  6
Continuous
 62
     7
100
AcDbPolyline
 90
        2
 70
     0
 43
0.0
 10
-1052.623109990231
 20
-2005.954001395621
 10
-886.4235503078648
 20
-2005.954001395621
  0
LWPOLYLINE
  5
242
330
1F
100
AcDbEntity
  8
$DDT_AUDIT_GENERATED__93_
  6
Continuous
 62
     7
100
AcDbPolyline
 90
        2
 70
     0
 43
0.0
 10
-1716.190733608978
 20
-1774.930959259596
 10
-937.1781086579326
 20
-1774.930959259596
  0
LWPOLYLINE
  5
243
330
1F
100
AcDbEntity
  8
$DDT_AUDIT_GENERATED__93_
  6
Continuous
 62
     7
100
AcDbPolyline
 90
        2
 70
     0
 43
0.0
 10
-1716.190733608978
 20
-4666.211272084906
 10
-814.8649446131253
 20
-4666.211272084906
  0
LWPOLYLINE
  5
244
330
1F
100
AcDbEntity
  8
$DDT_AUDIT_GENERATED__93_
  6
Continuous
 62
     7
100
AcDbPolyline
 90
        2
 70
     0
 43
0.0
 10
-1052.623109990231
 20
-4897.201054353073
 10
-764.0937563291291
 20
-4897.201054353073
  0
LWPOLYLINE
  5
245
330
1F
100
AcDbEntity
  8
$DDT_AUDIT_GENERATED__93_
  6
Continuous
 62
     7
100
AcDbPolyline
 90
        2
 70
     0
 43
0.0
 10
-764.0937563291291
 20
-4897.201054353073
 10
-706.7703740772658
 20
-4897.201054353073
  0
LWPOLYLINE
  5
246
330
1F
100
AcDbEntity
  8
$DDT_AUDIT_GENERATED__93_
  6
Continuous
 62
     7
100
AcDbPolyline
 90
        2
 70
     0
 43
0.0
 10
-1716.190733608978
 20
-4794.161983731507
 10
-640.7495363807489
 20
-4794.178613665435
  0
LWPOLYLINE
  5
247
330
1F
100
AcDbEntity
  8
$DDT_AUDIT_GENERATED__93_
  6
Continuous
 62
     7
100
AcDbPolyline
 90
        2
 70
     0
 43
0.0
 10
-640.7162765128919
 20
-4891.08123866735
 10
-640.7162765128919
 20
-4897.201054353073
  0
LWPOLYLINE
  5
248
330
1F
100
AcDbEntity
  8
$DDT_AUDIT_GENERATED__93_
  6
Continuous
 62
     7
100
AcDbPolyline
 90
        2
 70
     0
 43
0.0
 10
-640.7495363807489
 20
-4897.201054353073
 10
-743.954906341602
 20
-4897.201054353073
  0
LWPOLYLINE
  5
249
330
1F
100
AcDbEntity
  8
$DDT_AUDIT_GENERATED__93_
  6
Continuous
 62
     7
100
AcDbPolyline
 90
        2
 70
     0
 43
0.0
 10
-640.7495363807489
 20
-4233.982659346825
 10
-640.7495363807489
 20
-4457.189632536411
  0
LWPOLYLINE
  5
24A
330
1F
100
AcDbEntity
  8
$DDT_AUDIT_GENERATED__93_
  6
Continuous
 62
     7
100
AcDbPolyline
 90
        2
 70
     0
 43
0.0
 10
-640.7495363807489
 20
-4457.189632536411
 10
-640.7495363807489
 20
-4470.526839547143
  0
LWPOLYLINE
  5
24B
330
1F
100
AcDbEntity
  8
$DDT_AUDIT_GENERATED__93_
  6
Continuous
 62
     7
100
AcDbPolyline
 90
        2
 70
     0
 43
0.0
 10
-640.7495363807489
 20
-4225.567912778959
 10
-640.7495363807489
 20
-4233.982659346825
  0
LWPOLYLINE
  5
24C
330
1F
100
AcDbEntity
  8
$DDT_AUDIT_GENERATED__93_
  6
Continuous
 62
     7
100
AcDbPolyline
 90
        2
 70
     0
 43
0.0
 10
-640.7495363807489
 20
-4225.567912778959
 10
-1716.190733608978
 20
-4225.567912778959
  0
LWPOLYLINE
  5
24D
330
1F
100
AcDbEntity
  8
$DDT_AUDIT_GENERATED__93_
  6
Continuous
 62
     7
100
AcDbPolyline
 90
        2
 70
     0
 43
0.0
 10
-640.7495363807489
 20
-4891.08123866735
 10
-640.7495363807489
 20
-4794.178613665435
  0
LWPOLYLINE
  5
24E
330
1F
100
AcDbEntity
  8
$DDT_AUDIT_GENERATED__93_
  6
Continuous
 62
     5
100
AcDbPolyline
 90
        2
 70
     0
 43
0.0
 10
-764.4429849416292
 20
-5075.57372567117
 10
-762.7134718130555
 20
-5075.57372567117
  0
LWPOLYLINE
  5
24F
330
1F
100
AcDbEntity
  8
$DDT_AUDIT_GENERATED__93_
  6
Continuous
 62
     7
100
AcDbPolyline
 90
        2
 70
     0
 43
0.0
 10
-642.1963406325372
 20
-4897.201054353073
 10
-706.7703740772658
 20
-4897.201054353073
  0
LWPOLYLINE
  5
250
330
1F
100
AcDbEntity
  8
$DDT_AUDIT_GENERATED__93_
  6
Continuous
 62
     5
100
AcDbPolyline
 90
        2
 70
     0
 43
0.0
 10
-640.7495363807489
 20
-4897.201054353073
 10
-640.7495363807489
 20
-4924.989673947754
  0
LWPOLYLINE
  5
251
330
1F
100
AcDbEntity
  8
$DDT_AUDIT_GENERATED__93_
  6
Continuous
 62
     7
100
AcDbPolyline
 90
        2
 70
     0
 43
0.0
 10
-642.1963406325372
 20
-4897.201054353073
 10
-743.954906341602
 20
-4897.201054353073
  0
LWPOLYLINE
  5
252
330
1F
100
AcDbEntity
  8
$DDT_AUDIT_GENERATED__93_
  6
Continuous
 62
     5
100
AcDbPolyline
 90
        2
 70
     0
 43
0.0
 10
-640.7162765128919
 20
-4906.380777881658
 10
-640.7495363807489
 20
-4924.989673947754
  0
LWPOLYLINE
  5
253
330
1F
100
AcDbEntity
  8
$DDT_AUDIT_GENERATED__93_
  6
Continuous
 62
     5
100
AcDbPolyline
 90
        2
 70
     0
 43
0.0
 10
-764.0937563291291
 20
-4897.201054353073
 10
-764.4429849416292
 20
-5075.540465803313
  0
LWPOLYLINE
  5
254
330
1F
100
AcDbEntity
  8
$DDT_AUDIT_GENERATED__93_
  6
Continuous
 62
     5
100
AcDbPolyline
 90
        2
 70
     0
 43
0.0
 10
-762.7134718130555
 20
-5075.57372567117
 10
-642.1963406325372
 20
-5075.57372567117
  0
LWPOLYLINE
  5
255
330
1F
100
AcDbEntity
  8
$DDT_AUDIT_GENERATED__93_
  6
Continuous
 62
     5
100
AcDbPolyline
 90
        2
 70
     0
 43
0.0
 10
-2790.168496651492
 20
-5075.57372567117
 10
-2669.68462533883
 20
-5075.57372567117
  0
LWPOLYLINE
  5
256
330
1F
100
AcDbEntity
  8
$DDT_AUDIT_GENERATED__93_
  6
Continuous
 62
     5
100
AcDbPolyline
 90
        2
 70
     0
 43
0.0
 10
-2791.631930837208
 20
-5075.57372567117
 10
-2791.631930837208
 20
-4924.989673947754
  0
LWPOLYLINE
  5
257
330
1F
100
AcDbEntity
  8
$DDT_AUDIT_GENERATED__93_
  6
Continuous
 62
     7
100
AcDbPolyline
 90
        2
 70
     0
 43
0.0
 10
-2669.68462533883
 20
-4897.201054353073
 10
-2725.594463206762
 20
-4897.201054353073
  0
LWPOLYLINE
  5
258
330
1F
100
AcDbEntity
  8
$DDT_AUDIT_GENERATED__93_
  6
Continuous
 62
     5
100
AcDbPolyline
 90
        2
 70
     0
 43
0.0
 10
-2791.648560771137
 20
-5075.57372567117
 10
-2790.168496651492
 20
-5075.57372567117
  0
LWPOLYLINE
  5
259
330
1F
100
AcDbEntity
  8
$DDT_AUDIT_GENERATED__93_
  6
Continuous
 62
     7
100
AcDbPolyline
 90
        2
 70
     0
 43
0.0
 10
-2791.631930837208
 20
-4794.178613665435
 10
-2791.631930837208
 20
-4891.08123866735
  0
LWPOLYLINE
  5
25A
330
1F
100
AcDbEntity
  8
$DDT_AUDIT_GENERATED__93_
  6
Continuous
 62
     7
100
AcDbPolyline
 90
        2
 70
     0
 43
0.0
 10
-1716.190733608978
 20
-4225.567912778959
 10
-2791.631930837208
 20
-4225.567912778959
  0
LWPOLYLINE
  5
25B
330
1F
100
AcDbEntity
  8
$DDT_AUDIT_GENERATED__93_
  6
Continuous
 62
     7
100
AcDbPolyline
 90
        2
 70
     0
 43
0.0
 10
-2791.631930837208
 20
-4233.982659346825
 10
-2791.631930837208
 20
-4225.567912778959
  0
LWPOLYLINE
  5
25C
330
1F
100
AcDbEntity
  8
$DDT_AUDIT_GENERATED__93_
  6
Continuous
 62
     7
100
AcDbPolyline
 90
        2
 70
     0
 43
0.0
 10
-2791.631930837208
 20
-4470.526839547143
 10
-2791.631930837208
 20
-4457.189632536411
  0
LWPOLYLINE
  5
25D
330
1F
100
AcDbEntity
  8
$DDT_AUDIT_GENERATED__93_
  6
Continuous
 62
     7
100
AcDbPolyline
 90
        2
 70
     0
 43
0.0
 10
-2791.631930837208
 20
-4457.189632536411
 10
-2791.631930837208
 20
-4233.982659346825
  0
LWPOLYLINE
  5
25E
330
1F
100
AcDbEntity
  8
$DDT_AUDIT_GENERATED__93_
  6
Continuous
 62
     7
100
AcDbPolyline
 90
        2
 70
     0
 43
0.0
 10
-1716.190733608978
 20
-4897.201054353073
 10
-2688.426560876355
 20
-4897.201054353073
  0
LWPOLYLINE
  5
25F
330
1F
100
AcDbEntity
  8
$DDT_AUDIT_GENERATED__93_
  6
Continuous
 62
     7
100
AcDbPolyline
 90
        2
 70
     0
 43
0.0
 10
-2791.665190705065
 20
-4897.201054353073
 10
-2791.665190705065
 20
-4891.08123866735
  0
LWPOLYLINE
  5
260
330
1F
100
AcDbEntity
  8
$DDT_AUDIT_GENERATED__93_
  6
Continuous
 62
     7
100
AcDbPolyline
 90
        2
 70
     0
 43
0.0
 10
-2791.631930837208
 20
-4794.178613665435
 10
-1716.190733608978
 20
-4794.161983731507
  0
LWPOLYLINE
  5
261
330
1F
100
AcDbEntity
  8
$DDT_AUDIT_GENERATED__93_
  6
Continuous
 62
     7
100
AcDbPolyline
 90
        2
 70
     0
 43
0.0
 10
-2668.287710888828
 20
-4897.201054353073
 10
-2379.741727293797
 20
-4897.201054353073
  0
LWPOLYLINE
  5
262
330
1F
100
AcDbEntity
  8
$DDT_AUDIT_GENERATED__93_
  6
Continuous
 62
     7
100
AcDbPolyline
 90
        2
 70
     0
 43
0.0
 10
-2617.53315253876
 20
-4666.211272084906
 10
-1716.190733608978
 20
-4666.211272084906
  0
LWPOLYLINE
  5
263
330
1F
100
AcDbEntity
  8
$DDT_AUDIT_GENERATED__93_
  6
Continuous
 62
     7
100
AcDbPolyline
 90
        2
 70
     0
 43
0.0
 10
-2495.203358560024
 20
-1774.930959259596
 10
-1716.190733608978
 20
-1774.930959259596
  0
LWPOLYLINE
  5
264
330
1F
100
AcDbEntity
  8
$DDT_AUDIT_GENERATED__93_
  6
Continuous
 62
     7
100
AcDbPolyline
 90
        2
 70
     0
 43
0.0
 10
-2545.974546844021
 20
-2005.954001395621
 10
-2379.741727293797
 20
-2005.954001395621
  0
LWPOLYLINE
  5
265
330
1F
100
AcDbEntity
  8
$DDT_AUDIT_GENERATED__93_
  6
Continuous
 62
     7
100
AcDbPolyline
 90
        2
 70
     0
 43
0.0
 10
-2669.302136858472
 20
-1902.914930774057
 10
-1716.190733608978
 20
-1902.914930774057
  0
LWPOLYLINE
  5
266
330
1F
100
AcDbEntity
  8
$DDT_AUDIT_GENERATED__93_
  6
Continuous
 62
     7
100
AcDbPolyline
 90
        2
 70
     0
 43
0.0
 10
-2669.335396726329
 20
-2005.954001395621
 10
-2669.335396726329
 20
-1999.8341857099
  0
LWPOLYLINE
  5
267
330
1F
100
AcDbEntity
  8
$DDT_AUDIT_GENERATED__93_
  6
Continuous
 62
     7
100
AcDbPolyline
 90
        2
 70
     0
 43
0.0
 10
-1716.190733608978
 20
-2005.954001395621
 10
-2577.371862101206
 20
-2005.954001395621
  0
LWPOLYLINE
  5
268
330
1F
100
AcDbEntity
  8
$DDT_AUDIT_GENERATED__93_
  6
Continuous
 62
     7
100
AcDbPolyline
 90
        2
 70
     0
 43
0.0
 10
-2669.302136858472
 20
-1565.942579578961
 10
-2669.302136858472
 20
-1342.702346521515
  0
LWPOLYLINE
  5
269
330
1F
100
AcDbEntity
  8
$DDT_AUDIT_GENERATED__93_
  6
Continuous
 62
     7
100
AcDbPolyline
 90
        2
 70
     0
 43
0.0
 10
-2669.302136858472
 20
-1579.279786589694
 10
-2669.302136858472
 20
-1565.942579578961
  0
LWPOLYLINE
  5
26A
330
1F
100
AcDbEntity
  8
$DDT_AUDIT_GENERATED__93_
  6
Continuous
 62
     7
100
AcDbPolyline
 90
        2
 70
     0
 43
0.0
 10
-2669.302136858472
 20
-1342.702346521515
 10
-2669.302136858472
 20
-1334.287599953648
  0
LWPOLYLINE
  5
26B
330
1F
100
AcDbEntity
  8
$DDT_AUDIT_GENERATED__93_
  6
Continuous
 62
     7
100
AcDbPolyline
 90
        2
 70
     0
 43
0.0
 10
-1716.190733608978
 20
-1334.287599953648
 10
-2669.302136858472
 20
-1334.287599953648
  0
LWPOLYLINE
  5
26C
330
1F
100
AcDbEntity
  8
$DDT_AUDIT_GENERATED__93_
  6
Continuous
 62
     7
100
AcDbPolyline
 90
        2
 70
     0
 43
0.0
 10
-2669.302136858472
 20
-1902.914930774057
 10
-2669.302136858472
 20
-1999.8341857099
  0
LWPOLYLINE
  5
26D
330
1F
100
AcDbEntity
  8
$DDT_AUDIT_GENERATED__93_
  6
Continuous
 62
     5
100
AcDbPolyline
 90
        2
 70
     0
 43
0.0
 10
-2669.335396726329
 20
-2184.310042779788
 10
-2667.855332606684
 20
-2184.310042779788
  0
LWPOLYLINE
  5
26E
330
1F
100
AcDbEntity
  8
$DDT_AUDIT_GENERATED__93_
  6
Continuous
 62
     7
100
AcDbPolyline
 90
        2
 70
     0
 43
0.0
 10
-2547.354831360094
 20
-2005.954001395621
 10
-2603.281299161955
 20
-2005.954001395621
  0
LWPOLYLINE
  5
26F
330
1F
100
AcDbEntity
  8
$DDT_AUDIT_GENERATED__93_
  6
Continuous
 62
     5
100
AcDbPolyline
 90
        2
 70
     0
 43
0.0
 10
-2669.302136858472
 20
-2184.310042779788
 10
-2669.302136858472
 20
-2033.742620990304
  0
LWPOLYLINE
  5
270
330
1F
100
AcDbEntity
  8
$DDT_AUDIT_GENERATED__93_
  6
Continuous
 62
     7
100
AcDbPolyline
 90
        2
 70
     0
 43
0.0
 10
-2566.113396831548
 20
-2005.954001395621
 10
-2577.371862101206
 20
-2005.954001395621
  0
LWPOLYLINE
  5
271
330
1F
100
AcDbEntity
  8
$DDT_AUDIT_GENERATED__93_
  6
Continuous
 62
     5
100
AcDbPolyline
 90
        2
 70
     0
 43
0.0
 10
-2667.855332606684
 20
-2184.310042779788
 10
-2547.354831360094
 20
-2184.310042779788
  0
LWPOLYLINE
  5
272
330
1F
100
AcDbEntity
  8
$DDT_AUDIT_GENERATED__93_
  6
Continuous
 62
     7
100
AcDbPolyline
 90
        2
 70
     0
 43
0.0
 10
-2372.890194515217
 20
1116.316093697851
 10
-1716.190733608978
 20
1116.316093697851
  0
LWPOLYLINE
  5
273
330
1F
100
AcDbEntity
  8
$DDT_AUDIT_GENERATED__93_
  6
Continuous
 62
     7
100
AcDbPolyline
 90
        2
 70
     0
 43
0.0
 10
-2423.644752865285
 20
885.3263114296878
 10
-2135.115399204184
 20
885.3096814957607
  0
LWPOLYLINE
  5
274
330
1F
100
AcDbEntity
  8
$DDT_AUDIT_GENERATED__93_
  6
Continuous
 62
     7
100
AcDbPolyline
 90
        2
 70
     0
 43
0.0
 10
-2546.988972813665
 20
988.3321221833976
 10
-1716.190733608978
 20
988.3321221833976
  0
LWPOLYLINE
  5
275
330
1F
100
AcDbEntity
  8
$DDT_AUDIT_GENERATED__93_
  6
Continuous
 62
     7
100
AcDbPolyline
 90
        2
 70
     0
 43
0.0
 10
-2547.022232681522
 20
885.3263114296878
 10
-2547.022232681522
 20
891.4294971814797
  0
LWPOLYLINE
  5
276
330
1F
100
AcDbEntity
  8
$DDT_AUDIT_GENERATED__93_
  6
Continuous
 62
     7
100
AcDbPolyline
 90
        2
 70
     0
 43
0.0
 10
-1716.190733608978
 20
885.3263114296878
 10
-2466.450202797485
 20
885.3263114296878
  0
LWPOLYLINE
  5
277
330
1F
100
AcDbEntity
  8
$DDT_AUDIT_GENERATED__93_
  6
Continuous
 62
     7
100
AcDbPolyline
 90
        2
 70
     0
 43
0.0
 10
-2546.988972813665
 20
1325.321103312419
 10
-2546.988972813665
 20
1548.544706435932
  0
LWPOLYLINE
  5
278
330
1F
100
AcDbEntity
  8
$DDT_AUDIT_GENERATED__93_
  6
Continuous
 62
     7
100
AcDbPolyline
 90
        2
 70
     0
 43
0.0
 10
-2546.988972813665
 20
1312.000526235615
 10
-2546.988972813665
 20
1325.321103312419
  0
LWPOLYLINE
  5
279
330
1F
100
AcDbEntity
  8
$DDT_AUDIT_GENERATED__93_
  6
Continuous
 62
     7
100
AcDbPolyline
 90
        2
 70
     0
 43
0.0
 10
-2546.988972813665
 20
1548.544706435932
 10
-2546.988972813665
 20
1556.959453003801
  0
LWPOLYLINE
  5
27A
330
1F
100
AcDbEntity
  8
$DDT_AUDIT_GENERATED__93_
  6
Continuous
 62
     7
100
AcDbPolyline
 90
        2
 70
     0
 43
0.0
 10
-1716.190733608978
 20
1556.959453003801
 10
-2546.988972813665
 20
1556.959453003801
  0
LWPOLYLINE
  5
27B
330
1F
100
AcDbEntity
  8
$DDT_AUDIT_GENERATED__93_
  6
Continuous
 62
     7
100
AcDbPolyline
 90
        2
 70
     0
 43
0.0
 10
-2546.988972813665
 20
988.3321221833976
 10
-2546.988972813665
 20
891.4294971814797
  0
LWPOLYLINE
  5
27C
330
1F
100
AcDbEntity
  8
$DDT_AUDIT_GENERATED__93_
  6
Continuous
 62
     5
100
AcDbPolyline
 90
        2
 70
     0
 43
0.0
 10
-2547.022232681522
 20
706.9370101776603
 10
-2545.542168561877
 20
706.9370101776603
  0
LWPOLYLINE
  5
27D
330
1F
100
AcDbEntity
  8
$DDT_AUDIT_GENERATED__93_
  6
Continuous
 62
     7
100
AcDbPolyline
 90
        2
 70
     0
 43
0.0
 10
-2425.041667315287
 20
885.3263114296878
 10
-2480.968135117148
 20
885.3263114296878
  0
LWPOLYLINE
  5
27E
330
1F
100
AcDbEntity
  8
$DDT_AUDIT_GENERATED__93_
  6
Continuous
 62
     5
100
AcDbPolyline
 90
        2
 70
     0
 43
0.0
 10
-2546.988972813665
 20
706.9370101776603
 10
-2546.988972813665
 20
857.5210619010777
  0
LWPOLYLINE
  5
27F
330
1F
100
AcDbEntity
  8
$DDT_AUDIT_GENERATED__93_
  6
Continuous
 62
     7
100
AcDbPolyline
 90
        2
 70
     0
 43
0.0
 10
-2443.783602852812
 20
885.3263114296878
 10
-2466.450202797485
 20
885.3263114296878
  0
LWPOLYLINE
  5
280
330
1F
100
AcDbEntity
  8
$DDT_AUDIT_GENERATED__93_
  6
Continuous
 62
     5
100
AcDbPolyline
 90
        2
 70
     0
 43
0.0
 10
-2545.542168561877
 20
706.9370101776603
 10
-2425.041667315287
 20
706.9370101776603
  0
LWPOLYLINE
  5
281
330
1F
100
AcDbEntity
  8
$DDT_AUDIT_GENERATED__93_
  6
Continuous
 62
     7
100
AcDbPolyline
 90
        2
 70
     0
 43
0.0
 10
1107.688457003741
 20
-4897.201054353073
 10
1154.584870682375
 20
-4897.201054353073
  0
LWPOLYLINE
  5
282
330
1F
100
AcDbEntity
  8
$DDT_AUDIT_GENERATED__93_
  6
Continuous
 62
     7
100
AcDbPolyline
 90
        2
 70
     0
 43
0.0
 10
389.4748704956328
 20
-4894.174406378071
 10
389.4748704956328
 20
-4796.307245208295
  0
LWPOLYLINE
  5
283
330
1F
100
AcDbEntity
  8
$DDT_AUDIT_GENERATED__93_
  6
Continuous
 62
     7
100
AcDbPolyline
 90
        2
 70
     0
 43
0.0
 10
389.4748704956328
 20
-4897.201054353073
 10
389.4748704956328
 20
-4894.174406378071
  0
LWPOLYLINE
  5
284
330
1F
100
AcDbEntity
  8
$DDT_AUDIT_GENERATED__93_
  6
Continuous
 62
     7
100
AcDbPolyline
 90
        2
 70
     0
 43
0.0
 10
513.4842878011568
 20
-4794.261763335077
 10
1153.853153589516
 20
-4794.261763335077
  0
LWPOLYLINE
  5
285
330
1F
100
AcDbEntity
  8
$DDT_AUDIT_GENERATED__93_
  6
Continuous
 62
     7
100
AcDbPolyline
 90
        2
 70
     0
 43
0.0
 10
1154.584870682375
 20
-4794.261763335077
 10
1154.584870682375
 20
-4897.201054353073
  0
LWPOLYLINE
  5
286
330
1F
100
AcDbEntity
  8
$DDT_AUDIT_GENERATED__93_
  6
Continuous
 62
     5
100
AcDbPolyline
 90
        2
 70
     0
 43
0.0
 10
1154.584870682375
 20
-4897.201054353073
 10
1154.584870682375
 20
-5075.57372567117
  0
LWPOLYLINE
  5
287
330
1F
100
AcDbEntity
  8
$DDT_AUDIT_GENERATED__93_
  6
Continuous
 62
     5
100
AcDbPolyline
 90
        2
 70
     0
 43
0.0
 10
1131.136663843059
 20
-5075.57372567117
 10
1131.136663843059
 20
-4920.649261192392
  0
LWPOLYLINE
  5
288
330
1F
100
AcDbEntity
  8
$DDT_AUDIT_GENERATED__93_
  6
Continuous
 62
     5
100
AcDbPolyline
 90
        2
 70
     0
 43
0.0
 10
1131.053514173415
 20
-5075.57372567117
 10
1145.388517219863
 20
-5075.57372567117
  0
LWPOLYLINE
  5
289
330
1F
100
AcDbEntity
  8
$DDT_AUDIT_GENERATED__93_
  6
Continuous
 62
     5
100
AcDbPolyline
 90
        2
 70
     0
 43
0.0
 10
1147.89963724308
 20
-5075.57372567117
 10
1154.584870682375
 20
-5075.57372567117
  0
LWPOLYLINE
  5
28A
330
1F
100
AcDbEntity
  8
$DDT_AUDIT_GENERATED__93_
  6
Continuous
 62
     5
100
AcDbPolyline
 90
        2
 70
     0
 43
0.0
 10
413.255676013523
 20
-4920.632631258462
 10
1037.892624305432
 20
-4920.649261192392
  0
LWPOLYLINE
  5
28B
330
1F
100
AcDbEntity
  8
$DDT_AUDIT_GENERATED__93_
  6
Continuous
 62
     7
100
AcDbPolyline
 90
        2
 70
     0
 43
0.0
 10
407.701278081373
 20
-4897.184424419146
 10
389.7076895706341
 20
-4897.184424419146
  0
LWPOLYLINE
  5
28C
330
1F
100
AcDbEntity
  8
$DDT_AUDIT_GENERATED__93_
  6
Continuous
 62
     5
100
AcDbPolyline
 90
        2
 70
     0
 43
0.0
 10
1060.326405175107
 20
-4920.649261192392
 10
1057.865174953674
 20
-4920.582741456676
  0
LWPOLYLINE
  5
28D
330
1F
100
AcDbEntity
  8
$DDT_AUDIT_GENERATED__93_
  6
Continuous
 62
     5
100
AcDbPolyline
 90
        2
 70
     0
 43
0.0
 10
1057.865174953674
 20
-4920.582741456676
 10
1053.158903651882
 20
-4920.499591787034
  0
LWPOLYLINE
  5
28E
330
1F
100
AcDbEntity
  8
$DDT_AUDIT_GENERATED__93_
  6
Continuous
 62
     5
100
AcDbPolyline
 90
        2
 70
     0
 43
0.0
 10
1053.158903651882
 20
-4920.499591787034
 10
1049.117829707233
 20
-4920.482961853106
  0
LWPOLYLINE
  5
28F
330
1F
100
AcDbEntity
  8
$DDT_AUDIT_GENERATED__93_
  6
Continuous
 62
     5
100
AcDbPolyline
 90
        2
 70
     0
 43
0.0
 10
1049.117829707233
 20
-4920.482961853106
 10
1045.060125828657
 20
-4920.499591787034
  0
LWPOLYLINE
  5
290
330
1F
100
AcDbEntity
  8
$DDT_AUDIT_GENERATED__93_
  6
Continuous
 62
     5
100
AcDbPolyline
 90
        2
 70
     0
 43
0.0
 10
1040.370484460793
 20
-4920.582741456676
 10
1037.892624305432
 20
-4920.649261192392
  0
LWPOLYLINE
  5
291
330
1F
100
AcDbEntity
  8
$DDT_AUDIT_GENERATED__93_
  6
Continuous
 62
     5
100
AcDbPolyline
 90
        2
 70
     0
 43
0.0
 10
1046.773009023302
 20
-4920.482961853106
 10
1045.060125828657
 20
-4920.499591787034
  0
LWPOLYLINE
  5
292
330
1F
100
AcDbEntity
  8
$DDT_AUDIT_GENERATED__93_
  6
Continuous
 62
     5
100
AcDbPolyline
 90
        2
 70
     0
 43
0.0
 10
1060.326405175107
 20
-4920.649261192392
 10
1121.77401104126
 20
-4920.649261192392
  0
LWPOLYLINE
  5
293
330
1F
100
AcDbEntity
  8
$DDT_AUDIT_GENERATED__93_
  6
Continuous
 62
     5
100
AcDbPolyline
 90
        2
 70
     0
 43
0.0
 10
389.4748704956328
 20
-4897.201054353073
 10
389.4748704956328
 20
-5075.57372567117
  0
LWPOLYLINE
  5
294
330
1F
100
AcDbEntity
  8
$DDT_AUDIT_GENERATED__93_
  6
Continuous
 62
     7
100
AcDbPolyline
 90
        2
 70
     0
 43
0.0
 10
390.6223359367068
 20
-4898.099070785219
 10
389.740949438491
 20
-4897.201054353073
  0
LWPOLYLINE
  5
295
330
1F
100
AcDbEntity
  8
$DDT_AUDIT_GENERATED__93_
  6
Continuous
 62
     5
100
AcDbPolyline
 90
        2
 70
     0
 43
0.0
 10
1050.797453034022
 20
-4920.649261192392
 10
1046.623339617944
 20
-4920.532851654891
  0
LWPOLYLINE
  5
296
330
1F
100
AcDbEntity
  8
$DDT_AUDIT_GENERATED__93_
  6
Continuous
 62
     5
100
AcDbPolyline
 90
        2
 70
     0
 43
0.0
 10
1025.96896167863
 20
-4920.649261192392
 10
955.9735697731803
 20
-4920.649261192392
  0
LWPOLYLINE
  5
297
330
1F
100
AcDbEntity
  8
$DDT_AUDIT_GENERATED__93_
  6
Continuous
 62
     5
100
AcDbPolyline
 90
        2
 70
     0
 43
0.0
 10
1090.360065850146
 20
-4920.649261192392
 10
1050.797453034022
 20
-4920.649261192392
  0
LWPOLYLINE
  5
298
330
1F
100
AcDbEntity
  8
$DDT_AUDIT_GENERATED__93_
  6
Continuous
 62
     5
100
AcDbPolyline
 90
        2
 70
     0
 43
0.0
 10
413.2224161456652
 20
-4941.037560188847
 10
413.2390460795941
 20
-4944.563106181709
  0
LWPOLYLINE
  5
299
330
1F
100
AcDbEntity
  8
$DDT_AUDIT_GENERATED__93_
  6
Continuous
 62
     5
100
AcDbPolyline
 90
        2
 70
     0
 43
0.0
 10
413.2390460795941
 20
-4945.02874433171
 10
413.255676013523
 20
-4946.142949904925
  0
LWPOLYLINE
  5
29A
330
1F
100
AcDbEntity
  8
$DDT_AUDIT_GENERATED__93_
  6
Continuous
 62
     5
100
AcDbPolyline
 90
        2
 70
     0
 43
0.0
 10
413.255676013523
 20
-4946.142949904925
 10
413.2390460795941
 20
-4944.563106181709
  0
LWPOLYLINE
  5
29B
330
1F
100
AcDbEntity
  8
$DDT_AUDIT_GENERATED__93_
  6
Continuous
 62
     5
100
AcDbPolyline
 90
        2
 70
     0
 43
0.0
 10
413.2390460795941
 20
-4943.49879041028
 10
413.2224161456652
 20
-4941.037560188847
  0
LWPOLYLINE
  5
29C
330
1F
100
AcDbEntity
  8
$DDT_AUDIT_GENERATED__93_
  6
Continuous
 62
     5
100
AcDbPolyline
 90
        2
 70
     0
 43
0.0
 10
413.2224161456652
 20
-4920.632631258462
 10
413.2224161456652
 20
-4941.037560188847
  0
LWPOLYLINE
  5
29D
330
1F
100
AcDbEntity
  8
$DDT_AUDIT_GENERATED__93_
  6
Continuous
 62
     5
100
AcDbPolyline
 90
        2
 70
     0
 43
0.0
 10
413.255676013523
 20
-5075.57372567117
 10
413.255676013523
 20
-4946.142949904925
  0
LWPOLYLINE
  5
29E
330
1F
100
AcDbEntity
  8
$DDT_AUDIT_GENERATED__93_
  6
Continuous
 62
     5
100
AcDbPolyline
 90
        2
 70
     0
 43
0.0
 10
1147.89963724308
 20
-5075.57372567117
 10
1145.388517219863
 20
-5075.57372567117
  0
LWPOLYLINE
  5
29F
330
1F
100
AcDbEntity
  8
$DDT_AUDIT_GENERATED__93_
  6
Continuous
 62
     7
100
AcDbPolyline
 90
        2
 70
     0
 43
0.0
 10
508.6782368957938
 20
-4795.675307719007
 10
1153.853153589516
 20
-4795.675307719007
  0
LWPOLYLINE
  5
2A0
330
1F
100
AcDbEntity
  8
$DDT_AUDIT_GENERATED__93_
  6
Continuous
 62
     7
100
AcDbPolyline
 90
        2
 70
     0
 43
0.0
 10
508.6782368957938
 20
-4795.675307719007
 10
508.6782368957938
 20
-4479.091255520369
  0
LWPOLYLINE
  5
2A1
330
1F
100
AcDbEntity
  8
$DDT_AUDIT_GENERATED__93_
  6
Continuous
 62
     7
100
AcDbPolyline
 90
        2
 70
     0
 43
0.0
 10
1153.853153589516
 20
-4782.43788031185
 10
1153.853153589516
 20
-4682.525237268857
  0
LWPOLYLINE
  5
2A2
330
1F
100
AcDbEntity
  8
$DDT_AUDIT_GENERATED__93_
  6
Continuous
 62
     7
100
AcDbPolyline
 90
        2
 70
     0
 43
0.0
 10
1102.865776164448
 20
-4479.091255520369
 10
1143.64237415736
 20
-4479.091255520369
  0
LWPOLYLINE
  5
2A3
330
1F
100
AcDbEntity
  8
$DDT_AUDIT_GENERATED__93_
  6
Continuous
 62
     7
100
AcDbPolyline
 90
        2
 70
     0
 43
0.0
 10
1153.836523655589
 20
-4479.091255520369
 10
1153.836523655589
 20
-4519.851223579351
  0
LWPOLYLINE
  5
2A4
330
1F
100
AcDbEntity
  8
$DDT_AUDIT_GENERATED__93_
  6
Continuous
 62
     7
100
AcDbPolyline
 90
        2
 70
     0
 43
0.0
 10
1153.836523655589
 20
-4479.091255520369
 10
1143.64237415736
 20
-4479.091255520369
  0
LWPOLYLINE
  5
2A5
330
1F
100
AcDbEntity
  8
$DDT_AUDIT_GENERATED__93_
  6
Continuous
 62
     7
100
AcDbPolyline
 90
        2
 70
     0
 43
0.0
 10
1153.836523655589
 20
-4519.851223579351
 10
1153.853153589516
 20
-4782.43788031185
  0
LWPOLYLINE
  5
2A6
330
1F
100
AcDbEntity
  8
$DDT_AUDIT_GENERATED__93_
  6
Continuous
 62
     7
100
AcDbPolyline
 90
        2
 70
     0
 43
0.0
 10
1153.836523655589
 20
-4479.091255520369
 10
1153.853153589516
 20
-4795.409228776151
  0
LWPOLYLINE
  5
2A7
330
1F
100
AcDbEntity
  8
$DDT_AUDIT_GENERATED__93_
  6
Continuous
 62
     7
100
AcDbPolyline
 90
        2
 70
     0
 43
0.0
 10
569.7599842155178
 20
-4479.091255520369
 10
1102.865776164448
 20
-4479.091255520369
  0
LWPOLYLINE
  5
2A8
330
1F
100
AcDbEntity
  8
$DDT_AUDIT_GENERATED__93_
  6
Continuous
 62
     7
100
AcDbPolyline
 90
        2
 70
     0
 43
0.0
 10
508.6782368957938
 20
-4479.091255520369
 10
1102.865776164448
 20
-4479.091255520369
  0
LWPOLYLINE
  5
2A9
330
1F
100
AcDbEntity
  8
$DDT_AUDIT_GENERATED__545_
  6
Continuous
 62
     7
100
AcDbPolyline
 90
        6
 70
     1
 43
0.0
 10
-1447.367851653261
 20
-9115.084456530163
 10
-1447.367851653261
 20
-9115.084456530163
 10
-884.9102263203631
 20
-9115.084456530163
 10
-884.9102263203631
 20
-8982.593772921058
 10
-1447.367851653261
 20
-8982.593772921058
 10
-1447.367851653261
 20
-9115.084456530163
  0
LWPOLYLINE
  5
2AA
330
1F
100
AcDbEntity
  8
$DDT_AUDIT_GENERATED__545_
  6
Continuous
 62
     7
100
AcDbPolyline
 90
        6
 70
     1
 43
0.0
 10
-1447.367851653261
 20
-9115.084456530163
 10
-1447.367851653261
 20
-9115.084456530163
 10
-884.9102263203631
 20
-9115.084456530163
 10
-884.9102263203631
 20
-9220.202268892806
 10
-1447.367851653261
 20
-9220.202268892806
 10
-1447.367851653261
 20
-9115.084456530163
  0
LWPOLYLINE
  5
2AB
330
1F
100
AcDbEntity
  8
$DDT_AUDIT_GENERATED__545_
  6
Continuous
 62
     5
100
AcDbPolyline
 90
       10
 70
     1
 43
0.0
 10
-908.6577719703946
 20
-9402.266785543048
 10
-908.6577719703946
 20
-9402.266785543048
 10
-884.9102263203631
 20
-9402.266785543048
 10
-884.9102263203631
 20
-9220.202268892806
 10
-1447.367851653261
 20
-9220.202268892806
 10
-1447.367851653261
 20
-9402.266785543048
 10
-1422.722289571085
 20
-9402.266785543048
 10
-1422.722289571085
 20
-9244.215893485694
 10
-908.6577719703946
 20
-9244.215893485694
 10
-908.6577719703946
 20
-9402.266785543048
  0
LWPOLYLINE
  5
2AC
330
1F
100
AcDbEntity
  8
$DDT_AUDIT_GENERATED__93_
  6
AI_Linetype_5
 62
     3
100
AcDbPolyline
 90
        2
 70
     0
 43
0.0
 10
-2769.214779901464
 20
988.3321221833976
 10
-2769.214779901464
 20
1071.814390504937
  0
LWPOLYLINE
  5
2AD
330
1F
100
AcDbEntity
  8
$DDT_AUDIT_GENERATED__93_
  6
AI_Linetype_4
 62
     7
100
AcDbPolyline
 90
        2
 70
     0
 43
0.0
 10
-2423.860942006357
 20
1116.316093697851
 10
-2423.860942006357
 20
988.3321221833976
  0
LWPOLYLINE
  5
2AE
330
1F
100
AcDbEntity
  8
$DDT_AUDIT_GENERATED__93_
  6
AI_Linetype_3
 62
     3
100
AcDbPolyline
 90
        2
 70
     0
 43
0.0
 10
-2724.696446774618
 20
1116.316093697851
 10
-2423.860942006357
 20
1116.316093697851
  0
LWPOLYLINE
  5
2AF
330
1F
100
AcDbEntity
  8
$DDT_AUDIT_GENERATED__93_
  6
AI_Linetype_2
 62
     3
100
AcDbPolyline
 90
        2
 70
     0
 43
0.0
 10
-2769.214779901464
 20
988.3321221833976
 10
-2423.860942006357
 20
988.3321221833976
  0
LWPOLYLINE
  5
2B0
330
1F
100
AcDbEntity
  8
$DDT_AUDIT_GENERATED__93_
  6
Continuous
 62
     7
100
AcDbPolyline
 90
        2
 70
     0
 43
0.0
 10
-2546.988972813665
 20
1312.000526235615
 10
-2546.988972813665
 20
988.3321221833976
  0
LWPOLYLINE
  5
2B1
330
1F
100
AcDbEntity
  8
$DDT_AUDIT_GENERATED__93_
  6
Continuous
 62
     7
100
AcDbPolyline
 90
        2
 70
     0
 43
0.0
 10
-2423.860942006357
 20
1270.276022008773
 10
-2423.860942006357
 20
988.3321221833976
  0
LWPOLYLINE
  5
2B2
330
1F
100
AcDbEntity
  8
$DDT_AUDIT_GENERATED__93_
  6
Continuous
 62
     7
100
AcDbPolyline
 90
        2
 70
     0
 43
0.0
 10
-2423.860942006357
 20
988.3321221833976
 10
-2546.988972813665
 20
988.3321221833976
  0
LWPOLYLINE
  5
2B3
330
1F
100
AcDbEntity
  8
$DDT_AUDIT_GENERATED__93_
  6
Continuous
 62
     7
100
AcDbPolyline
 90
        2
 70
     0
 43
0.0
 10
-2546.988972813665
 20
1312.000526235615
 10
-2466.699651806414
 20
1312.000526235615
  0
LWPOLYLINE
  5
2B4
330
1F
100
AcDbEntity
  8
$DDT_AUDIT_GENERATED__93_
  6
Continuous
 62
     7
100
AcDbPolyline
 90
        2
 70
     0
 43
0.0
 10
-965.6984453454711
 20
1312.000526235615
 10
-885.3758644703635
 20
1312.000526235615
  0
LWPOLYLINE
  5
2B5
330
1F
100
AcDbEntity
  8
$DDT_AUDIT_GENERATED__93_
  6
Continuous
 62
     7
100
AcDbPolyline
 90
        2
 70
     0
 43
0.0
 10
-885.3758644703635
 20
988.3321221833976
 10
-1008.5205252116
 20
988.3321221833976
  0
LWPOLYLINE
  5
2B6
330
1F
100
AcDbEntity
  8
$DDT_AUDIT_GENERATED__93_
  6
Continuous
 62
     7
100
AcDbPolyline
 90
        2
 70
     0
 43
0.0
 10
-1008.5205252116
 20
988.3321221833976
 10
-1008.5205252116
 20
1270.276022008773
  0
LWPOLYLINE
  5
2B7
330
1F
100
AcDbEntity
  8
$DDT_AUDIT_GENERATED__93_
  6
Continuous
 62
     7
100
AcDbPolyline
 90
        2
 70
     0
 43
0.0
 10
-885.3758644703635
 20
988.3321221833976
 10
-885.3758644703635
 20
1312.000526235615
  0
LWPOLYLINE
  5
2B8
330
1F
100
AcDbEntity
  8
$DDT_AUDIT_GENERATED__93_
  6
Continuous
 62
     7
100
AcDbPolyline
 90
        2
 70
     0
 43
0.0
 10
-843.3686513667353
 20
-1579.279786589694
 10
-763.0793303594851
 20
-1579.279786589694
  0
LWPOLYLINE
  5
2B9
330
1F
100
AcDbEntity
  8
$DDT_AUDIT_GENERATED__93_
  6
Continuous
 62
     7
100
AcDbPolyline
 90
        2
 70
     0
 43
0.0
 10
-763.0793303594851
 20
-1902.914930774057
 10
-886.2073611667934
 20
-1902.914930774057
  0
LWPOLYLINE
  5
2BA
330
1F
100
AcDbEntity
  8
$DDT_AUDIT_GENERATED__93_
  6
Continuous
 62
     7
100
AcDbPolyline
 90
        2
 70
     0
 43
0.0
 10
-886.2073611667934
 20
-1902.914930774057
 10
-886.190731232864
 20
-1620.971030948676
  0
LWPOLYLINE
  5
2BB
330
1F
100
AcDbEntity
  8
$DDT_AUDIT_GENERATED__93_
  6
Continuous
 62
     7
100
AcDbPolyline
 90
        2
 70
     0
 43
0.0
 10
-763.0793303594851
 20
-1902.914930774057
 10
-763.0793303594851
 20
-1579.279786589694
  0
LWPOLYLINE
  5
2BC
330
1F
100
AcDbEntity
  8
$DDT_AUDIT_GENERATED__93_
  6
AI_Linetype_10
 62
     3
100
AcDbPolyline
 90
        2
 70
     0
 43
0.0
 10
-886.2073611667934
 20
-1902.914930774057
 10
-551.8625395324152
 20
-1902.914930774057
  0
LWPOLYLINE
  5
2BD
330
1F
100
AcDbEntity
  8
$DDT_AUDIT_GENERATED__93_
  6
AI_Linetype_9
 62
     3
100
AcDbPolyline
 90
        2
 70
     0
 43
0.0
 10
-886.2073611667934
 20
-1779.021923006032
 10
-594.9673282753306
 20
-1779.021923006032
  0
LWPOLYLINE
  5
2BE
330
1F
100
AcDbEntity
  8
$DDT_AUDIT_GENERATED__93_
  6
AI_Linetype_8
 62
     7
100
AcDbPolyline
 90
        2
 70
     0
 43
0.0
 10
-886.2073611667934
 20
-1902.914930774057
 10
-886.2073611667934
 20
-1779.021923006032
  0
LWPOLYLINE
  5
2BF
330
1F
100
AcDbEntity
  8
$DDT_AUDIT_GENERATED__93_
  6
AI_Linetype_7
 62
     3
100
AcDbPolyline
 90
        2
 70
     0
 43
0.0
 10
-551.8625395324152
 20
-1822.126711748944
 10
-551.8625395324152
 20
-1902.914930774057
  0
LWPOLYLINE
  5
2C0
330
1F
100
AcDbEntity
  8
$DDT_AUDIT_GENERATED__93_
  6
Continuous
 62
     7
100
AcDbPolyline
 90
        2
 70
     0
 43
0.0
 10
-640.7495363807489
 20
-4794.178613665435
 10
-640.7495363807489
 20
-4470.526839547143
  0
LWPOLYLINE
  5
2C1
330
1F
100
AcDbEntity
  8
$DDT_AUDIT_GENERATED__93_
  6
Continuous
 62
     7
100
AcDbPolyline
 90
        2
 70
     0
 43
0.0
 10
-763.8941971219856
 20
-4794.178613665435
 10
-763.8941971219856
 20
-4512.234713840058
  0
LWPOLYLINE
  5
2C2
330
1F
100
AcDbEntity
  8
$DDT_AUDIT_GENERATED__93_
  6
Continuous
 62
     7
100
AcDbPolyline
 90
        2
 70
     0
 43
0.0
 10
-640.7495363807489
 20
-4794.178613665435
 10
-763.8941971219856
 20
-4794.178613665435
  0
LWPOLYLINE
  5
2C3
330
1F
100
AcDbEntity
  8
$DDT_AUDIT_GENERATED__93_
  6
Continuous
 62
     7
100
AcDbPolyline
 90
        2
 70
     0
 43
0.0
 10
-721.055487321928
 20
-4470.526839547143
 10
-640.7495363807489
 20
-4470.526839547143
  0
LWPOLYLINE
  5
2C4
330
1F
100
AcDbEntity
  8
$DDT_AUDIT_GENERATED__93_
  6
Continuous
 62
     7
100
AcDbPolyline
 90
        2
 70
     0
 43
0.0
 10
-2791.631930837208
 20
-4470.526839547143
 10
-2711.3093499621
 20
-4470.526839547143
  0
LWPOLYLINE
  5
2C5
330
1F
100
AcDbEntity
  8
$DDT_AUDIT_GENERATED__93_
  6
Continuous
 62
     7
100
AcDbPolyline
 90
        2
 70
     0
 43
0.0
 10
-2668.470640162042
 20
-4794.178613665435
 10
-2791.631930837208
 20
-4794.178613665435
  0
LWPOLYLINE
  5
2C6
330
1F
100
AcDbEntity
  8
$DDT_AUDIT_GENERATED__93_
  6
Continuous
 62
     7
100
AcDbPolyline
 90
        2
 70
     0
 43
0.0
 10
-2668.470640162042
 20
-4512.251343773986
 10
-2668.470640162042
 20
-4794.178613665435
  0
LWPOLYLINE
  5
2C7
330
1F
100
AcDbEntity
  8
$DDT_AUDIT_GENERATED__93_
  6
Continuous
 62
     7
100
AcDbPolyline
 90
        2
 70
     0
 43
0.0
 10
-2791.631930837208
 20
-4470.526839547143
 10
-2791.631930837208
 20
-4794.178613665435
  0
LWPOLYLINE
  5
2C8
330
1F
100
AcDbEntity
  8
$DDT_AUDIT_GENERATED__93_
  6
AI_Linetype_15
 62
     3
100
AcDbPolyline
 90
        2
 70
     0
 43
0.0
 10
-2891.527943946271
 20
-1902.914930774057
 10
-2891.527943946271
 20
-1819.465922320371
  0
LWPOLYLINE
  5
2C9
330
1F
100
AcDbEntity
  8
$DDT_AUDIT_GENERATED__93_
  6
AI_Linetype_14
 62
     7
100
AcDbPolyline
 90
        2
 70
     0
 43
0.0
 10
-2546.157476117235
 20
-1774.930959259596
 10
-2546.157476117235
 20
-1902.914930774057
  0
LWPOLYLINE
  5
2CA
330
1F
100
AcDbEntity
  8
$DDT_AUDIT_GENERATED__93_
  6
AI_Linetype_13
 62
     3
100
AcDbPolyline
 90
        2
 70
     0
 43
0.0
 10
-2847.026240753354
 20
-1774.964219127453
 10
-2546.157476117235
 20
-1774.930959259596
  0
LWPOLYLINE
  5
2CB
330
1F
100
AcDbEntity
  8
$DDT_AUDIT_GENERATED__93_
  6
AI_Linetype_12
 62
     3
100
AcDbPolyline
 90
        2
 70
     0
 43
0.0
 10
-2891.527943946271
 20
-1902.914930774057
 10
-2546.157476117235
 20
-1902.914930774057
  0
LWPOLYLINE
  5
2CC
330
1F
100
AcDbEntity
  8
$DDT_AUDIT_GENERATED__93_
  6
Continuous
 62
     7
100
AcDbPolyline
 90
        2
 70
     0
 43
0.0
 10
-2669.302136858472
 20
-1579.279786589694
 10
-2669.302136858472
 20
-1902.914930774057
  0
LWPOLYLINE
  5
2CD
330
1F
100
AcDbEntity
  8
$DDT_AUDIT_GENERATED__93_
  6
Continuous
 62
     7
100
AcDbPolyline
 90
        2
 70
     0
 43
0.0
 10
-2546.157476117235
 20
-1620.971030948676
 10
-2546.157476117235
 20
-1902.914930774057
  0
LWPOLYLINE
  5
2CE
330
1F
100
AcDbEntity
  8
$DDT_AUDIT_GENERATED__93_
  6
Continuous
 62
     7
100
AcDbPolyline
 90
        2
 70
     0
 43
0.0
 10
-2546.157476117235
 20
-1902.914930774057
 10
-2669.302136858472
 20
-1902.914930774057
  0
LWPOLYLINE
  5
2CF
330
1F
100
AcDbEntity
  8
$DDT_AUDIT_GENERATED__93_
  6
Continuous
 62
     7
100
AcDbPolyline
 90
        2
 70
     0
 43
0.0
 10
-2669.302136858472
 20
-1579.279786589694
 10
-2589.012815851222
 20
-1579.279786589694
  0
LWPOLYLINE
  5
2D0
330
1F
100
AcDbEntity
  8
$DDT_AUDIT_GENERATED__93_
  6
AI_Linetype_20
 62
     3
100
AcDbPolyline
 90
        2
 70
     0
 43
0.0
 10
-763.8941971219856
 20
-4794.178613665435
 10
-429.5493754876088
 20
-4794.178613665435
  0
LWPOLYLINE
  5
2D1
330
1F
100
AcDbEntity
  8
$DDT_AUDIT_GENERATED__93_
  6
AI_Linetype_19
 62
     3
100
AcDbPolyline
 90
        2
 70
     0
 43
0.0
 10
-763.8941971219856
 20
-4670.302235831342
 10
-472.6375342965948
 20
-4670.302235831342
  0
LWPOLYLINE
  5
2D2
330
1F
100
AcDbEntity
  8
$DDT_AUDIT_GENERATED__93_
  6
AI_Linetype_18
 62
     7
100
AcDbPolyline
 90
        2
 70
     0
 43
0.0
 10
-763.8941971219856
 20
-4794.178613665435
 10
-763.8941971219856
 20
-4670.302235831342
  0
LWPOLYLINE
  5
2D3
330
1F
100
AcDbEntity
  8
$DDT_AUDIT_GENERATED__93_
  6
AI_Linetype_17
 62
     3
100
AcDbPolyline
 90
        2
 70
     0
 43
0.0
 10
-429.5493754876088
 20
-4713.373764706399
 10
-429.5493754876088
 20
-4794.178613665435
  0
LWPOLYLINE
  5
2D4
330
1F
100
AcDbEntity
  8
$DDT_AUDIT_GENERATED__93_
  6
AI_Linetype_25
 62
     3
100
AcDbPolyline
 90
        2
 70
     0
 43
0.0
 10
-1008.5205252116
 20
988.3321221833976
 10
-674.1923335111514
 20
988.3321221833976
  0
LWPOLYLINE
  5
2D5
330
1F
100
AcDbEntity
  8
$DDT_AUDIT_GENERATED__93_
  6
AI_Linetype_24
 62
     3
100
AcDbPolyline
 90
        2
 70
     0
 43
0.0
 10
-1008.5205252116
 20
1112.225129951421
 10
-717.263862386209
 20
1112.225129951421
  0
LWPOLYLINE
  5
2D6
330
1F
100
AcDbEntity
  8
$DDT_AUDIT_GENERATED__93_
  6
AI_Linetype_23
 62
     7
100
AcDbPolyline
 90
        2
 70
     0
 43
0.0
 10
-1008.5205252116
 20
988.3321221833976
 10
-1008.5205252116
 20
1112.225129951421
  0
LWPOLYLINE
  5
2D7
330
1F
100
AcDbEntity
  8
$DDT_AUDIT_GENERATED__93_
  6
AI_Linetype_22
 62
     3
100
AcDbPolyline
 90
        2
 70
     0
 43
0.0
 10
-674.1923335111514
 20
1069.136971142432
 10
-674.1923335111514
 20
988.3321221833976
  0
LWPOLYLINE
  5
2D8
330
1F
100
AcDbEntity
  8
$DDT_AUDIT_GENERATED__93_
  6
AI_Linetype_30
 62
     3
100
AcDbPolyline
 90
        2
 70
     0
 43
0.0
 10
-3013.841107991078
 20
-4794.178613665435
 10
-3013.841107991078
 20
-4710.712975277826
  0
LWPOLYLINE
  5
2D9
330
1F
100
AcDbEntity
  8
$DDT_AUDIT_GENERATED__93_
  6
AI_Linetype_29
 62
     7
100
AcDbPolyline
 90
        2
 70
     0
 43
0.0
 10
-2668.470640162042
 20
-4666.211272084906
 10
-2668.470640162042
 20
-4794.178613665435
  0
LWPOLYLINE
  5
2DA
330
1F
100
AcDbEntity
  8
$DDT_AUDIT_GENERATED__93_
  6
AI_Linetype_28
 62
     3
100
AcDbPolyline
 90
        2
 70
     0
 43
0.0
 10
-2969.33940479816
 20
-4666.211272084906
 10
-2668.470640162042
 20
-4666.211272084906
  0
LWPOLYLINE
  5
2DB
330
1F
100
AcDbEntity
  8
$DDT_AUDIT_GENERATED__93_
  6
AI_Linetype_27
 62
     3
100
AcDbPolyline
 90
        2
 70
     0
 43
0.0
 10
-3013.841107991078
 20
-4794.178613665435
 10
-2668.470640162042
 20
-4794.178613665435
  0
LWPOLYLINE
  5
2DC
330
1F
100
AcDbEntity
  8
$DDT_AUDIT_GENERATED__545_
  6
Continuous
 62
     7
100
AcDbPolyline
 90
        6
 70
     1
 43
0.0
 10
-315.833887283884
 20
-9219.80315047852
 10
-315.833887283884
 20
-9219.80315047852
 10
412.6237385242357
 20
-9219.80315047852
 10
412.6237385242357
 20
-9114.602188446237
 10
-315.833887283884
 20
-9114.602188446237
 10
-315.833887283884
 20
-9219.80315047852
  0
LWPOLYLINE
  5
2DD
330
1F
100
AcDbEntity
  8
$DDT_AUDIT_GENERATED__545_
  6
Continuous
 62
     5
100
AcDbPolyline
 90
        6
 70
     1
 43
0.0
 10
286.3360202704953
 20
-9401.884297062692
 10
286.3360202704953
 20
-9401.884297062692
 10
412.6237385242357
 20
-9401.884297062692
 10
412.6237385242357
 20
-9219.80315047852
 10
286.3360202704953
 20
-9219.80315047852
 10
286.3360202704953
 20
-9401.884297062692
  0
LWPOLYLINE
  5
2DE
330
1F
100
AcDbEntity
  8
$DDT_AUDIT_GENERATED__545_
  6
Continuous
 62
     5
100
AcDbPolyline
 90
        6
 70
     1
 43
0.0
 10
-315.833887283884
 20
-9401.884297062692
 10
-315.833887283884
 20
-9401.884297062692
 10
-189.5627989640716
 20
-9401.884297062692
 10
-189.5627989640716
 20
-9219.80315047852
 10
-315.833887283884
 20
-9219.80315047852
 10
-315.833887283884
 20
-9401.884297062692
  0
ENDSEC
  0
SECTION
  2
OBJECTS
  0
DICTIONARY
  5
C
330
0
100
AcDbDictionary
281
     1
  3
ACAD_GROUP
350
D
  3
ACAD_LAYOUT
350
1A
  3
ACAD_MATERIAL
350
3B
  3
ACAD_MLEADERSTYLE
350
2E0
  3
ACAD_MLINESTYLE
350
17
  3
ACAD_PLOTSETTINGS
350
19
  3
ACAD_PLOTSTYLENAME
350
E
  3
ACAD_TABLESTYLE
350
2DF
  3
ACAD_VISUALSTYLE
350
2A
  0
DICTIONARY
  5
D
102
{ACAD_REACTORS
330
C
102
}
330
C
100
AcDbDictionary
281
     1
  0
DICTIONARY
  5
1A
102
{ACAD_REACTORS
330
C
102
}
330
C
100
AcDbDictionary
281
     1
  3
Layout1
350
1E
  3
Layout2
350
26
  3
Model
350
22
  0
DICTIONARY
  5
3B
102
{ACAD_REACTORS
330
C
102
}
330
C
100
AcDbDictionary
281
     1
  3
ByBlock
350
3D
  3
ByLayer
350
3C
  3
Global
350
3E
  0
DICTIONARY
  5
2E0
102
{ACAD_REACTORS
330
C
102
}
330
C
100
AcDbDictionary
281
     1
  0
DICTIONARY
  5
17
102
{ACAD_REACTORS
330
C
102
}
330
C
100
AcDbDictionary
281
     1
  3
Standard
350
18
  0
DICTIONARY
  5
19
102
{ACAD_REACTORS
330
C
102
}
330
C
100
AcDbDictionary
281
     1
  0
ACDBDICTIONARYWDFLT
  5
E
102
{ACAD_REACTORS
330
C
102
}
330
C
100
AcDbDictionary
281
     1
  3
Normal
350
F
100
AcDbDictionaryWithDefault
340
F
  0
DICTIONARY
  5
2DF
102
{ACAD_REACTORS
330
C
102
}
330
C
100
AcDbDictionary
281
     1
  0
DICTIONARY
  5
2A
102
{ACAD_REACTORS
330
C
102
}
330
C
100
AcDbDictionary
281
     1
  3
2dWireframe
350
2F
  3
3D Hidden
350
31
  3
3dWireframe
350
30
  3
Basic
350
32
  3
Brighten
350
36
  3
ColorChange
350
3A
  3
Conceptual
350
34
  3
Dim
350
35
  3
Facepattern
350
39
  3
Flat
350
2B
  3
FlatWithEdges
350
2C
  3
Gouraud
350
2D
  3
GouraudWithEdges
350
2E
  3
Linepattern
350
38
  3
Realistic
350
33
  3
Thicken
350
37
  0
LAYOUT
  5
1E
102
{ACAD_REACTORS
330
1A
102
}
330
1A
100
AcDbPlotSettings
  1

  2
none_device
  4

  6

 40
0.0
 41
0.0
 42
0.0
 43
0.0
 44
0.0
 45
0.0
 46
0.0
 47
0.0
 48
0.0
 49
0.0
140
0.0
141
0.0
142
1.0
143
1.0
 70
   688
 72
     0
 73
     0
 74
     5
  7

 75
    16
 76
     0
 77
     2
 78
   300
147
1.0
148
0.0
149
0.0
100
AcDbLayout
  1
Layout1
 70
     1
 71
     1
 10
0.0
 20
0.0
 11
12.0
 21
9.0
 12
0.0
 22
0.0
 32
0.0
 14
1.00000000000000E+20
 24
1.00000000000000E+20
 34
1.00000000000000E+20
 15
-1.00000000000000E+20
 25
-1.00000000000000E+20
 35
-1.00000000000000E+20
146
0.0
 13
0.0
 23
0.0
 33
0.0
 16
1.0
 26
0.0
 36
0.0
 17
0.0
 27
1.0
 37
0.0
 76
     0
330
1B
  0
LAYOUT
  5
26
102
{ACAD_REACTORS
330
1A
102
}
330
1A
100
AcDbPlotSettings
  1

  2
none_device
  4

  6

 40
0.0
 41
0.0
 42
0.0
 43
0.0
 44
0.0
 45
0.0
 46
0.0
 47
0.0
 48
0.0
 49
0.0
140
0.0
141
0.0
142
1.0
143
1.0
 70
   688
 72
     0
 73
     0
 74
     5
  7

 75
    16
 76
     0
 77
     2
 78
   300
147
1.0
148
0.0
149
0.0
100
AcDbLayout
  1
Layout2
 70
     1
 71
     2
 10
0.0
 20
0.0
 11
0.0
 21
0.0
 12
0.0
 22
0.0
 32
0.0
 14
0.0
 24
0.0
 34
0.0
 15
0.0
 25
0.0
 35
0.0
146
0.0
 13
0.0
 23
0.0
 33
0.0
 16
1.0
 26
0.0
 36
0.0
 17
0.0
 27
1.0
 37
0.0
 76
     0
330
23
  0
LAYOUT
  5
22
102
{ACAD_REACTORS
330
1A
102
}
330
1A
100
AcDbPlotSettings
  1

  2
none_device
  4

  6

 40
0.0
 41
0.0
 42
0.0
 43
0.0
 44
0.0
 45
0.0
 46
0.0
 47
0.0
 48
0.0
 49
0.0
140
0.0
141
0.0
142
1.0
143
1.0
 70
  1712
 72
     0
 73
     0
 74
     0
  7

 75
     0
 76
     0
 77
     2
 78
   300
147
1.0
148
0.0
149
0.0
100
AcDbLayout
  1
Model
 70
     1
 71
     0
 10
0.0
 20
0.0
 11
12.0
 21
9.0
 12
0.0
 22
0.0
 32
0.0
 14
-3014.155782552098
 24
-10669.14270544697
 34
0.0
 15
1154.584870682375
 25
1556.959453003801
 35
0.0
146
0.0
 13
0.0
 23
0.0
 33
0.0
 16
1.0
 26
0.0
 36
0.0
 17
0.0
 27
1.0
 37
0.0
 76
     0
330
1F
331
29
  0
MATERIAL
  5
3D
102
{ACAD_REACTORS
330
3B
102
}
330
3B
100
AcDbMaterial
  1
ByBlock
 72
     1
 94
      127
  0
MATERIAL
  5
3C
102
{ACAD_REACTORS
330
3B
102
}
330
3B
100
AcDbMaterial
  1
ByLayer
 72
     1
 94
      127
  0
MATERIAL
  5
3E
102
{ACAD_REACTORS
330
3B
102
}
330
3B
100
AcDbMaterial
  1
Global
 72
     1
 94
      127
  0
MLINESTYLE
  5
18
102
{ACAD_REACTORS
330
17
102
}
330
17
100
AcDbMlineStyle
  2
Standard
 70
     0
  3

 62
   256
 51
90.0
 52
90.0
 71
     2
 49
0.5
 62
   256
  6
BYLAYER
 49
-0.5
 62
   256
  6
BYLAYER
  0
ACDBPLACEHOLDER
  5
F
102
{ACAD_REACTORS
330
E
102
}
330
E
  0
VISUALSTYLE
  5
2F
102
{ACAD_REACTORS
330
2A
102
}
330
2A
100
AcDbVisualStyle
  2
2dWireframe
 70
     4
177
     2
291
     0
 71
     0
176
     1
 72
     2
176
     1
 73
     0
176
     1
 90
        0
176
     1
 40
-0.6
176
     1
 41
-30.0
176
     1
 62
     5
 63
     7
421
 16777215
176
     1
 74
     1
176
     1
 91
        4
176
     1
 64
     7
176
     1
 65
   257
176
     1
 75
     1
176
     1
175
     1
176
     1
 42
1.0
176
     1
 92
        0
176
     1
 66
   257
176
     1
 43
1.0
176
     1
 76
     1
176
     1
 77
     6
176
     1
 78
     2
176
     1
 67
     7
176
     1
 79
     5
176
     1
170
     0
176
     1
171
     0
176
     1
290
     0
176
     1
 93
        1
176
     1
 44
0.0
176
     1
173
     0
176
     1
  0
VISUALSTYLE
  5
31
102
{ACAD_REACTORS
330
2A
102
}
330
2A
100
AcDbVisualStyle
  2
3D Hidden
 70
     6
177
     2
291
     0
 71
     1
176
     1
 72
     2
176
     1
 73
     2
176
     1
 90
        0
176
     1
 40
-0.6
176
     1
 41
-30.0
176
     1
 62
     5
 63
     7
421
 16777215
176
     1
 74
     2
176
     1
 91
        2
176
     1
 64
     7
176
     1
 65
   257
176
     1
 75
     2
176
     1
175
     1
176
     1
 42
40.0
176
     1
 92
        0
176
     1
 66
   257
176
     1
 43
1.0
176
     1
 76
     1
176
     1
 77
     6
176
     1
 78
     2
176
     1
 67
     7
176
     1
 79
     3
176
     1
170
     0
176
     1
171
     0
176
     1
290
     0
176
     1
 93
        1
176
     1
 44
0.0
176
     1
173
     0
176
     1
  0
VISUALSTYLE
  5
30
102
{ACAD_REACTORS
330
2A
102
}
330
2A
100
AcDbVisualStyle
  2
3dWireframe
 70
     5
177
     2
291
     0
 71
     0
176
     1
 72
     2
176
     1
 73
     0
176
     1
 90
        0
176
     1
 40
-0.6
176
     1
 41
-30.0
176
     1
 62
     5
 63
     7
421
 16777215
176
     1
 74
     1
176
     1
 91
        4
176
     1
 64
     7
176
     1
 65
   257
176
     1
 75
     1
176
     1
175
     1
176
     1
 42
1.0
176
     1
 92
        0
176
     1
 66
   257
176
     1
 43
1.0
176
     1
 76
     1
176
     1
 77
     6
176
     1
 78
     2
176
     1
 67
     7
176
     1
 79
     5
176
     1
170
     0
176
     1
171
     0
176
     1
290
     0
176
     1
 93
        1
176
     1
 44
0.0
176
     1
173
     0
176
     1
  0
VISUALSTYLE
  5
32
102
{ACAD_REACTORS
330
2A
102
}
330
2A
100
AcDbVisualStyle
  2
Basic
 70
     7
177
     2
291
     1
 71
     1
176
     1
 72
     0
176
     1
 73
     1
176
     1
 90
        0
176
     1
 40
-0.6
176
     1
 41
-30.0
176
     1
 62
     5
 63
     7
421
 16777215
176
     1
 74
     0
176
     1
 91
        4
176
     1
 64
     7
176
     1
 65
   257
176
     1
 75
     1
176
     1
175
     1
176
     1
 42
1.0
176
     1
 92
        8
176
     1
 66
     7
176
     1
 43
1.0
176
     1
 76
     1
176
     1
 77
     6
176
     1
 78
     2
176
     1
 67
     7
176
     1
 79
     5
176
     1
170
     0
176
     1
171
     0
176
     1
290
     0
176
     1
 93
        1
176
     1
 44
0.0
176
     1
173
     0
176
     1
  0
VISUALSTYLE
  5
36
102
{ACAD_REACTORS
330
2A
102
}
330
2A
100
AcDbVisualStyle
  2
Brighten
 70
    12
177
     2
291
     1
 71
     2
176
     1
 72
     2
176
     1
 73
     0
176
     1
 90
        0
176
     1
 40
-0.6
176
     1
 41
-30.0
176
     1
 62
     5
 63
     7
421
 16777215
176
     1
 74
     1
176
     1
 91
        4
176
     1
 64
     7
176
     1
 65
   257
176
     1
 75
     1
176
     1
175
     1
176
     1
 42
1.0
176
     1
 92
        8
176
     1
 66
     7
176
     1
 43
1.0
176
     1
 76
     1
176
     1
 77
     6
176
     1
 78
     2
176
     1
 67
     7
176
     1
 79
     5
176
     1
170
     0
176
     1
171
     0
176
     1
290
     0
176
     1
 93
        1
176
     1
 44
50.0
176
     1
173
     0
176
     1
  0
VISUALSTYLE
  5
3A
102
{ACAD_REACTORS
330
2A
102
}
330
2A
100
AcDbVisualStyle
  2
ColorChange
 70
    16
177
     2
291
     1
 71
     2
176
     1
 72
     2
176
     1
 73
     3
176
     1
 90
        0
176
     1
 40
-0.6
176
     1
 41
-30.0
176
     1
 62
     5
 63
     8
421
  8421504
176
     1
 74
     1
176
     1
 91
        4
176
     1
 64
     7
176
     1
 65
   257
176
     1
 75
     1
176
     1
175
     1
176
     1
 42
1.0
176
     1
 92
        8
176
     1
 66
     8
424
  8421504
176
     1
 43
1.0
176
     1
 76
     1
176
     1
 77
     6
176
     1
 78
     2
176
     1
 67
     7
176
     1
 79
     5
176
     1
170
     0
176
     1
171
     0
176
     1
290
     0
176
     1
 93
        1
176
     1
 44
0.0
176
     1
173
     0
176
     1
  0
VISUALSTYLE
  5
34
102
{ACAD_REACTORS
330
2A
102
}
330
2A
100
AcDbVisualStyle
  2
Conceptual
 70
     9
177
     2
291
     0
 71
     3
176
     1
 72
     2
176
     1
 73
     0
176
     1
 90
        0
176
     1
 40
-0.6
176
     1
 41
-30.0
176
     1
 62
     5
 63
     7
421
 16777215
176
     1
 74
     2
176
     1
 91
        2
176
     1
 64
     7
176
     1
 65
   257
176
     1
 75
     1
176
     1
175
     1
176
     1
 42
40.0
176
     1
 92
        8
176
     1
 66
     7
176
     1
 43
1.0
176
     1
 76
     1
176
     1
 77
     6
176
     1
 78
     2
176
     1
 67
     7
176
     1
 79
     3
176
     1
170
     0
176
     1
171
     0
176
     1
290
     0
176
     1
 93
        1
176
     1
 44
0.0
176
     1
173
     0
176
     1
  0
VISUALSTYLE
  5
35
102
{ACAD_REACTORS
330
2A
102
}
330
2A
100
AcDbVisualStyle
  2
Dim
 70
    11
177
     2
291
     1
 71
     2
176
     1
 72
     2
176
     1
 73
     0
176
     1
 90
        0
176
     1
 40
-0.6
176
     1
 41
-30.0
176
     1
 62
     5
 63
     7
421
 16777215
176
     1
 74
     1
176
     1
 91
        4
176
     1
 64
     7
176
     1
 65
   257
176
     1
 75
     1
176
     1
175
     1
176
     1
 42
1.0
176
     1
 92
        8
176
     1
 66
     7
176
     1
 43
1.0
176
     1
 76
     1
176
     1
 77
     6
176
     1
 78
     2
176
     1
 67
     7
176
     1
 79
     5
176
     1
170
     0
176
     1
171
     0
176
     1
290
     0
176
     1
 93
        1
176
     1
 44
-50.0
176
     1
173
     0
176
     1
  0
VISUALSTYLE
  5
39
102
{ACAD_REACTORS
330
2A
102
}
330
2A
100
AcDbVisualStyle
  2
Facepattern
 70
    15
177
     2
291
     1
 71
     2
176
     1
 72
     2
176
     1
 73
     0
176
     1
 90
        0
176
     1
 40
-0.6
176
     1
 41
-30.0
176
     1
 62
     5
 63
     7
421
 16777215
176
     1
 74
     1
176
     1
 91
        4
176
     1
 64
     7
176
     1
 65
   257
176
     1
 75
     1
176
     1
175
     1
176
     1
 42
1.0
176
     1
 92
        8
176
     1
 66
     7
176
     1
 43
1.0
176
     1
 76
     1
176
     1
 77
     6
176
     1
 78
     2
176
     1
 67
     7
176
     1
 79
     5
176
     1
170
     0
176
     1
171
     0
176
     1
290
     0
176
     1
 93
        1
176
     1
 44
0.0
176
     1
173
     0
176
     1
  0
VISUALSTYLE
  5
2B
102
{ACAD_REACTORS
330
2A
102
}
330
2A
100
AcDbVisualStyle
  2
Flat
 70
     0
177
     2
291
     1
 71
     2
176
     1
 72
     1
176
     1
 73
     1
176
     1
 90
        2
176
     1
 40
-0.6
176
     1
 41
30.0
176
     1
 62
     5
 63
     7
421
 16777215
176
     1
 74
     0
176
     1
 91
        4
176
     1
 64
     7
176
     1
 65
   257
176
     1
 75
     1
176
     1
175
     1
176
     1
 42
1.0
176
     1
 92
        8
176
     1
 66
     7
176
     1
 43
1.0
176
     1
 76
     1
176
     1
 77
     6
176
     1
 78
     2
176
     1
 67
     7
176
     1
 79
     5
176
     1
170
     0
176
     1
171
     0
176
     1
290
     0
176
     1
 93
       13
176
     1
 44
0.0
176
     1
173
     0
176
     1
  0
VISUALSTYLE
  5
2C
102
{ACAD_REACTORS
330
2A
102
}
330
2A
100
AcDbVisualStyle
  2
FlatWithEdges
 70
     1
177
     2
291
     1
 71
     2
176
     1
 72
     1
176
     1
 73
     1
176
     1
 90
        2
176
     1
 40
-0.6
176
     1
 41
30.0
176
     1
 62
     5
 63
     7
421
 16777215
176
     1
 74
     1
176
     1
 91
        4
176
     1
 64
     7
176
     1
 65
   257
176
     1
 75
     1
176
     1
175
     1
176
     1
 42
1.0
176
     1
 92
        0
176
     1
 66
   257
176
     1
 43
1.0
176
     1
 76
     1
176
     1
 77
     6
176
     1
 78
     2
176
     1
 67
     7
176
     1
 79
     5
176
     1
170
     0
176
     1
171
     0
176
     1
290
     0
176
     1
 93
       13
176
     1
 44
0.0
176
     1
173
     0
176
     1
  0
VISUALSTYLE
  5
2D
102
{ACAD_REACTORS
330
2A
102
}
330
2A
100
AcDbVisualStyle
  2
Gouraud
 70
     2
177
     2
291
     1
 71
     2
176
     1
 72
     2
176
     1
 73
     1
176
     1
 90
        2
176
     1
 40
-0.6
176
     1
 41
30.0
176
     1
 62
     5
 63
     7
421
 16777215
176
     1
 74
     0
176
     1
 91
        4
176
     1
 64
     7
176
     1
 65
   257
176
     1
 75
     1
176
     1
175
     1
176
     1
 42
1.0
176
     1
 92
        0
176
     1
 66
     7
176
     1
 43
1.0
176
     1
 76
     1
176
     1
 77
     6
176
     1
 78
     2
176
     1
 67
     7
176
     1
 79
     5
176
     1
170
     0
176
     1
171
     0
176
     1
290
     0
176
     1
 93
       13
176
     1
 44
0.0
176
     1
173
     0
176
     1
  0
VISUALSTYLE
  5
2E
102
{ACAD_REACTORS
330
2A
102
}
330
2A
100
AcDbVisualStyle
  2
GouraudWithEdges
 70
     3
177
     2
291
     1
 71
     2
176
     1
 72
     2
176
     1
 73
     1
176
     1
 90
        2
176
     1
 40
-0.6
176
     1
 41
30.0
176
     1
 62
     5
 63
     7
421
 16777215
176
     1
 74
     1
176
     1
 91
        4
176
     1
 64
     7
176
     1
 65
   257
176
     1
 75
     1
176
     1
175
     1
176
     1
 42
1.0
176
     1
 92
        0
176
     1
 66
   257
176
     1
 43
1.0
176
     1
 76
     1
176
     1
 77
     6
176
     1
 78
     2
176
     1
 67
     7
176
     1
 79
     5
176
     1
170
     0
176
     1
171
     0
176
     1
290
     0
176
     1
 93
       13
176
     1
 44
0.0
176
     1
173
     0
176
     1
  0
VISUALSTYLE
  5
38
102
{ACAD_REACTORS
330
2A
102
}
330
2A
100
AcDbVisualStyle
  2
Linepattern
 70
    14
177
     2
291
     1
 71
     2
176
     1
 72
     2
176
     1
 73
     0
176
     1
 90
        0
176
     1
 40
-0.6
176
     1
 41
-30.0
176
     1
 62
     5
 63
     7
421
 16777215
176
     1
 74
     1
176
     1
 91
        4
176
     1
 64
     7
176
     1
 65
   257
176
     1
 75
     7
176
     1
175
     7
176
     1
 42
1.0
176
     1
 92
        8
176
     1
 66
     7
176
     1
 43
1.0
176
     1
 76
     1
176
     1
 77
     6
176
     1
 78
     2
176
     1
 67
     7
176
     1
 79
     5
176
     1
170
     0
176
     1
171
     0
176
     1
290
     0
176
     1
 93
        1
176
     1
 44
0.0
176
     1
173
     0
176
     1
  0
VISUALSTYLE
  5
33
102
{ACAD_REACTORS
330
2A
102
}
330
2A
100
AcDbVisualStyle
  2
Realistic
 70
     8
177
     2
291
     0
 71
     2
176
     1
 72
     2
176
     1
 73
     0
176
     1
 90
        0
176
     1
 40
-0.6
176
     1
 41
-30.0
176
     1
 62
     5
 63
     7
421
 16777215
176
     1
 74
     1
176
     1
 91
        0
176
     1
 64
     7
176
     1
 65
   257
176
     1
 75
     1
176
     1
175
     1
176
     1
 42
1.0
176
     1
 92
        8
176
     1
 66
     8
424
  7895160
176
     1
 43
1.0
176
     1
 76
     1
176
     1
 77
     6
176
     1
 78
     2
176
     1
 67
     7
176
     1
 79
     5
176
     1
170
     0
176
     1
171
     0
176
     1
290
     0
176
     1
 93
       13
176
     1
 44
0.0
176
     1
173
     0
176
     1
  0
VISUALSTYLE
  5
37
102
{ACAD_REACTORS
330
2A
102
}
330
2A
100
AcDbVisualStyle
  2
Thicken
 70
    13
177
     2
291
     1
 71
     2
176
     1
 72
     2
176
     1
 73
     0
176
     1
 90
        0
176
     1
 40
-0.6
176
     1
 41
-30.0
176
     1
 62
     5
 63
     7
421
 16777215
176
     1
 74
     1
176
     1
 91
        4
176
     1
 64
     7
176
     1
 65
   257
176
     1
 75
     1
176
     1
175
     1
176
     1
 42
1.0
176
     1
 92
       12
176
     1
 66
     7
176
     1
 43
1.0
176
     1
 76
     1
176
     1
 77
     6
176
     1
 78
     2
176
     1
 67
     7
176
     1
 79
     5
176
     1
170
     0
176
     1
171
     0
176
     1
290
     0
176
     1
 93
        1
176
     1
 44
0.0
176
     1
173
     0
176
     1
  0
ENDSEC
  0
EOF
