  0
SECTION
  2
HEADER
  9
$ACADVER
  1
AC1015
  9
$ACADMAINTVER
 70
     6
  9
$DWGCODEPAGE
  3
ANSI_1252
  9
$INSBASE
 10
0.0
 20
0.0
 30
0.0
  9
$EXTMIN
 10
-831.7843132740293
 20
126.1679768170141
 30
0.0
  9
$EXTMAX
 10
1147.990658639802
 20
1006.363392880092
 30
0.0
  9
$LIMMIN
 10
0.0
 20
0.0
  9
$LIMMAX
 10
12.0
 20
9.0
  9
$ORTHOMODE
 70
     0
  9
$REGENMODE
 70
     1
  9
$FILLMODE
 70
     1
  9
$QTEXTMODE
 70
     0
  9
$MIRRTEXT
 70
     1
  9
$LTSCALE
 40
1.0
  9
$ATTMODE
 70
     1
  9
$TEXTSIZE
 40
0.2
  9
$TRACEWID
 40
0.05
  9
$TEXTSTYLE
  7
Standard
  9
$CLAYER
  8
0
  9
$CELTYPE
  6
ByLayer
  9
$CECOLOR
 62
   256
  9
$CELTSCALE
 40
1.0
  9
$DISPSILH
 70
     0
  9
$DIMSCALE
 40
1.0
  9
$DIMASZ
 40
0.18
  9
$DIMEXO
 40
0.0625
  9
$DIMDLI
 40
0.38
  9
$DIMRND
 40
0.0
  9
$DIMDLE
 40
0.0
  9
$DIMEXE
 40
0.18
  9
$DIMTP
 40
0.0
  9
$DIMTM
 40
0.0
  9
$DIMTXT
 40
0.18
  9
$DIMCEN
 40
0.09
  9
$DIMTSZ
 40
0.0
  9
$DIMTOL
 70
     0
  9
$DIMLIM
 70
     0
  9
$DIMTIH
 70
     1
  9
$DIMTOH
 70
     1
  9
$DIMSE1
 70
     0
  9
$DIMSE2
 70
     0
  9
$DIMTAD
 70
     0
  9
$DIMZIN
 70
     0
  9
$DIMBLK
  1

  9
$DIMASO
 70
     1
  9
$DIMSHO
 70
     1
  9
$DIMPOST
  1

  9
$DIMAPOST
  1

  9
$DIMALT
 70
     0
  9
$DIMALTD
 70
     2
  9
$DIMALTF
 40
25.4
  9
$DIMLFAC
 40
1.0
  9
$DIMTOFL
 70
     0
  9
$DIMTVP
 40
0.0
  9
$DIMTIX
 70
     0
  9
$DIMSOXD
 70
     0
  9
$DIMSAH
 70
     0
  9
$DIMBLK1
  1

  9
$DIMBLK2
  1

  9
$DIMSTYLE
  2
Standard
  9
$DIMCLRD
 70
     0
  9
$DIMCLRE
 70
     0
  9
$DIMCLRT
 70
     0
  9
$DIMTFAC
 40
1.0
  9
$DIMGAP
 40
0.09
  9
$DIMJUST
 70
     0
  9
$DIMSD1
 70
     0
  9
$DIMSD2
 70
     0
  9
$DIMTOLJ
 70
     1
  9
$DIMTZIN
 70
     0
  9
$DIMALTZ
 70
     0
  9
$DIMALTTZ
 70
     0
  9
$DIMUPT
 70
     0
  9
$DIMDEC
 70
     4
  9
$DIMTDEC
 70
     4
  9
$DIMALTU
 70
     2
  9
$DIMALTTD
 70
     2
  9
$DIMTXSTY
  7
Standard
  9
$DIMAUNIT
 70
     0
  9
$DIMADEC
 70
     0
  9
$DIMALTRND
 40
0.0
  9
$DIMAZIN
 70
     0
  9
$DIMDSEP
 70
    46
  9
$DIMATFIT
 70
     3
  9
$DIMFRAC
 70
     0
  9
$DIMLDRBLK
  1

  9
$DIMLUNIT
 70
     2
  9
$DIMLWD
 70
    -2
  9
$DIMLWE
 70
    -2
  9
$DIMTMOVE
 70
     0
  9
$LUNITS
 70
     2
  9
$LUPREC
 70
     4
  9
$SKETCHINC
 40
0.1
  9
$FILLETRAD
 40
0.5
  9
$AUNITS
 70
     0
  9
$AUPREC
 70
     0
  9
$MENU
  1
.
  9
$ELEVATION
 40
0.0
  9
$PELEVATION
 40
0.0
  9
$THICKNESS
 40
0.0
  9
$LIMCHECK
 70
     0
  9
$CHAMFERA
 40
0.5
  9
$CHAMFERB
 40
0.5
  9
$CHAMFERC
 40
1.0
  9
$CHAMFERD
 40
0.0
  9
$SKPOLY
 70
     0
  9
$TDCREATE
 40
2454635.721444225
  9
$TDUCREATE
 40
2454635.679777558
  9
$TDUPDATE
 40
2454635.763110903
  9
$TDUUPDATE
 40
2454635.67977757
  9
$TDINDWG
 40
0.0000000116
  9
$TDUSRTIMER
 40
0.0000000116
  9
$USRTIMER
 70
     1
  9
$ANGBASE
 50
0.0
  9
$ANGDIR
 70
     0
  9
$PDMODE
 70
     0
  9
$PDSIZE
 40
0.0
  9
$PLINEWID
 40
0.0
  9
$SPLFRAME
 70
     0
  9
$SPLINETYPE
 70
     6
  9
$SPLINESEGS
 70
     8
  9
$HANDSEED
  5
2AD
  9
$SURFTAB1
 70
     6
  9
$SURFTAB2
 70
     6
  9
$SURFTYPE
 70
     6
  9
$SURFU
 70
     6
  9
$SURFV
 70
     6
  9
$UCSBASE
  2

  9
$UCSNAME
  2

  9
$UCSORG
 10
0.0
 20
0.0
 30
0.0
  9
$UCSXDIR
 10
1.0
 20
0.0
 30
0.0
  9
$UCSYDIR
 10
0.0
 20
1.0
 30
0.0
  9
$UCSORTHOREF
  2

  9
$UCSORTHOVIEW
 70
     0
  9
$UCSORGTOP
 10
0.0
 20
0.0
 30
0.0
  9
$UCSORGBOTTOM
 10
0.0
 20
0.0
 30
0.0
  9
$UCSORGLEFT
 10
0.0
 20
0.0
 30
0.0
  9
$UCSORGRIGHT
 10
0.0
 20
0.0
 30
0.0
  9
$UCSORGFRONT
 10
0.0
 20
0.0
 30
0.0
  9
$UCSORGBACK
 10
0.0
 20
0.0
 30
0.0
  9
$PUCSBASE
  2

  9
$PUCSNAME
  2

  9
$PUCSORG
 10
0.0
 20
0.0
 30
0.0
  9
$PUCSXDIR
 10
1.0
 20
0.0
 30
0.0
  9
$PUCSYDIR
 10
0.0
 20
1.0
 30
0.0
  9
$PUCSORTHOREF
  2

  9
$PUCSORTHOVIEW
 70
     0
  9
$PUCSORGTOP
 10
0.0
 20
0.0
 30
0.0
  9
$PUCSORGBOTTOM
 10
0.0
 20
0.0
 30
0.0
  9
$PUCSORGLEFT
 10
0.0
 20
0.0
 30
0.0
  9
$PUCSORGRIGHT
 10
0.0
 20
0.0
 30
0.0
  9
$PUCSORGFRONT
 10
0.0
 20
0.0
 30
0.0
  9
$PUCSORGBACK
 10
0.0
 20
0.0
 30
0.0
  9
$USERI1
 70
     0
  9
$USERI2
 70
     0
  9
$USERI3
 70
     0
  9
$USERI4
 70
     0
  9
$USERI5
 70
     0
  9
$USERR1
 40
13.01
  9
$USERR2
 40
0.0
  9
$USERR3
 40
0.0
  9
$USERR4
 40
0.0
  9
$USERR5
 40
0.0
  9
$WORLDVIEW
 70
     1
  9
$SHADEDGE
 70
     3
  9
$SHADEDIF
 70
    70
  9
$TILEMODE
 70
     1
  9
$MAXACTVP
 70
    64
  9
$PINSBASE
 10
0.0
 20
0.0
 30
0.0
  9
$PLIMCHECK
 70
     0
  9
$PEXTMIN
 10
1.00000000000000E+20
 20
1.00000000000000E+20
 30
1.00000000000000E+20
  9
$PEXTMAX
 10
-1.00000000000000E+20
 20
-1.00000000000000E+20
 30
-1.00000000000000E+20
  9
$PLIMMIN
 10
0.0
 20
0.0
  9
$PLIMMAX
 10
12.0
 20
9.0
  9
$UNITMODE
 70
     0
  9
$VISRETAIN
 70
     1
  9
$PLINEGEN
 70
     0
  9
$PSLTSCALE
 70
     1
  9
$TREEDEPTH
 70
  3020
  9
$CMLSTYLE
  2
Standard
  9
$CMLJUST
 70
     0
  9
$CMLSCALE
 40
1.0
  9
$PROXYGRAPHICS
 70
     1
  9
$MEASUREMENT
 70
     1
  9
$CELWEIGHT
370
    -1
  9
$ENDCAPS
280
     0
  9
$JOINSTYLE
280
     0
  9
$LWDISPLAY
290
     0
  9
$INSUNITS
 70
     1
  9
$HYPERLINKBASE
  1

  9
$STYLESHEET
  1

  9
$XEDIT
290
     1
  9
$CEPSNTYPE
380
     0
  9
$PSTYLEMODE
290
     0
  9
$FINGERPRINTGUID
  2
{FAEB1C30-E019-11D5-929B-00C0DF256EC4}
  9
$VERSIONGUID
  2
{FAEB1C32-E019-11D5-929B-00C0DF256EC4}
  9
$EXTNAMES
290
     1
  9
$PSVPSCALE
 40
0.0
  9
$OLESTARTUP
290
     0
  0
ENDSEC
  0
SECTION
  2
CLASSES
  0
CLASS
  1
ACDBDICTIONARYWDFLT
  2
AcDbDictionaryWithDefault
  3
ObjectDBX Classes
 90
        0
280
     0
281
     0
  0
CLASS
  1
TABLESTYLE
  2
AcDbTableStyle
  3
ObjectDBX Classes
 90
     2047
280
     0
281
     0
  0
CLASS
  1
DICTIONARYVAR
  2
AcDbDictionaryVar
  3
ObjectDBX Classes
 90
        0
280
     0
281
     0
  0
CLASS
  1

  2
exOdDbCircle
  3

 90
        0
280
     0
281
     1
  0
CLASS
  1

  2
exOdDbSpline
  3

 90
        0
280
     0
281
     1
  0
CLASS
  1
ACDBPLACEHOLDER
  2
AcDbPlaceHolder
  3
ObjectDBX Classes
 90
        0
280
     0
281
     0
  0
CLASS
  1
LAYOUT
  2
AcDbLayout
  3
ObjectDBX Classes
 90
        0
280
     0
281
     0
  0
ENDSEC
  0
SECTION
  2
TABLES
  0
TABLE
  2
VPORT
  5
8
330
0
100
AcDbSymbolTable
 70
     2
  0
VPORT
  5
29
330
8
100
AcDbSymbolTableRecord
100
AcDbViewportTableRecord
  2
*Active
 70
     0
 10
0.0
 20
0.0
 11
1.0
 21
1.0
 12
158.1031726828863
 22
566.2656848485531
 13
0.0
 23
0.0
 14
0.5
 24
0.5
 15
0.5
 25
0.5
 16
0.0
 26
0.0
 36
1.0
 17
0.0
 27
0.0
 37
0.0
 40
1358.820482115789
 41
1.60267857142857
 42
50.0
 43
0.0
 44
0.0
 50
0.0
 51
0.0
 71
     0
 72
   100
 73
     1
 74
     3
 75
     0
 76
     0
 77
     0
 78
     0
281
     0
 65
     1
110
0.0
120
0.0
130
0.0
111
1.0
121
0.0
131
0.0
112
0.0
122
1.0
132
0.0
 79
     0
146
0.0
  0
ENDTAB
  0
TABLE
  2
LTYPE
  5
5
330
0
100
AcDbSymbolTable
 70
     8
  0
LTYPE
  5
14
330
5
100
AcDbSymbolTableRecord
100
AcDbLinetypeTableRecord
  2
ByBlock
 70
     0
  3

 72
    65
 73
     0
 40
0.0
  0
LTYPE
  5
15
330
5
100
AcDbSymbolTableRecord
100
AcDbLinetypeTableRecord
  2
ByLayer
 70
     0
  3

 72
    65
 73
     0
 40
0.0
  0
LTYPE
  5
16
330
5
100
AcDbSymbolTableRecord
100
AcDbLinetypeTableRecord
  2
Continuous
 70
     0
  3
Solid line
 72
    65
 73
     0
 40
0.0
  0
LTYPE
  5
2E
330
5
100
AcDbSymbolTableRecord
100
AcDbLinetypeTableRecord
  2
DASHED
 70
     0
  3
Dashed
 72
    65
 73
     2
 40
15.0
 49
7.0
 74
     0
 49
-8.0
 74
     0
  0
LTYPE
  5
2F
330
5
100
AcDbSymbolTableRecord
100
AcDbLinetypeTableRecord
  2
DOTTED
 70
     0
  3
Dotted
 72
    65
 73
     2
 40
1.0
 49
0.0
 74
     0
 49
-1.0
 74
     0
  0
LTYPE
  5
30
330
5
100
AcDbSymbolTableRecord
100
AcDbLinetypeTableRecord
  2
DOT_CENTER
 70
     0
  3
Dot_Center
 72
    65
 73
     4
 40
14.0
 49
12.0
 74
     0
 49
-1.0
 74
     0
 49
0.0
 74
     0
 49
-1.0
 74
     0
  0
LTYPE
  5
31
330
5
100
AcDbSymbolTableRecord
100
AcDbLinetypeTableRecord
  2
LONG_DASHED
 70
     0
  3
Long_Dashed
 72
    65
 73
     2
 40
15.0
 49
10.0
 74
     0
 49
-5.0
 74
     0
  0
LTYPE
  5
32
330
5
100
AcDbSymbolTableRecord
100
AcDbLinetypeTableRecord
  2
DASH_CENTER
 70
     0
  3
Dash_Center
 72
    65
 73
     4
 40
14.0
 49
11.0
 74
     0
 49
-1.0
 74
     0
 49
1.0
 74
     0
 49
-1.0
 74
     0
  0
LTYPE
  5
33
330
5
100
AcDbSymbolTableRecord
100
AcDbLinetypeTableRecord
  2
PHANTOM
 70
     0
  3
Phantom
 72
    65
 73
     6
 40
13.0
 49
10.0
 74
     0
 49
-1.0
 74
     0
 49
0.0
 74
     0
 49
-1.0
 74
     0
 49
0.0
 74
     0
 49
-1.0
 74
     0
  0
LTYPE
  5
34
330
5
100
AcDbSymbolTableRecord
100
AcDbLinetypeTableRecord
  2
CENTER_DASH_DASH
 70
     0
  3
Center_Dash_Dash
 72
    65
 73
     6
 40
14.0
 49
9.0
 74
     0
 49
-1.0
 74
     0
 49
1.0
 74
     0
 49
-1.0
 74
     0
 49
1.0
 74
     0
 49
-1.0
 74
     0
  0
ENDTAB
  0
TABLE
  2
LAYER
  5
2
330
0
100
AcDbSymbolTable
 70
     2
  0
LAYER
  5
10
330
2
100
AcDbSymbolTableRecord
100
AcDbLayerTableRecord
  2
0
 70
     0
 62
     7
  6
Continuous
370
    -3
390
F
  0
LAYER
  5
35
330
2
100
AcDbSymbolTableRecord
100
AcDbLayerTableRecord
  2
1
 70
     0
 62
     7
  6
Continuous
370
    -3
390
F
  0
ENDTAB
  0
TABLE
  2
STYLE
  5
3
330
0
100
AcDbSymbolTable
 70
     1
  0
STYLE
  5
11
330
3
100
AcDbSymbolTableRecord
100
AcDbTextStyleTableRecord
  2
Standard
 70
     0
 40
0.0
 41
1.0
 50
0.0
 71
     0
 42
0.2
  3
txt
  4

  0
ENDTAB
  0
TABLE
  2
VIEW
  5
6
330
0
100
AcDbSymbolTable
 70
     0
  0
ENDTAB
  0
TABLE
  2
UCS
  5
7
330
0
100
AcDbSymbolTable
 70
     0
  0
ENDTAB
  0
TABLE
  2
APPID
  5
9
330
0
100
AcDbSymbolTable
 70
     1
  0
APPID
  5
12
330
9
100
AcDbSymbolTableRecord
100
AcDbRegAppTableRecord
  2
ACAD
 70
     0
  0
ENDTAB
  0
TABLE
  2
DIMSTYLE
  5
A
330
0
100
AcDbSymbolTable
 70
     1
100
AcDbDimStyleTable
  0
DIMSTYLE
105
27
330
A
100
AcDbSymbolTableRecord
100
AcDbDimStyleTableRecord
  2
Standard
 70
     0
340
11
  0
ENDTAB
  0
TABLE
  2
BLOCK_RECORD
  5
1
330
0
100
AcDbSymbolTable
 70
     2
  0
BLOCK_RECORD
  5
1F
330
1
100
AcDbSymbolTableRecord
100
AcDbBlockTableRecord
  2
*Model_Space
340
22
  0
BLOCK_RECORD
  5
1B
330
1
100
AcDbSymbolTableRecord
100
AcDbBlockTableRecord
  2
*Paper_Space
340
1E
  0
BLOCK_RECORD
  5
23
330
1
100
AcDbSymbolTableRecord
100
AcDbBlockTableRecord
  2
*Paper_Space0
340
26
  0
BLOCK_RECORD
  5
36
330
1
100
AcDbSymbolTableRecord
100
AcDbBlockTableRecord
  2
1
340
0
102
{BLKREFS
331
39
102
}
  0
ENDTAB
  0
ENDSEC
  0
SECTION
  2
BLOCKS
  0
BLOCK
  5
20
330
1F
100
AcDbEntity
  8
0
100
AcDbBlockBegin
  2
*Model_Space
 70
     0
 71
     0
 10
0.0
 20
0.0
 30
0.0
  3
*Model_Space
  1

  0
ENDBLK
  5
21
330
1F
100
AcDbEntity
  8
0
100
AcDbBlockEnd
  0
BLOCK
  5
1C
330
1B
100
AcDbEntity
 67
     1
  8
0
100
AcDbBlockBegin
  2
*Paper_Space
 70
     0
 71
     0
 10
0.0
 20
0.0
 30
0.0
  3
*Paper_Space
  1

  0
ENDBLK
  5
1D
330
1B
100
AcDbEntity
 67
     1
  8
0
100
AcDbBlockEnd
  0
BLOCK
  5
24
330
23
100
AcDbEntity
  8
0
100
AcDbBlockBegin
  2
*Paper_Space0
 70
     0
 71
     0
 10
0.0
 20
0.0
 30
0.0
  3
*Paper_Space0
  1

  0
ENDBLK
  5
25
330
23
100
AcDbEntity
  8
0
100
AcDbBlockEnd
  0
BLOCK
  5
37
330
36
100
AcDbEntity
  8
0
100
AcDbBlockBegin
  2
1
 70
     0
 71
     0
 10
0.0
 20
0.0
 30
0.0
  3
1
  1

  0
LINE
  5
3A
330
36
100
AcDbEntity
  8
1
  6
Continuous
 62
     7
100
AcDbLine
 10
-61.03489731449898
 20
513.240945865989
 30
0.0
 11
333.0837743720939
 21
513.240945865989
 31
0.0
  0
LINE
  5
3B
330
36
100
AcDbEntity
  8
1
  6
Continuous
 62
     7
100
AcDbLine
 10
-61.03489731449898
 20
513.240945865989
 30
0.0
 11
-84.03489731449076
 21
126.167976817031
 31
0.0
  0
LINE
  5
3C
330
36
100
AcDbEntity
  8
1
  6
Continuous
 62
     7
100
AcDbLine
 10
-139.0348973145047
 20
743.3166937292301
 30
0.0
 11
-104.0348973145048
 21
743.316693729231
 31
0.0
  0
LINE
  5
3D
330
36
100
AcDbEntity
  8
1
  6
Continuous
 62
     7
100
AcDbLine
 10
410.9651026854987
 20
764.7224615644116
 30
0.0
 11
375.9651026854987
 21
764.7224615644116
 31
0.0
  0
LINE
  5
3E
330
36
100
AcDbEntity
  8
1
  6
Continuous
 62
     7
100
AcDbLine
 10
1147.990658639796
 20
536.7157248345291
 30
0.0
 11
1112.990658639796
 21
536.7157248345291
 31
0.0
  0
LINE
  5
3F
330
36
100
AcDbEntity
  8
1
  6
Continuous
 62
     7
100
AcDbLine
 10
680.9312890223
 20
532.3768110249262
 30
0.0
 11
675.9906586397972
 21
532.3768110249262
 31
0.0
  0
LINE
  5
40
330
36
100
AcDbEntity
  8
1
  6
Continuous
 62
     7
100
AcDbLine
 10
994.9906586397983
 20
532.3768110249191
 30
0.0
 11
1069.990658639798
 21
532.3768110249191
 31
0.0
  0
LINE
  5
41
330
36
100
AcDbEntity
  8
1
  6
Continuous
 62
     7
100
AcDbLine
 10
675.9906586397968
 20
514.3084468588952
 30
0.0
 11
1071.019215953038
 21
514.3084468588952
 31
0.0
  0
LINE
  5
42
330
36
100
AcDbEntity
  8
1
  6
Continuous
 62
     7
100
AcDbLine
 10
-724.0926004606831
 20
514.3084464692261
 30
0.0
 11
-724.2231122856856
 21
513.2389039382301
 31
0.0
  0
LINE
  5
43
330
36
100
AcDbEntity
  8
1
  6
Continuous
 62
     7
100
AcDbLine
 10
-720.4456230919736
 20
514.451893305247
 30
0.0
 11
-724.0926004606831
 21
514.3084464692261
 31
0.0
  0
LINE
  5
44
330
36
100
AcDbEntity
  8
0
  6
Continuous
 62
     7
100
AcDbLine
 10
632.9906586397995
 20
575.503207137092
 30
0.0
 11
632.9906586397995
 21
574.7525075736041
 31
0.0
  0
LINE
  5
45
330
36
100
AcDbEntity
  8
0
  6
Continuous
 62
     7
100
AcDbLine
 10
632.9906586397995
 20
574.7525075736041
 30
0.0
 11
632.9906586397999
 21
569.1428145819871
 31
0.0
  0
LINE
  5
46
330
36
100
AcDbEntity
  8
0
  6
Continuous
 62
     7
100
AcDbLine
 10
1112.990658639799
 20
575.5032071370881
 30
0.0
 11
1112.990658639799
 21
574.7525075736
 31
0.0
  0
LINE
  5
47
330
36
100
AcDbEntity
  8
0
  6
Continuous
 62
     7
100
AcDbLine
 10
1112.990658639799
 20
574.7525075736
 30
0.0
 11
1112.990658639798
 21
569.14281458198
 31
0.0
  0
LINE
  5
48
330
36
100
AcDbEntity
  8
0
  6
Continuous
 62
     7
100
AcDbLine
 10
1112.990658639802
 20
764.723774650936
 30
0.0
 11
1112.9906586398
 21
765.0851248889535
 31
0.0
  0
LINE
  5
49
330
36
100
AcDbEntity
  8
0
  6
Continuous
 62
     7
100
AcDbLine
 10
1112.990658639802
 20
752.7177844548144
 30
0.0
 11
1112.990658639802
 21
752.7237811445812
 31
0.0
  0
LINE
  5
4A
330
36
100
AcDbEntity
  8
0
  6
Continuous
 62
     7
100
AcDbLine
 10
1112.990658639802
 20
752.7237811445812
 30
0.0
 11
1112.990658639802
 21
764.723774650936
 31
0.0
  0
LINE
  5
4B
330
36
100
AcDbEntity
  8
0
  6
Continuous
 62
     7
100
AcDbLine
 10
1112.990658639803
 20
743.3166941188928
 30
0.0
 11
1112.990658639803
 21
743.3205867811058
 31
0.0
  0
LINE
  5
4C
330
36
100
AcDbEntity
  8
0
  6
Continuous
 62
     7
100
AcDbLine
 10
1112.990658639801
 20
743.0170967860593
 30
0.0
 11
1112.990658639803
 21
743.3166941188928
 31
0.0
  0
LINE
  5
4D
330
36
100
AcDbEntity
  8
0
  6
Continuous
 62
     7
100
AcDbLine
 10
1112.990658639799
 20
740.0851248889535
 30
0.0
 11
1112.990658639801
 21
743.0170967860593
 31
0.0
  0
LINE
  5
4E
330
36
100
AcDbEntity
  8
0
  6
Continuous
 62
     7
100
AcDbLine
 10
1112.990658639803
 20
743.3205867811058
 30
0.0
 11
1112.990658639802
 21
752.7177844548144
 31
0.0
  0
LINE
  5
4F
330
36
100
AcDbEntity
  8
0
  6
Continuous
 62
     7
100
AcDbLine
 10
750.9312890223
 20
532.3768110249241
 30
0.0
 11
680.9312890223
 21
532.3768110249262
 31
0.0
  0
LINE
  5
50
330
36
100
AcDbEntity
  8
0
  6
Continuous
 62
     7
100
AcDbLine
 10
994.9906586397983
 20
532.3768110249191
 30
0.0
 11
750.9312890223
 21
532.3768110249241
 31
0.0
  0
LINE
  5
51
330
36
100
AcDbEntity
  8
0
  6
Continuous
 62
     7
100
AcDbLine
 10
375.965102685499
 20
569.8935137558142
 30
0.0
 11
375.965102685499
 21
575.5032067474303
 31
0.0
  0
LINE
  5
52
330
36
100
AcDbEntity
  8
0
  6
Continuous
 62
     7
100
AcDbLine
 10
375.9651026854986
 20
569.1428141923254
 30
0.0
 11
375.965102685499
 21
569.8935137558142
 31
0.0
  0
LINE
  5
53
330
36
100
AcDbEntity
  8
0
  6
Continuous
 62
     7
100
AcDbLine
 10
-104.0348973144995
 20
569.1428141923184
 30
0.0
 11
-104.0348973145008
 21
569.8935137558083
 31
0.0
  0
LINE
  5
54
330
36
100
AcDbEntity
  8
0
  6
Continuous
 62
     7
100
AcDbLine
 10
-104.0348973145008
 20
569.8935137558083
 30
0.0
 11
-104.034897314501
 21
575.5032067474268
 31
0.0
  0
LINE
  5
55
330
36
100
AcDbEntity
  8
0
  6
Continuous
 62
     7
100
AcDbLine
 10
-104.0348973145048
 20
743.316693729231
 30
0.0
 11
-104.034897314503
 21
740.9599848122334
 31
0.0
  0
LINE
  5
56
330
36
100
AcDbEntity
  8
0
  6
Continuous
 62
     7
100
AcDbLine
 10
-104.0348973145033
 20
752.7237807549195
 30
0.0
 11
-104.0348973145048
 21
743.316693729231
 31
0.0
  0
LINE
  5
57
330
36
100
AcDbEntity
  8
0
  6
Continuous
 62
     7
100
AcDbLine
 10
-104.0348973145036
 20
764.7224615643977
 30
0.0
 11
-104.0348973145053
 21
761.4920195716456
 31
0.0
  0
LINE
  5
58
330
36
100
AcDbEntity
  8
0
  6
Continuous
 62
     7
100
AcDbLine
 10
-104.0348973145053
 20
761.4920195716456
 30
0.0
 11
-104.0348973145033
 21
752.7237807549195
 31
0.0
  0
LINE
  5
59
330
36
100
AcDbEntity
  8
0
  6
Continuous
 62
     7
100
AcDbLine
 10
-104.0348973145036
 20
764.7237742612742
 30
0.0
 11
-104.0348973145036
 21
764.7224615643977
 31
0.0
  0
LINE
  5
5A
330
36
100
AcDbEntity
  8
0
  6
Continuous
 62
     7
100
AcDbLine
 10
-104.0348973145013
 20
765.0851244992916
 30
0.0
 11
-104.0348973145036
 21
764.7237742612742
 31
0.0
  0
LINE
  5
5B
330
36
100
AcDbEntity
  8
0
  6
Continuous
 62
     7
100
AcDbLine
 10
-104.034897314503
 20
740.9599848122334
 30
0.0
 11
-104.0348973145006
 21
740.0851244992916
 31
0.0
  0
LINE
  5
5C
330
36
100
AcDbEntity
  8
0
  6
Continuous
 62
     7
100
AcDbLine
 10
-711.3045419004053
 20
566.485570818616
 30
0.0
 11
-712.0476020722017
 21
566.456343976811
 31
0.0
  0
LINE
  5
5D
330
36
100
AcDbEntity
  8
0
  6
Continuous
 62
     7
100
AcDbLine
 10
-712.0476020722017
 20
566.456343976811
 30
0.0
 11
-714.6728548852644
 21
566.3530847098241
 31
0.0
  0
LINE
  5
5E
330
36
100
AcDbEntity
  8
0
  6
Continuous
 62
     7
100
AcDbLine
 10
-770.3803195716394
 20
512.807482029423
 30
0.0
 11
-770.0546278331567
 21
517.1337496875731
 31
0.0
  0
LINE
  5
5F
330
36
100
AcDbEntity
  8
0
  6
Continuous
 62
     7
100
AcDbLine
 10
-770.2918088473948
 20
512.8008187311871
 30
0.0
 11
-770.3803195716394
 21
512.807482029423
 31
0.0
  0
LINE
  5
60
330
36
100
AcDbEntity
  8
0
  6
Continuous
 62
     7
100
AcDbLine
 10
-710.2862283982501
 20
566.5256242204359
 30
0.0
 11
-710.236171004183
 21
566.527593131694
 31
0.0
  0
LINE
  5
61
330
36
100
AcDbEntity
  8
0
  6
Continuous
 62
     7
100
AcDbLine
 10
-710.3497256074235
 20
566.5231266799251
 30
0.0
 11
-710.2862283982501
 21
566.5256242204359
 31
0.0
  0
LINE
  5
62
330
36
100
AcDbEntity
  8
0
  6
Continuous
 62
     7
100
AcDbLine
 10
-710.3497256074235
 20
566.5231266799251
 30
0.0
 11
-710.3494307540879
 21
566.5156303595331
 31
0.0
  0
LINE
  5
63
330
36
100
AcDbEntity
  8
0
  6
Continuous
 62
     7
100
AcDbLine
 10
-283.6698405818516
 20
583.3057587930621
 30
0.0
 11
-283.6697033255135
 21
583.305764191776
 31
0.0
  0
LINE
  5
64
330
36
100
AcDbEntity
  8
0
  6
Continuous
 62
     7
100
AcDbLine
 10
-710.2862283982501
 20
566.5256242204359
 30
0.0
 11
-710.236171004183
 21
566.527593131694
 31
0.0
  0
LINE
  5
65
330
36
100
AcDbEntity
  8
0
  6
Continuous
 62
     7
100
AcDbLine
 10
632.9906586398067
 20
992.9557210246924
 30
0.0
 11
632.9906586398071
 21
1006.130393776992
 31
0.0
  0
LINE
  5
66
330
36
100
AcDbEntity
  8
0
  6
Continuous
 62
     7
100
AcDbLine
 10
632.9906586397979
 20
566.2813903765712
 30
0.0
 11
632.9906586397979
 21
564.2687261416152
 31
0.0
  0
LINE
  5
67
330
36
100
AcDbEntity
  8
0
  6
Continuous
 62
     7
100
AcDbLine
 10
632.9906586397997
 20
764.7237746509488
 30
0.0
 11
632.9906586398029
 21
816.835250252517
 31
0.0
  0
LINE
  5
68
330
36
100
AcDbEntity
  8
0
  6
Continuous
 62
     7
100
AcDbLine
 10
632.9906586397983
 20
583.3965249688151
 30
0.0
 11
632.9906586397982
 21
586.0923545999972
 31
0.0
  0
LINE
  5
69
330
36
100
AcDbEntity
  8
0
  6
Continuous
 62
     7
100
AcDbLine
 10
632.990658639798
 20
566.4802701006372
 30
0.0
 11
632.9906586397979
 21
566.2813903765712
 31
0.0
  0
LINE
  5
6A
330
36
100
AcDbEntity
  8
0
  6
Continuous
 62
     7
100
AcDbLine
 10
632.9906586397995
 20
575.503207137092
 30
0.0
 11
632.9906586397995
 21
574.7525075736041
 31
0.0
  0
LINE
  5
6B
330
36
100
AcDbEntity
  8
0
  6
Continuous
 62
     7
100
AcDbLine
 10
632.9906586397999
 20
569.1428145819871
 30
0.0
 11
632.990658639798
 21
566.4802701006372
 31
0.0
  0
LINE
  5
6C
330
36
100
AcDbEntity
  8
0
  6
Continuous
 62
     7
100
AcDbLine
 10
632.9906586397995
 20
574.7525075736041
 30
0.0
 11
632.9906586397999
 21
569.1428145819871
 31
0.0
  0
LINE
  5
6D
330
36
100
AcDbEntity
  8
0
  6
Continuous
 62
     7
100
AcDbLine
 10
632.9906586397983
 20
583.3965249688151
 30
0.0
 11
632.9906586397995
 21
575.503207137092
 31
0.0
  0
LINE
  5
6E
330
36
100
AcDbEntity
  8
0
  6
Continuous
 62
     7
100
AcDbLine
 10
632.9906586398029
 20
816.835250252517
 30
0.0
 11
632.9906586398067
 21
992.9557210246924
 31
0.0
  0
LINE
  5
6F
330
36
100
AcDbEntity
  8
0
  6
Continuous
 62
     7
100
AcDbLine
 10
632.9906586397982
 20
586.0923545999972
 30
0.0
 11
632.9906586397995
 21
643.9679531740421
 31
0.0
  0
LINE
  5
70
330
36
100
AcDbEntity
  8
0
  6
Continuous
 62
     7
100
AcDbLine
 10
632.9906586397995
 20
643.9679531740421
 30
0.0
 11
632.990658639799
 21
743.0170967860721
 31
0.0
  0
LINE
  5
71
330
36
100
AcDbEntity
  8
0
  6
Continuous
 62
     7
100
AcDbLine
 10
1112.9906586398
 20
765.0851248889535
 30
0.0
 11
1112.990658639804
 21
816.835250252507
 31
0.0
  0
LINE
  5
72
330
36
100
AcDbEntity
  8
0
  6
Continuous
 62
     7
100
AcDbLine
 10
1112.990658639802
 20
764.723774650936
 30
0.0
 11
1112.9906586398
 21
765.0851248889535
 31
0.0
  0
LINE
  5
73
330
36
100
AcDbEntity
  8
0
  6
Continuous
 62
     7
100
AcDbLine
 10
1112.990658639804
 20
816.835250252507
 30
0.0
 11
1112.990658639808
 21
992.9557210246824
 31
0.0
  0
LINE
  5
74
330
36
100
AcDbEntity
  8
0
  6
Continuous
 62
     7
100
AcDbLine
 10
1112.990658639808
 20
992.9557210246824
 30
0.0
 11
1112.990658639808
 21
1006.130393776982
 31
0.0
  0
LINE
  5
75
330
36
100
AcDbEntity
  8
0
  6
Continuous
 62
     7
100
AcDbLine
 10
632.9906586398008
 20
743.3166941189056
 30
0.0
 11
632.9906586398008
 21
743.3205867811187
 31
0.0
  0
LINE
  5
76
330
36
100
AcDbEntity
  8
0
  6
Continuous
 62
     7
100
AcDbLine
 10
632.990658639799
 20
743.0170967860721
 30
0.0
 11
632.9906586398008
 21
743.3166941189056
 31
0.0
  0
LINE
  5
77
330
36
100
AcDbEntity
  8
0
  6
Continuous
 62
     7
100
AcDbLine
 10
632.9906586397995
 20
752.7177844548271
 30
0.0
 11
632.9906586397995
 21
752.7237811445941
 31
0.0
  0
LINE
  5
78
330
36
100
AcDbEntity
  8
0
  6
Continuous
 62
     7
100
AcDbLine
 10
632.9906586398008
 20
743.3205867811187
 30
0.0
 11
632.9906586397995
 21
752.7177844548271
 31
0.0
  0
LINE
  5
79
330
36
100
AcDbEntity
  8
0
  6
Continuous
 62
     7
100
AcDbLine
 10
632.9906586397995
 20
752.7237811445941
 30
0.0
 11
632.9906586397997
 21
764.7237746509488
 31
0.0
  0
LINE
  5
7A
330
36
100
AcDbEntity
  8
0
  6
Continuous
 62
     7
100
AcDbLine
 10
1112.990658639799
 20
564.2687261416052
 30
0.0
 11
1112.990658639799
 21
564.1890915303352
 31
0.0
  0
LINE
  5
7B
330
36
100
AcDbEntity
  8
0
  6
Continuous
 62
     7
100
AcDbLine
 10
1112.990658639799
 20
566.2813903765612
 30
0.0
 11
1112.990658639799
 21
564.2687261416052
 31
0.0
  0
LINE
  5
7C
330
36
100
AcDbEntity
  8
0
  6
Continuous
 62
     7
100
AcDbLine
 10
1112.990658639799
 20
586.092354599986
 30
0.0
 11
1112.990658639801
 21
643.9679531740319
 31
0.0
  0
LINE
  5
7D
330
36
100
AcDbEntity
  8
0
  6
Continuous
 62
     7
100
AcDbLine
 10
1112.990658639799
 20
583.3965249688051
 30
0.0
 11
1112.990658639799
 21
586.092354599986
 31
0.0
  0
LINE
  5
7E
330
36
100
AcDbEntity
  8
0
  6
Continuous
 62
     7
100
AcDbLine
 10
1112.990658639799
 20
575.5032071370881
 30
0.0
 11
1112.990658639799
 21
574.7525075736
 31
0.0
  0
LINE
  5
7F
330
36
100
AcDbEntity
  8
0
  6
Continuous
 62
     7
100
AcDbLine
 10
1112.990658639799
 20
566.4802701006281
 30
0.0
 11
1112.990658639799
 21
566.2813903765612
 31
0.0
  0
LINE
  5
80
330
36
100
AcDbEntity
  8
0
  6
Continuous
 62
     7
100
AcDbLine
 10
1112.990658639799
 20
574.7525075736
 30
0.0
 11
1112.990658639798
 21
569.14281458198
 31
0.0
  0
LINE
  5
81
330
36
100
AcDbEntity
  8
0
  6
Continuous
 62
     7
100
AcDbLine
 10
1112.990658639798
 20
569.14281458198
 30
0.0
 11
1112.990658639799
 21
566.4802701006281
 31
0.0
  0
LINE
  5
82
330
36
100
AcDbEntity
  8
0
  6
Continuous
 62
     7
100
AcDbLine
 10
1112.990658639799
 20
583.3965249688051
 30
0.0
 11
1112.990658639799
 21
575.5032071370881
 31
0.0
  0
LINE
  5
83
330
36
100
AcDbEntity
  8
0
  6
Continuous
 62
     7
100
AcDbLine
 10
1112.990658639802
 20
752.7177844548144
 30
0.0
 11
1112.990658639802
 21
752.7237811445812
 31
0.0
  0
LINE
  5
84
330
36
100
AcDbEntity
  8
0
  6
Continuous
 62
     7
100
AcDbLine
 10
1112.990658639802
 20
752.7237811445812
 30
0.0
 11
1112.990658639802
 21
764.723774650936
 31
0.0
  0
LINE
  5
85
330
36
100
AcDbEntity
  8
0
  6
Continuous
 62
     7
100
AcDbLine
 10
1112.990658639803
 20
743.3166941188928
 30
0.0
 11
1112.990658639803
 21
743.3205867811058
 31
0.0
  0
LINE
  5
86
330
36
100
AcDbEntity
  8
0
  6
Continuous
 62
     7
100
AcDbLine
 10
1112.990658639801
 20
743.0170967860593
 30
0.0
 11
1112.990658639803
 21
743.3166941188928
 31
0.0
  0
LINE
  5
87
330
36
100
AcDbEntity
  8
0
  6
Continuous
 62
     7
100
AcDbLine
 10
1112.990658639799
 20
740.0851248889535
 30
0.0
 11
1112.990658639801
 21
743.0170967860593
 31
0.0
  0
LINE
  5
88
330
36
100
AcDbEntity
  8
0
  6
Continuous
 62
     7
100
AcDbLine
 10
1112.990658639803
 20
743.3205867811058
 30
0.0
 11
1112.990658639802
 21
752.7177844548144
 31
0.0
  0
LINE
  5
89
330
36
100
AcDbEntity
  8
0
  6
Continuous
 62
     7
100
AcDbLine
 10
1112.990658639801
 20
643.9679531740319
 30
0.0
 11
1112.990658639799
 21
740.0851248889535
 31
0.0
  0
LINE
  5
8A
330
36
100
AcDbEntity
  8
0
  6
Continuous
 62
     7
100
AcDbLine
 10
632.9906586397983
 20
583.3965249688151
 30
0.0
 11
632.9906586397982
 21
586.0923545999972
 31
0.0
  0
LINE
  5
8B
330
36
100
AcDbEntity
  8
0
  6
Continuous
 62
     7
100
AcDbLine
 10
634.9906586397982
 20
583.3965249688151
 30
0.0
 11
632.9906586397983
 21
583.3965249688151
 31
0.0
  0
LINE
  5
8C
330
36
100
AcDbEntity
  8
0
  6
Continuous
 62
     7
100
AcDbLine
 10
632.990658639798
 20
566.4802701006372
 30
0.0
 11
632.9906586397979
 21
566.2813903765712
 31
0.0
  0
LINE
  5
8D
330
36
100
AcDbEntity
  8
0
  6
Continuous
 62
     7
100
AcDbLine
 10
632.9906586397995
 20
575.503207137092
 30
0.0
 11
632.9906586397995
 21
574.7525075736041
 31
0.0
  0
LINE
  5
8E
330
36
100
AcDbEntity
  8
0
  6
Continuous
 62
     7
100
AcDbLine
 10
632.9906586397999
 20
569.1428145819871
 30
0.0
 11
632.990658639798
 21
566.4802701006372
 31
0.0
  0
LINE
  5
8F
330
36
100
AcDbEntity
  8
0
  6
Continuous
 62
     7
100
AcDbLine
 10
632.9906586397995
 20
574.7525075736041
 30
0.0
 11
632.9906586397999
 21
569.1428145819871
 31
0.0
  0
LINE
  5
90
330
36
100
AcDbEntity
  8
0
  6
Continuous
 62
     7
100
AcDbLine
 10
632.9906586397983
 20
583.3965249688151
 30
0.0
 11
632.9906586397995
 21
575.503207137092
 31
0.0
  0
LINE
  5
91
330
36
100
AcDbEntity
  8
0
  6
Continuous
 62
     7
100
AcDbLine
 10
648.7663775657825
 20
587.677452410614
 30
0.0
 11
1097.214939713817
 21
587.677452410604
 31
0.0
  0
LINE
  5
92
330
36
100
AcDbEntity
  8
0
  6
Continuous
 62
     7
100
AcDbLine
 10
782.3881804936718
 20
591.5374327527061
 30
0.0
 11
963.5931367859297
 21
591.5374327527031
 31
0.0
  0
LINE
  5
93
330
36
100
AcDbEntity
  8
0
  6
Continuous
 62
     7
100
AcDbLine
 10
1112.990658639799
 20
583.3965249688051
 30
0.0
 11
1112.990658639799
 21
586.092354599986
 31
0.0
  0
LINE
  5
94
330
36
100
AcDbEntity
  8
0
  6
Continuous
 62
     7
100
AcDbLine
 10
1110.990658639798
 20
583.3965249688051
 30
0.0
 11
1112.990658639799
 21
583.3965249688051
 31
0.0
  0
LINE
  5
95
330
36
100
AcDbEntity
  8
0
  6
Continuous
 62
     7
100
AcDbLine
 10
1112.990658639799
 20
575.5032071370881
 30
0.0
 11
1112.990658639799
 21
574.7525075736
 31
0.0
  0
LINE
  5
96
330
36
100
AcDbEntity
  8
0
  6
Continuous
 62
     7
100
AcDbLine
 10
1112.990658639799
 20
566.4802701006281
 30
0.0
 11
1112.990658639799
 21
566.2813903765612
 31
0.0
  0
LINE
  5
97
330
36
100
AcDbEntity
  8
0
  6
Continuous
 62
     7
100
AcDbLine
 10
1112.990658639799
 20
574.7525075736
 30
0.0
 11
1112.990658639798
 21
569.14281458198
 31
0.0
  0
LINE
  5
98
330
36
100
AcDbEntity
  8
0
  6
Continuous
 62
     7
100
AcDbLine
 10
1112.990658639798
 20
569.14281458198
 30
0.0
 11
1112.990658639799
 21
566.4802701006281
 31
0.0
  0
LINE
  5
99
330
36
100
AcDbEntity
  8
0
  6
Continuous
 62
     7
100
AcDbLine
 10
1112.990658639799
 20
583.3965249688051
 30
0.0
 11
1112.990658639799
 21
575.5032071370881
 31
0.0
  0
LINE
  5
9A
330
36
100
AcDbEntity
  8
0
  6
Continuous
 62
     7
100
AcDbLine
 10
1069.990658639798
 20
532.4786109358252
 30
0.0
 11
1110.990658639798
 21
583.3965249688051
 31
0.0
  0
LINE
  5
9B
330
36
100
AcDbEntity
  8
0
  6
Continuous
 62
     7
100
AcDbLine
 10
675.9906586397972
 20
532.4786109358352
 30
0.0
 11
634.9906586397982
 21
583.3965249688151
 31
0.0
  0
LINE
  5
9C
330
36
100
AcDbEntity
  8
0
  6
Continuous
 62
     7
100
AcDbLine
 10
375.9651026854995
 20
740.9599848122462
 30
0.0
 11
375.965102685498
 21
698.1964703811239
 31
0.0
  0
LINE
  5
9D
330
36
100
AcDbEntity
  8
0
  6
Continuous
 62
     7
100
AcDbLine
 10
375.9651026855001
 20
583.3965245791533
 30
0.0
 11
375.9651026855001
 21
586.0923542103354
 31
0.0
  0
LINE
  5
9E
330
36
100
AcDbEntity
  8
0
  6
Continuous
 62
     7
100
AcDbLine
 10
375.965102685499
 20
575.5032067474303
 30
0.0
 11
375.9651026855001
 21
583.3965245791533
 31
0.0
  0
LINE
  5
9F
330
36
100
AcDbEntity
  8
0
  6
Continuous
 62
     7
100
AcDbLine
 10
375.965102685499
 20
569.8935137558142
 30
0.0
 11
375.965102685499
 21
575.5032067474303
 31
0.0
  0
LINE
  5
A0
330
36
100
AcDbEntity
  8
0
  6
Continuous
 62
     7
100
AcDbLine
 10
375.9651026855005
 20
564.2687257519534
 30
0.0
 11
375.9651026855008
 21
564.3791728865566
 31
0.0
  0
LINE
  5
A1
330
36
100
AcDbEntity
  8
0
  6
Continuous
 62
     7
100
AcDbLine
 10
375.9651026854986
 20
569.1428141923254
 30
0.0
 11
375.965102685499
 21
569.8935137558142
 31
0.0
  0
LINE
  5
A2
330
36
100
AcDbEntity
  8
0
  6
Continuous
 62
     7
100
AcDbLine
 10
375.9651026855005
 20
568.7776379413095
 30
0.0
 11
375.9651026854986
 21
569.1428141923254
 31
0.0
  0
LINE
  5
A3
330
36
100
AcDbEntity
  8
0
  6
Continuous
 62
     7
100
AcDbLine
 10
373.9651026855007
 20
564.2687257519534
 30
0.0
 11
375.9651026855005
 21
564.2687257519534
 31
0.0
  0
LINE
  5
A4
330
36
100
AcDbEntity
  8
0
  6
Continuous
 62
     7
100
AcDbLine
 10
375.9651026855008
 20
564.3791728865566
 30
0.0
 11
375.9651026855005
 21
566.2813899869094
 31
0.0
  0
LINE
  5
A5
330
36
100
AcDbEntity
  8
0
  6
Continuous
 62
     7
100
AcDbLine
 10
375.9651026855005
 20
566.2813899869094
 30
0.0
 11
375.9651026855005
 21
568.7776379413095
 31
0.0
  0
LINE
  5
A6
330
36
100
AcDbEntity
  8
0
  6
Continuous
 62
     7
100
AcDbLine
 10
375.9651026855001
 20
586.0923542103354
 30
0.0
 11
375.965102685498
 21
698.1964703811239
 31
0.0
  0
LINE
  5
A7
330
36
100
AcDbEntity
  8
0
  6
Continuous
 62
     7
100
AcDbLine
 10
-104.0348973145006
 20
740.0851244992916
 30
0.0
 11
-104.0348973145035
 21
698.1964702982841
 31
0.0
  0
LINE
  5
A8
330
36
100
AcDbEntity
  8
0
  6
Continuous
 62
     7
100
AcDbLine
 10
-104.0348973145096
 20
990.7195527001375
 30
0.0
 11
-104.0348973145059
 21
813.5661862041129
 31
0.0
  0
LINE
  5
A9
330
36
100
AcDbEntity
  8
0
  6
Continuous
 62
     7
100
AcDbLine
 10
-104.0348973145054
 20
790.879815303825
 30
0.0
 11
-104.0348973145013
 21
765.0851244992916
 31
0.0
  0
LINE
  5
AA
330
36
100
AcDbEntity
  8
0
  6
Continuous
 62
     7
100
AcDbLine
 10
-104.0348973145059
 20
813.5661862041129
 30
0.0
 11
-104.0348973145054
 21
790.879815303825
 31
0.0
  0
LINE
  5
AB
330
36
100
AcDbEntity
  8
0
  6
Continuous
 62
     7
100
AcDbLine
 10
-104.0348973145099
 20
1006.13039338732
 30
0.0
 11
-104.0348973145096
 21
990.7195527001375
 31
0.0
  0
LINE
  5
AC
330
36
100
AcDbEntity
  8
0
  6
Continuous
 62
     7
100
AcDbLine
 10
-93.16360452252357
 20
555.9045769400851
 30
0.0
 11
-93.21227222526886
 21
555.9358696297198
 31
0.0
  0
LINE
  5
AD
330
36
100
AcDbEntity
  8
0
  6
Continuous
 62
     7
100
AcDbLine
 10
375.9651026854914
 20
990.7195527001469
 30
0.0
 11
375.9651026854951
 21
813.5661862041222
 31
0.0
  0
LINE
  5
AE
330
36
100
AcDbEntity
  8
0
  6
Continuous
 62
     7
100
AcDbLine
 10
375.9651026854913
 20
1006.13039338733
 30
0.0
 11
375.9651026854914
 21
990.7195527001469
 31
0.0
  0
LINE
  5
AF
330
36
100
AcDbEntity
  8
0
  6
Continuous
 62
     7
100
AcDbLine
 10
375.9651026854951
 20
813.5661862041222
 30
0.0
 11
375.9651026854956
 21
790.8773667101734
 31
0.0
  0
LINE
  5
B0
330
36
100
AcDbEntity
  8
0
  6
Continuous
 62
     7
100
AcDbLine
 10
-104.0348973145048
 20
743.316693729231
 30
0.0
 11
-104.034897314503
 21
740.9599848122334
 31
0.0
  0
LINE
  5
B1
330
36
100
AcDbEntity
  8
0
  6
Continuous
 62
     7
100
AcDbLine
 10
-104.0348973145033
 20
752.7237807549195
 30
0.0
 11
-104.0348973145048
 21
743.316693729231
 31
0.0
  0
LINE
  5
B2
330
36
100
AcDbEntity
  8
0
  6
Continuous
 62
     7
100
AcDbLine
 10
-104.0348973145036
 20
764.7224615643977
 30
0.0
 11
-104.0348973145053
 21
761.4920195716456
 31
0.0
  0
LINE
  5
B3
330
36
100
AcDbEntity
  8
0
  6
Continuous
 62
     7
100
AcDbLine
 10
-104.0348973145053
 20
761.4920195716456
 30
0.0
 11
-104.0348973145033
 21
752.7237807549195
 31
0.0
  0
LINE
  5
B4
330
36
100
AcDbEntity
  8
0
  6
Continuous
 62
     7
100
AcDbLine
 10
-104.0348973145036
 20
764.7237742612742
 30
0.0
 11
-104.0348973145036
 21
764.7224615643977
 31
0.0
  0
LINE
  5
B5
330
36
100
AcDbEntity
  8
0
  6
Continuous
 62
     7
100
AcDbLine
 10
-104.0348973145013
 20
765.0851244992916
 30
0.0
 11
-104.0348973145036
 21
764.7237742612742
 31
0.0
  0
LINE
  5
B6
330
36
100
AcDbEntity
  8
0
  6
Continuous
 62
     7
100
AcDbLine
 10
-104.034897314503
 20
740.9599848122334
 30
0.0
 11
-104.0348973145006
 21
740.0851244992916
 31
0.0
  0
LINE
  5
B7
330
36
100
AcDbEntity
  8
0
  6
Continuous
 62
     7
100
AcDbLine
 10
375.9651026854987
 20
764.7237742612872
 30
0.0
 11
375.9651026854987
 21
764.7224615644105
 31
0.0
  0
LINE
  5
B8
330
36
100
AcDbEntity
  8
0
  6
Continuous
 62
     7
100
AcDbLine
 10
375.9651026854971
 20
761.4920195716584
 30
0.0
 11
375.965102685499
 21
752.7237807549324
 31
0.0
  0
LINE
  5
B9
330
36
100
AcDbEntity
  8
0
  6
Continuous
 62
     7
100
AcDbLine
 10
375.9651026854976
 20
743.3166937292439
 30
0.0
 11
375.9651026854995
 21
740.9599848122462
 31
0.0
  0
LINE
  5
BA
330
36
100
AcDbEntity
  8
0
  6
Continuous
 62
     7
100
AcDbLine
 10
375.9651026854987
 20
764.7224615644105
 30
0.0
 11
375.9651026854971
 21
761.4920195716584
 31
0.0
  0
LINE
  5
BB
330
36
100
AcDbEntity
  8
0
  6
Continuous
 62
     7
100
AcDbLine
 10
375.965102685499
 20
752.7237807549324
 30
0.0
 11
375.9651026854976
 21
743.3166937292439
 31
0.0
  0
LINE
  5
BC
330
36
100
AcDbEntity
  8
0
  6
Continuous
 62
     7
100
AcDbLine
 10
375.9651026854956
 20
790.8773667101734
 30
0.0
 11
375.9651026854987
 21
764.7237742612872
 31
0.0
  0
LINE
  5
BD
330
36
100
AcDbEntity
  8
0
  6
Continuous
 62
     7
100
AcDbLine
 10
-104.0348973145002
 20
583.3965245791432
 30
0.0
 11
-104.0348973145007
 21
586.0923542103244
 31
0.0
  0
LINE
  5
BE
330
36
100
AcDbEntity
  8
0
  6
Continuous
 62
     7
100
AcDbLine
 10
-104.0348973144995
 20
569.1428141923184
 30
0.0
 11
-104.0348973145008
 21
569.8935137558083
 31
0.0
  0
LINE
  5
BF
330
36
100
AcDbEntity
  8
0
  6
Continuous
 62
     7
100
AcDbLine
 10
-104.0348973145008
 20
569.8935137558083
 30
0.0
 11
-104.034897314501
 21
575.5032067474268
 31
0.0
  0
LINE
  5
C0
330
36
100
AcDbEntity
  8
0
  6
Continuous
 62
     7
100
AcDbLine
 10
-104.0348973145004
 20
568.7776379412984
 30
0.0
 11
-104.0348973144995
 21
569.1428141923184
 31
0.0
  0
LINE
  5
C1
330
36
100
AcDbEntity
  8
0
  6
Continuous
 62
     7
100
AcDbLine
 10
-104.034897314501
 20
575.5032067474268
 30
0.0
 11
-104.0348973145002
 21
583.3965245791432
 31
0.0
  0
LINE
  5
C2
330
36
100
AcDbEntity
  8
0
  6
Continuous
 62
     7
100
AcDbLine
 10
-104.0348973145007
 20
586.0923542103244
 30
0.0
 11
-104.0348973145035
 21
698.1964702982841
 31
0.0
  0
LINE
  5
C3
330
36
100
AcDbEntity
  8
0
  6
Continuous
 62
     7
100
AcDbLine
 10
-104.0348973145002
 20
564.2687257519444
 30
0.0
 11
-104.0348973145003
 21
566.2813899868995
 31
0.0
  0
LINE
  5
C4
330
36
100
AcDbEntity
  8
0
  6
Continuous
 62
     7
100
AcDbLine
 10
-104.0348973145003
 20
566.2813899868995
 30
0.0
 11
-104.0348973145004
 21
568.7776379412984
 31
0.0
  0
LINE
  5
C5
330
36
100
AcDbEntity
  8
0
  6
Continuous
 62
     7
100
AcDbLine
 10
-104.0348973145007
 20
564.1890911406731
 30
0.0
 11
-104.0348973145002
 21
564.2687257519444
 31
0.0
  0
LINE
  5
C6
330
36
100
AcDbEntity
  8
0
  6
Continuous
 62
     7
100
AcDbLine
 10
375.9651026855001
 20
583.3965245791533
 30
0.0
 11
375.9651026855001
 21
586.0923542103354
 31
0.0
  0
LINE
  5
C7
330
36
100
AcDbEntity
  8
0
  6
Continuous
 62
     7
100
AcDbLine
 10
375.965102685499
 20
575.5032067474303
 30
0.0
 11
375.9651026855001
 21
583.3965245791533
 31
0.0
  0
LINE
  5
C8
330
36
100
AcDbEntity
  8
0
  6
Continuous
 62
     7
100
AcDbLine
 10
375.965102685499
 20
569.8935137558142
 30
0.0
 11
375.965102685499
 21
575.5032067474303
 31
0.0
  0
LINE
  5
C9
330
36
100
AcDbEntity
  8
0
  6
Continuous
 62
     7
100
AcDbLine
 10
375.9651026854986
 20
569.1428141923254
 30
0.0
 11
375.965102685499
 21
569.8935137558142
 31
0.0
  0
LINE
  5
CA
330
36
100
AcDbEntity
  8
0
  6
Continuous
 62
     7
100
AcDbLine
 10
375.9651026855005
 20
568.7776379413095
 30
0.0
 11
375.9651026854986
 21
569.1428141923254
 31
0.0
  0
LINE
  5
CB
330
36
100
AcDbEntity
  8
0
  6
Continuous
 62
     7
100
AcDbLine
 10
375.9651026855005
 20
566.2813899869094
 30
0.0
 11
375.9651026855005
 21
568.7776379413095
 31
0.0
  0
LINE
  5
CC
330
36
100
AcDbEntity
  8
0
  6
Continuous
 62
     7
100
AcDbLine
 10
-104.0348973145002
 20
583.3965245791432
 30
0.0
 11
-104.0348973145007
 21
586.0923542103244
 31
0.0
  0
LINE
  5
CD
330
36
100
AcDbEntity
  8
0
  6
Continuous
 62
     7
100
AcDbLine
 10
-104.0348973144995
 20
569.1428141923184
 30
0.0
 11
-104.0348973145008
 21
569.8935137558083
 31
0.0
  0
LINE
  5
CE
330
36
100
AcDbEntity
  8
0
  6
Continuous
 62
     7
100
AcDbLine
 10
-104.0348973145008
 20
569.8935137558083
 30
0.0
 11
-104.034897314501
 21
575.5032067474268
 31
0.0
  0
LINE
  5
CF
330
36
100
AcDbEntity
  8
0
  6
Continuous
 62
     7
100
AcDbLine
 10
-104.0348973145004
 20
568.7776379412984
 30
0.0
 11
-104.0348973144995
 21
569.1428141923184
 31
0.0
  0
LINE
  5
D0
330
36
100
AcDbEntity
  8
0
  6
Continuous
 62
     7
100
AcDbLine
 10
-104.034897314501
 20
575.5032067474268
 30
0.0
 11
-104.0348973145002
 21
583.3965245791432
 31
0.0
  0
LINE
  5
D1
330
36
100
AcDbEntity
  8
0
  6
Continuous
 62
     7
100
AcDbLine
 10
-104.0348973145003
 20
566.2813899868995
 30
0.0
 11
-104.0348973145004
 21
568.7776379412984
 31
0.0
  0
LINE
  5
D2
330
36
100
AcDbEntity
  8
0
  6
Continuous
 62
     7
100
AcDbLine
 10
-711.2484361881881
 20
566.4802697109672
 30
0.0
 11
-711.2609205877075
 21
566.4797786611391
 31
0.0
  0
LINE
  5
D3
330
36
100
AcDbEntity
  8
0
  6
Continuous
 62
     7
100
AcDbLine
 10
-711.2609205877075
 20
566.4797786611391
 30
0.0
 11
-765.5451869153798
 21
564.3446115176071
 31
0.0
  0
LINE
  5
D4
330
36
100
AcDbEntity
  8
0
  6
Continuous
 62
     7
100
AcDbLine
 10
-771.3678994487184
 20
512.881829395903
 30
0.0
 11
-770.3803195716394
 21
512.807482029423
 31
0.0
  0
LINE
  5
D5
330
36
100
AcDbEntity
  8
0
  6
Continuous
 62
     7
100
AcDbLine
 10
-771.3678994487184
 20
512.881829395903
 30
0.0
 11
-770.3774383998803
 21
512.845753556534
 31
0.0
  0
LINE
  5
D6
330
36
100
AcDbEntity
  8
0
  6
Continuous
 62
     7
100
AcDbLine
 10
-770.2899052054844
 20
512.8355953299401
 30
0.0
 11
-771.3678994487184
 21
512.881829395903
 31
0.0
  0
LINE
  5
D7
330
36
100
AcDbEntity
  8
0
  6
Continuous
 62
     7
100
AcDbLine
 10
-770.2918088473948
 20
512.8008187311871
 30
0.0
 11
-770.3803195716394
 21
512.807482029423
 31
0.0
  0
LINE
  5
D8
330
36
100
AcDbEntity
  8
0
  6
Continuous
 62
     7
100
AcDbLine
 10
-769.4921973260521
 20
564.3791728865481
 30
0.0
 11
-767.8662380822401
 21
609.019833398983
 31
0.0
  0
LINE
  5
D9
330
36
100
AcDbEntity
  8
0
  6
Continuous
 62
     7
100
AcDbLine
 10
-771.3678994487184
 20
512.881829395903
 30
0.0
 11
-769.4937824753922
 21
564.3356526606719
 31
0.0
  0
LINE
  5
DA
330
36
100
AcDbEntity
  8
0
  6
Continuous
 62
     7
100
AcDbLine
 10
-767.8662380822401
 20
609.019833398983
 30
0.0
 11
-764.6181325307366
 21
698.1964703811154
 31
0.0
  0
LINE
  5
DB
330
36
100
AcDbEntity
  8
0
  6
Continuous
 62
     7
100
AcDbLine
 10
-769.4937824753922
 20
564.3356526606719
 30
0.0
 11
-769.4921973260521
 21
564.3791728865481
 31
0.0
  0
LINE
  5
DC
330
36
100
AcDbEntity
  8
0
  6
Continuous
 62
     7
100
AcDbLine
 10
-769.4937824753922
 20
564.3356526606719
 30
0.0
 11
-768.4069548699308
 21
564.3197676227571
 31
0.0
  0
LINE
  5
DD
330
36
100
AcDbEntity
  8
0
  6
Continuous
 62
     7
100
AcDbLine
 10
-768.4069548699308
 20
564.3197676227571
 30
0.0
 11
-769.4921973260521
 21
564.3791728865481
 31
0.0
  0
LINE
  5
DE
330
36
100
AcDbEntity
  8
0
  6
Continuous
 62
     7
100
AcDbLine
 10
-767.4744986915755
 20
564.268725751936
 30
0.0
 11
-768.4069548699308
 21
564.3197676227571
 31
0.0
  0
LINE
  5
DF
330
36
100
AcDbEntity
  8
0
  6
Continuous
 62
     7
100
AcDbLine
 10
-765.5451869153798
 20
564.3446115176071
 30
0.0
 11
-767.4744986915755
 21
564.268725751936
 31
0.0
  0
LINE
  5
E0
330
36
100
AcDbEntity
  8
0
  6
Continuous
 62
     7
100
AcDbLine
 10
-711.3045419004053
 20
566.485570818616
 30
0.0
 11
-711.2486121557779
 21
566.4877707074961
 31
0.0
  0
LINE
  5
E1
330
36
100
AcDbEntity
  8
0
  6
Continuous
 62
     7
100
AcDbLine
 10
-711.3045419004053
 20
566.485570818616
 30
0.0
 11
-712.0476020722017
 21
566.456343976811
 31
0.0
  0
LINE
  5
E2
330
36
100
AcDbEntity
  8
0
  6
Continuous
 62
     7
100
AcDbLine
 10
-712.0476020722017
 20
566.456343976811
 30
0.0
 11
-714.6728548852644
 21
566.3530847098241
 31
0.0
  0
LINE
  5
E3
330
36
100
AcDbEntity
  8
0
  6
Continuous
 62
     7
100
AcDbLine
 10
-716.4956140289072
 20
566.2813899869011
 30
0.0
 11
-714.6728548852644
 21
566.3530847098241
 31
0.0
  0
LINE
  5
E4
330
36
100
AcDbEntity
  8
0
  6
Continuous
 62
     7
100
AcDbLine
 10
-710.2862283982501
 20
566.5256242204359
 30
0.0
 11
-710.236171004183
 21
566.527593131694
 31
0.0
  0
LINE
  5
E5
330
36
100
AcDbEntity
  8
0
  6
Continuous
 62
     7
100
AcDbLine
 10
-710.3497256074235
 20
566.5231266799251
 30
0.0
 11
-710.2862283982501
 21
566.5256242204359
 31
0.0
  0
LINE
  5
E6
330
36
100
AcDbEntity
  8
0
  6
Continuous
 62
     7
100
AcDbLine
 10
-711.2486121557779
 20
566.4877707074961
 30
0.0
 11
-710.3497256074235
 21
566.5231266799251
 31
0.0
  0
LINE
  5
E7
330
36
100
AcDbEntity
  8
0
  6
Continuous
 62
     7
100
AcDbLine
 10
-280.1713402022911
 20
532.4786105461651
 30
0.0
 11
-281.1713402022876
 21
532.4786105461551
 31
0.0
  0
LINE
  5
E8
330
36
100
AcDbEntity
  8
0
  6
Continuous
 62
     7
100
AcDbLine
 10
-280.1713402022911
 20
532.4786105461651
 30
0.0
 11
-280.1713402022908
 21
583.3965245791451
 31
0.0
  0
LINE
  5
E9
330
36
100
AcDbEntity
  8
0
  6
Continuous
 62
     7
100
AcDbLine
 10
-283.6698405818516
 20
583.3057587930621
 30
0.0
 11
-283.6697033255135
 21
583.305764191776
 31
0.0
  0
LINE
  5
EA
330
36
100
AcDbEntity
  8
0
  6
Continuous
 62
     7
100
AcDbLine
 10
-280.1713402022909
 20
586.0923542103271
 30
0.0
 11
-280.1713402022908
 21
583.3965245791451
 31
0.0
  0
LINE
  5
EB
330
36
100
AcDbEntity
  8
0
  6
Continuous
 62
     7
100
AcDbLine
 10
-280.1713402022984
 20
587.677452020944
 30
0.0
 11
-280.1713402022909
 21
586.0923542103271
 31
0.0
  0
LINE
  5
EC
330
36
100
AcDbEntity
  8
0
  6
Continuous
 62
     7
100
AcDbLine
 10
597.990658639799
 20
743.017096786073
 30
0.0
 11
597.9906586397997
 21
764.7237746509499
 31
0.0
  0
LINE
  5
ED
330
36
100
AcDbEntity
  8
0
  6
Continuous
 62
     7
100
AcDbLine
 10
597.9906586397997
 20
764.7237746509499
 30
0.0
 11
632.9906586397997
 21
764.7237746509488
 31
0.0
  0
LINE
  5
EE
330
36
100
AcDbEntity
  8
0
  6
Continuous
 62
     7
100
AcDbLine
 10
632.9906586397979
 20
566.2813903765712
 30
0.0
 11
632.9906586397979
 21
564.2687261416152
 31
0.0
  0
LINE
  5
EF
330
36
100
AcDbEntity
  8
0
  6
Continuous
 62
     7
100
AcDbLine
 10
632.9906586397983
 20
583.3965249688151
 30
0.0
 11
632.9906586397982
 21
586.0923545999972
 31
0.0
  0
LINE
  5
F0
330
36
100
AcDbEntity
  8
0
  6
Continuous
 62
     7
100
AcDbLine
 10
632.990658639798
 20
566.4802701006372
 30
0.0
 11
632.9906586397979
 21
566.2813903765712
 31
0.0
  0
LINE
  5
F1
330
36
100
AcDbEntity
  8
0
  6
Continuous
 62
     7
100
AcDbLine
 10
632.9906586397995
 20
575.503207137092
 30
0.0
 11
632.9906586397995
 21
574.7525075736041
 31
0.0
  0
LINE
  5
F2
330
36
100
AcDbEntity
  8
0
  6
Continuous
 62
     7
100
AcDbLine
 10
632.9906586397999
 20
569.1428145819871
 30
0.0
 11
632.990658639798
 21
566.4802701006372
 31
0.0
  0
LINE
  5
F3
330
36
100
AcDbEntity
  8
0
  6
Continuous
 62
     7
100
AcDbLine
 10
632.9906586397995
 20
574.7525075736041
 30
0.0
 11
632.9906586397999
 21
569.1428145819871
 31
0.0
  0
LINE
  5
F4
330
36
100
AcDbEntity
  8
0
  6
Continuous
 62
     7
100
AcDbLine
 10
632.9906586397983
 20
583.3965249688151
 30
0.0
 11
632.9906586397995
 21
575.503207137092
 31
0.0
  0
LINE
  5
F5
330
36
100
AcDbEntity
  8
0
  6
Continuous
 62
     7
100
AcDbLine
 10
632.9906586397933
 20
537.3451578161671
 30
0.0
 11
632.9906586397933
 21
536.716883808057
 31
0.0
  0
LINE
  5
F6
330
36
100
AcDbEntity
  8
0
  6
Continuous
 62
     7
100
AcDbLine
 10
632.9906586397933
 20
538.9134120370782
 30
0.0
 11
632.9906586397933
 21
537.3451578161671
 31
0.0
  0
LINE
  5
F7
330
36
100
AcDbEntity
  8
0
  6
Continuous
 62
     7
100
AcDbLine
 10
632.9906586397979
 20
564.2687261416152
 30
0.0
 11
632.9906586397933
 21
538.9134120370782
 31
0.0
  0
LINE
  5
F8
330
36
100
AcDbEntity
  8
0
  6
Continuous
 62
     7
100
AcDbLine
 10
632.9906586397982
 20
586.0923545999972
 30
0.0
 11
632.9906586397995
 21
643.9679531740421
 31
0.0
  0
LINE
  5
F9
330
36
100
AcDbEntity
  8
0
  6
Continuous
 62
     7
100
AcDbLine
 10
632.9906586397995
 20
643.9679531740421
 30
0.0
 11
632.990658639799
 21
743.0170967860721
 31
0.0
  0
LINE
  5
FA
330
36
100
AcDbEntity
  8
0
  6
Continuous
 62
     7
100
AcDbLine
 10
597.9906586397933
 20
538.91341203708
 30
0.0
 11
597.990658639799
 21
743.017096786073
 31
0.0
  0
LINE
  5
FB
330
36
100
AcDbEntity
  8
0
  6
Continuous
 62
     7
100
AcDbLine
 10
632.9906586398008
 20
743.3166941189056
 30
0.0
 11
632.9906586398008
 21
743.3205867811187
 31
0.0
  0
LINE
  5
FC
330
36
100
AcDbEntity
  8
0
  6
Continuous
 62
     7
100
AcDbLine
 10
632.990658639799
 20
743.0170967860721
 30
0.0
 11
632.9906586398008
 21
743.3166941189056
 31
0.0
  0
LINE
  5
FD
330
36
100
AcDbEntity
  8
0
  6
Continuous
 62
     7
100
AcDbLine
 10
632.9906586397995
 20
752.7177844548271
 30
0.0
 11
632.9906586397995
 21
752.7237811445941
 31
0.0
  0
LINE
  5
FE
330
36
100
AcDbEntity
  8
0
  6
Continuous
 62
     7
100
AcDbLine
 10
632.9906586398008
 20
743.3205867811187
 30
0.0
 11
632.9906586397995
 21
752.7177844548271
 31
0.0
  0
LINE
  5
FF
330
36
100
AcDbEntity
  8
0
  6
Continuous
 62
     7
100
AcDbLine
 10
632.9906586397995
 20
752.7237811445941
 30
0.0
 11
632.9906586397997
 21
764.7237746509488
 31
0.0
  0
LINE
  5
100
330
36
100
AcDbEntity
  8
0
  6
Continuous
 62
     7
100
AcDbLine
 10
597.9906586397933
 20
536.7157248345441
 30
0.0
 11
597.9906586397933
 21
536.7168838080581
 31
0.0
  0
LINE
  5
101
330
36
100
AcDbEntity
  8
0
  6
Continuous
 62
     7
100
AcDbLine
 10
597.9906586397933
 20
537.3451578161671
 30
0.0
 11
597.9906586397933
 21
538.91341203708
 31
0.0
  0
LINE
  5
102
330
36
100
AcDbEntity
  8
0
  6
Continuous
 62
     7
100
AcDbLine
 10
597.9906586397933
 20
536.7168838080581
 30
0.0
 11
597.9906586397933
 21
537.3451578161671
 31
0.0
  0
LINE
  5
103
330
36
100
AcDbEntity
  8
0
  6
Continuous
 62
     7
100
AcDbLine
 10
597.9906586397933
 20
536.7157248345441
 30
0.0
 11
632.9906586397933
 21
536.7157248345432
 31
0.0
  0
LINE
  5
104
330
36
100
AcDbEntity
  8
0
  6
Continuous
 62
     7
100
AcDbLine
 10
632.9906586397933
 20
536.716883808057
 30
0.0
 11
632.9906586397933
 21
536.7157248345432
 31
0.0
  0
LINE
  5
105
330
36
100
AcDbEntity
  8
0
  6
Continuous
 62
     7
100
AcDbLine
 10
1147.990658639801
 20
743.0170967860582
 30
0.0
 11
1147.990658639802
 21
764.7237746509351
 31
0.0
  0
LINE
  5
106
330
36
100
AcDbEntity
  8
0
  6
Continuous
 62
     7
100
AcDbLine
 10
1147.990658639802
 20
764.7237746509351
 30
0.0
 11
1112.990658639802
 21
764.723774650936
 31
0.0
  0
LINE
  5
107
330
36
100
AcDbEntity
  8
0
  6
Continuous
 62
     7
100
AcDbLine
 10
1147.990658639796
 20
536.7157248345291
 30
0.0
 11
1147.990658639796
 21
536.7168838080431
 31
0.0
  0
LINE
  5
108
330
36
100
AcDbEntity
  8
0
  6
Continuous
 62
     7
100
AcDbLine
 10
1147.990658639796
 20
536.7168838080431
 30
0.0
 11
1147.990658639796
 21
537.345157816153
 31
0.0
  0
LINE
  5
109
330
36
100
AcDbEntity
  8
0
  6
Continuous
 62
     7
100
AcDbLine
 10
1147.990658639796
 20
537.345157816153
 30
0.0
 11
1147.990658639796
 21
538.9134120370652
 31
0.0
  0
LINE
  5
10A
330
36
100
AcDbEntity
  8
0
  6
Continuous
 62
     7
100
AcDbLine
 10
1147.990658639796
 20
538.9134120370652
 30
0.0
 11
1147.990658639801
 21
743.0170967860582
 31
0.0
  0
LINE
  5
10B
330
36
100
AcDbEntity
  8
0
  6
Continuous
 62
     7
100
AcDbLine
 10
1112.990658639796
 20
538.9134120370661
 30
0.0
 11
1112.990658639796
 21
537.3451578161541
 31
0.0
  0
LINE
  5
10C
330
36
100
AcDbEntity
  8
0
  6
Continuous
 62
     7
100
AcDbLine
 10
1112.990658639796
 20
537.3451578161541
 30
0.0
 11
1112.990658639796
 21
536.716883808044
 31
0.0
  0
LINE
  5
10D
330
36
100
AcDbEntity
  8
0
  6
Continuous
 62
     7
100
AcDbLine
 10
1112.990658639799
 20
564.1890915303352
 30
0.0
 11
1112.990658639796
 21
538.9134120370661
 31
0.0
  0
LINE
  5
10E
330
36
100
AcDbEntity
  8
0
  6
Continuous
 62
     7
100
AcDbLine
 10
1112.990658639799
 20
564.2687261416052
 30
0.0
 11
1112.990658639799
 21
564.1890915303352
 31
0.0
  0
LINE
  5
10F
330
36
100
AcDbEntity
  8
0
  6
Continuous
 62
     7
100
AcDbLine
 10
1112.990658639796
 20
536.716883808044
 30
0.0
 11
1112.990658639796
 21
536.7157248345302
 31
0.0
  0
LINE
  5
110
330
36
100
AcDbEntity
  8
0
  6
Continuous
 62
     7
100
AcDbLine
 10
1112.990658639799
 20
566.2813903765612
 30
0.0
 11
1112.990658639799
 21
564.2687261416052
 31
0.0
  0
LINE
  5
111
330
36
100
AcDbEntity
  8
0
  6
Continuous
 62
     7
100
AcDbLine
 10
1112.990658639799
 20
586.092354599986
 30
0.0
 11
1112.990658639801
 21
643.9679531740319
 31
0.0
  0
LINE
  5
112
330
36
100
AcDbEntity
  8
0
  6
Continuous
 62
     7
100
AcDbLine
 10
1112.990658639799
 20
583.3965249688051
 30
0.0
 11
1112.990658639799
 21
586.092354599986
 31
0.0
  0
LINE
  5
113
330
36
100
AcDbEntity
  8
0
  6
Continuous
 62
     7
100
AcDbLine
 10
1112.990658639799
 20
575.5032071370881
 30
0.0
 11
1112.990658639799
 21
574.7525075736
 31
0.0
  0
LINE
  5
114
330
36
100
AcDbEntity
  8
0
  6
Continuous
 62
     7
100
AcDbLine
 10
1112.990658639799
 20
566.4802701006281
 30
0.0
 11
1112.990658639799
 21
566.2813903765612
 31
0.0
  0
LINE
  5
115
330
36
100
AcDbEntity
  8
0
  6
Continuous
 62
     7
100
AcDbLine
 10
1112.990658639799
 20
574.7525075736
 30
0.0
 11
1112.990658639798
 21
569.14281458198
 31
0.0
  0
LINE
  5
116
330
36
100
AcDbEntity
  8
0
  6
Continuous
 62
     7
100
AcDbLine
 10
1112.990658639798
 20
569.14281458198
 30
0.0
 11
1112.990658639799
 21
566.4802701006281
 31
0.0
  0
LINE
  5
117
330
36
100
AcDbEntity
  8
0
  6
Continuous
 62
     7
100
AcDbLine
 10
1112.990658639799
 20
583.3965249688051
 30
0.0
 11
1112.990658639799
 21
575.5032071370881
 31
0.0
  0
LINE
  5
118
330
36
100
AcDbEntity
  8
0
  6
Continuous
 62
     7
100
AcDbLine
 10
1112.990658639802
 20
752.7177844548144
 30
0.0
 11
1112.990658639802
 21
752.7237811445812
 31
0.0
  0
LINE
  5
119
330
36
100
AcDbEntity
  8
0
  6
Continuous
 62
     7
100
AcDbLine
 10
1112.990658639802
 20
752.7237811445812
 30
0.0
 11
1112.990658639802
 21
764.723774650936
 31
0.0
  0
LINE
  5
11A
330
36
100
AcDbEntity
  8
0
  6
Continuous
 62
     7
100
AcDbLine
 10
1112.990658639803
 20
743.3166941188928
 30
0.0
 11
1112.990658639803
 21
743.3205867811058
 31
0.0
  0
LINE
  5
11B
330
36
100
AcDbEntity
  8
0
  6
Continuous
 62
     7
100
AcDbLine
 10
1112.990658639801
 20
743.0170967860593
 30
0.0
 11
1112.990658639803
 21
743.3166941188928
 31
0.0
  0
LINE
  5
11C
330
36
100
AcDbEntity
  8
0
  6
Continuous
 62
     7
100
AcDbLine
 10
1112.990658639799
 20
740.0851248889535
 30
0.0
 11
1112.990658639801
 21
743.0170967860593
 31
0.0
  0
LINE
  5
11D
330
36
100
AcDbEntity
  8
0
  6
Continuous
 62
     7
100
AcDbLine
 10
1112.990658639803
 20
743.3205867811058
 30
0.0
 11
1112.990658639802
 21
752.7177844548144
 31
0.0
  0
LINE
  5
11E
330
36
100
AcDbEntity
  8
0
  6
Continuous
 62
     7
100
AcDbLine
 10
1112.990658639801
 20
643.9679531740319
 30
0.0
 11
1112.990658639799
 21
740.0851248889535
 31
0.0
  0
LINE
  5
11F
330
36
100
AcDbEntity
  8
0
  6
Continuous
 62
     7
100
AcDbLine
 10
632.9906586397979
 20
566.2813903765712
 30
0.0
 11
632.9906586397979
 21
564.2687261416152
 31
0.0
  0
LINE
  5
120
330
36
100
AcDbEntity
  8
0
  6
Continuous
 62
     7
100
AcDbLine
 10
634.9906586397982
 20
583.3965249688151
 30
0.0
 11
632.9906586397983
 21
583.3965249688151
 31
0.0
  0
LINE
  5
121
330
36
100
AcDbEntity
  8
0
  6
Continuous
 62
     7
100
AcDbLine
 10
632.990658639798
 20
566.4802701006372
 30
0.0
 11
632.9906586397979
 21
566.2813903765712
 31
0.0
  0
LINE
  5
122
330
36
100
AcDbEntity
  8
0
  6
Continuous
 62
     7
100
AcDbLine
 10
632.9906586397995
 20
575.503207137092
 30
0.0
 11
632.9906586397995
 21
574.7525075736041
 31
0.0
  0
LINE
  5
123
330
36
100
AcDbEntity
  8
0
  6
Continuous
 62
     7
100
AcDbLine
 10
632.9906586397999
 20
569.1428145819871
 30
0.0
 11
632.990658639798
 21
566.4802701006372
 31
0.0
  0
LINE
  5
124
330
36
100
AcDbEntity
  8
0
  6
Continuous
 62
     7
100
AcDbLine
 10
632.9906586397995
 20
574.7525075736041
 30
0.0
 11
632.9906586397999
 21
569.1428145819871
 31
0.0
  0
LINE
  5
125
330
36
100
AcDbEntity
  8
0
  6
Continuous
 62
     7
100
AcDbLine
 10
632.9906586397983
 20
583.3965249688151
 30
0.0
 11
632.9906586397995
 21
575.503207137092
 31
0.0
  0
LINE
  5
126
330
36
100
AcDbEntity
  8
0
  6
Continuous
 62
     7
100
AcDbLine
 10
632.9906586397974
 20
126.167977206685
 30
0.0
 11
652.9906584883511
 21
126.1679772066921
 31
0.0
  0
LINE
  5
127
330
36
100
AcDbEntity
  8
0
  6
Continuous
 62
     7
100
AcDbLine
 10
632.9906586397933
 20
537.3451578161671
 30
0.0
 11
632.9906586397933
 21
536.716883808057
 31
0.0
  0
LINE
  5
128
330
36
100
AcDbEntity
  8
0
  6
Continuous
 62
     7
100
AcDbLine
 10
632.9906586397933
 20
538.9134120370782
 30
0.0
 11
632.9906586397933
 21
537.3451578161671
 31
0.0
  0
LINE
  5
129
330
36
100
AcDbEntity
  8
0
  6
Continuous
 62
     7
100
AcDbLine
 10
632.9906586397972
 20
529.9598959233231
 30
0.0
 11
632.9906586397967
 21
514.3084468588961
 31
0.0
  0
LINE
  5
12A
330
36
100
AcDbEntity
  8
0
  6
Continuous
 62
     7
100
AcDbLine
 10
632.9906586397933
 20
536.7157248345432
 30
0.0
 11
632.9906586397972
 21
529.9598959233231
 31
0.0
  0
LINE
  5
12B
330
36
100
AcDbEntity
  8
0
  6
Continuous
 62
     7
100
AcDbLine
 10
632.9906586397974
 20
126.167977206685
 30
0.0
 11
632.9906586397967
 21
514.3084468588961
 31
0.0
  0
LINE
  5
12C
330
36
100
AcDbEntity
  8
0
  6
Continuous
 62
     7
100
AcDbLine
 10
632.9906586397979
 20
564.2687261416152
 30
0.0
 11
632.9906586397933
 21
538.9134120370782
 31
0.0
  0
LINE
  5
12D
330
36
100
AcDbEntity
  8
0
  6
Continuous
 62
     7
100
AcDbLine
 10
652.9906584883511
 20
126.1679772066921
 30
0.0
 11
675.9906586397972
 21
532.4786109358352
 31
0.0
  0
LINE
  5
12E
330
36
100
AcDbEntity
  8
0
  6
Continuous
 62
     7
100
AcDbLine
 10
632.9906586397933
 20
536.716883808057
 30
0.0
 11
632.9906586397933
 21
536.7157248345432
 31
0.0
  0
LINE
  5
12F
330
36
100
AcDbEntity
  8
0
  6
Continuous
 62
     7
100
AcDbLine
 10
675.9906586397972
 20
532.4786109358352
 30
0.0
 11
634.9906586397982
 21
583.3965249688151
 31
0.0
  0
LINE
  5
130
330
36
100
AcDbEntity
  8
0
  6
Continuous
 62
     7
100
AcDbLine
 10
632.9906586397979
 20
566.2813903765712
 30
0.0
 11
632.9906586397979
 21
564.2687261416152
 31
0.0
  0
LINE
  5
131
330
36
100
AcDbEntity
  8
0
  6
Continuous
 62
     7
100
AcDbLine
 10
634.9906586397982
 20
583.3965249688151
 30
0.0
 11
632.9906586397983
 21
583.3965249688151
 31
0.0
  0
LINE
  5
132
330
36
100
AcDbEntity
  8
0
  6
Continuous
 62
     7
100
AcDbLine
 10
632.990658639798
 20
566.4802701006372
 30
0.0
 11
632.9906586397979
 21
566.2813903765712
 31
0.0
  0
LINE
  5
133
330
36
100
AcDbEntity
  8
0
  6
Continuous
 62
     7
100
AcDbLine
 10
632.9906586397995
 20
575.503207137092
 30
0.0
 11
632.9906586397995
 21
574.7525075736041
 31
0.0
  0
LINE
  5
134
330
36
100
AcDbEntity
  8
0
  6
Continuous
 62
     7
100
AcDbLine
 10
632.9906586397999
 20
569.1428145819871
 30
0.0
 11
632.990658639798
 21
566.4802701006372
 31
0.0
  0
LINE
  5
135
330
36
100
AcDbEntity
  8
0
  6
Continuous
 62
     7
100
AcDbLine
 10
632.9906586397995
 20
574.7525075736041
 30
0.0
 11
632.9906586397999
 21
569.1428145819871
 31
0.0
  0
LINE
  5
136
330
36
100
AcDbEntity
  8
0
  6
Continuous
 62
     7
100
AcDbLine
 10
632.9906586397983
 20
583.3965249688151
 30
0.0
 11
632.9906586397995
 21
575.503207137092
 31
0.0
  0
LINE
  5
137
330
36
100
AcDbEntity
  8
0
  6
Continuous
 62
     7
100
AcDbLine
 10
674.962101326556
 20
514.3084468588961
 30
0.0
 11
675.9263389247125
 21
514.3084468588961
 31
0.0
  0
LINE
  5
138
330
36
100
AcDbEntity
  8
0
  6
Continuous
 62
     7
100
AcDbLine
 10
632.9906586397933
 20
537.3451578161671
 30
0.0
 11
632.9906586397933
 21
536.716883808057
 31
0.0
  0
LINE
  5
139
330
36
100
AcDbEntity
  8
0
  6
Continuous
 62
     7
100
AcDbLine
 10
632.9906586397933
 20
538.9134120370782
 30
0.0
 11
632.9906586397933
 21
537.3451578161671
 31
0.0
  0
LINE
  5
13A
330
36
100
AcDbEntity
  8
0
  6
Continuous
 62
     7
100
AcDbLine
 10
632.9906586397972
 20
529.9598959233231
 30
0.0
 11
632.9906586397967
 21
514.3084468588961
 31
0.0
  0
LINE
  5
13B
330
36
100
AcDbEntity
  8
0
  6
Continuous
 62
     7
100
AcDbLine
 10
632.9906586397933
 20
536.7157248345432
 30
0.0
 11
632.9906586397972
 21
529.9598959233231
 31
0.0
  0
LINE
  5
13C
330
36
100
AcDbEntity
  8
0
  6
Continuous
 62
     7
100
AcDbLine
 10
632.9906586397979
 20
564.2687261416152
 30
0.0
 11
632.9906586397933
 21
538.9134120370782
 31
0.0
  0
LINE
  5
13D
330
36
100
AcDbEntity
  8
0
  6
Continuous
 62
     7
100
AcDbLine
 10
675.9263389247125
 20
514.3084468588961
 30
0.0
 11
675.9906586397968
 21
514.3084468588952
 31
0.0
  0
LINE
  5
13E
330
36
100
AcDbEntity
  8
0
  6
Continuous
 62
     7
100
AcDbLine
 10
632.9906586397933
 20
536.716883808057
 30
0.0
 11
632.9906586397933
 21
536.7157248345432
 31
0.0
  0
LINE
  5
13F
330
36
100
AcDbEntity
  8
0
  6
Continuous
 62
     7
100
AcDbLine
 10
674.962101326556
 20
514.3084468588961
 30
0.0
 11
675.9263389247125
 21
514.3084468588961
 31
0.0
  0
LINE
  5
140
330
36
100
AcDbEntity
  8
0
  6
Continuous
 62
     7
100
AcDbLine
 10
632.9906586397974
 20
126.167977206685
 30
0.0
 11
652.9906584883511
 21
126.1679772066921
 31
0.0
  0
LINE
  5
141
330
36
100
AcDbEntity
  8
0
  6
Continuous
 62
     7
100
AcDbLine
 10
632.9906586397933
 20
537.3451578161671
 30
0.0
 11
632.9906586397933
 21
536.716883808057
 31
0.0
  0
LINE
  5
142
330
36
100
AcDbEntity
  8
0
  6
Continuous
 62
     7
100
AcDbLine
 10
632.9906586397933
 20
538.9134120370782
 30
0.0
 11
632.9906586397933
 21
537.3451578161671
 31
0.0
  0
LINE
  5
143
330
36
100
AcDbEntity
  8
0
  6
Continuous
 62
     7
100
AcDbLine
 10
632.9906586397972
 20
529.9598959233231
 30
0.0
 11
632.9906586397967
 21
514.3084468588961
 31
0.0
  0
LINE
  5
144
330
36
100
AcDbEntity
  8
0
  6
Continuous
 62
     7
100
AcDbLine
 10
632.9906586397933
 20
536.7157248345432
 30
0.0
 11
632.9906586397972
 21
529.9598959233231
 31
0.0
  0
LINE
  5
145
330
36
100
AcDbEntity
  8
0
  6
Continuous
 62
     7
100
AcDbLine
 10
632.9906586397974
 20
126.167977206685
 30
0.0
 11
632.9906586397967
 21
514.3084468588961
 31
0.0
  0
LINE
  5
146
330
36
100
AcDbEntity
  8
0
  6
Continuous
 62
     7
100
AcDbLine
 10
632.9906586397979
 20
564.2687261416152
 30
0.0
 11
632.9906586397933
 21
538.9134120370782
 31
0.0
  0
LINE
  5
147
330
36
100
AcDbEntity
  8
0
  6
Continuous
 62
     7
100
AcDbLine
 10
632.9906586397933
 20
536.716883808057
 30
0.0
 11
632.9906586397933
 21
536.7157248345432
 31
0.0
  0
LINE
  5
148
330
36
100
AcDbEntity
  8
0
  6
Continuous
 62
     7
100
AcDbLine
 10
1112.990658639797
 20
514.308446858887
 30
0.0
 11
1112.990658639798
 21
126.167977206685
 31
0.0
  0
LINE
  5
149
330
36
100
AcDbEntity
  8
0
  6
Continuous
 62
     7
100
AcDbLine
 10
1112.990658639796
 20
536.7157248345302
 30
0.0
 11
1112.990658639798
 21
529.959895923314
 31
0.0
  0
LINE
  5
14A
330
36
100
AcDbEntity
  8
0
  6
Continuous
 62
     7
100
AcDbLine
 10
1092.990658639789
 20
126.1679772066932
 30
0.0
 11
1112.990658639798
 21
126.167977206685
 31
0.0
  0
LINE
  5
14B
330
36
100
AcDbEntity
  8
0
  6
Continuous
 62
     7
100
AcDbLine
 10
1112.990658639798
 20
529.959895923314
 30
0.0
 11
1112.990658639797
 21
514.308446858887
 31
0.0
  0
LINE
  5
14C
330
36
100
AcDbEntity
  8
0
  6
Continuous
 62
     7
100
AcDbLine
 10
1112.990658639796
 20
538.9134120370661
 30
0.0
 11
1112.990658639796
 21
537.3451578161541
 31
0.0
  0
LINE
  5
14D
330
36
100
AcDbEntity
  8
0
  6
Continuous
 62
     7
100
AcDbLine
 10
1112.990658639796
 20
537.3451578161541
 30
0.0
 11
1112.990658639796
 21
536.716883808044
 31
0.0
  0
LINE
  5
14E
330
36
100
AcDbEntity
  8
0
  6
Continuous
 62
     7
100
AcDbLine
 10
1112.990658639799
 20
564.1890915303352
 30
0.0
 11
1112.990658639796
 21
538.9134120370661
 31
0.0
  0
LINE
  5
14F
330
36
100
AcDbEntity
  8
0
  6
Continuous
 62
     7
100
AcDbLine
 10
1112.990658639799
 20
564.2687261416052
 30
0.0
 11
1112.990658639799
 21
564.1890915303352
 31
0.0
  0
LINE
  5
150
330
36
100
AcDbEntity
  8
0
  6
Continuous
 62
     7
100
AcDbLine
 10
1112.990658639796
 20
536.716883808044
 30
0.0
 11
1112.990658639796
 21
536.7157248345302
 31
0.0
  0
LINE
  5
151
330
36
100
AcDbEntity
  8
0
  6
Continuous
 62
     7
100
AcDbLine
 10
1112.990658639799
 20
566.2813903765612
 30
0.0
 11
1112.990658639799
 21
564.2687261416052
 31
0.0
  0
LINE
  5
152
330
36
100
AcDbEntity
  8
0
  6
Continuous
 62
     7
100
AcDbLine
 10
1110.990658639798
 20
583.3965249688051
 30
0.0
 11
1112.990658639799
 21
583.3965249688051
 31
0.0
  0
LINE
  5
153
330
36
100
AcDbEntity
  8
0
  6
Continuous
 62
     7
100
AcDbLine
 10
1112.990658639799
 20
575.5032071370881
 30
0.0
 11
1112.990658639799
 21
574.7525075736
 31
0.0
  0
LINE
  5
154
330
36
100
AcDbEntity
  8
0
  6
Continuous
 62
     7
100
AcDbLine
 10
1112.990658639799
 20
566.4802701006281
 30
0.0
 11
1112.990658639799
 21
566.2813903765612
 31
0.0
  0
LINE
  5
155
330
36
100
AcDbEntity
  8
0
  6
Continuous
 62
     7
100
AcDbLine
 10
1112.990658639799
 20
574.7525075736
 30
0.0
 11
1112.990658639798
 21
569.14281458198
 31
0.0
  0
LINE
  5
156
330
36
100
AcDbEntity
  8
0
  6
Continuous
 62
     7
100
AcDbLine
 10
1112.990658639798
 20
569.14281458198
 30
0.0
 11
1112.990658639799
 21
566.4802701006281
 31
0.0
  0
LINE
  5
157
330
36
100
AcDbEntity
  8
0
  6
Continuous
 62
     7
100
AcDbLine
 10
1112.990658639799
 20
583.3965249688051
 30
0.0
 11
1112.990658639799
 21
575.5032071370881
 31
0.0
  0
LINE
  5
158
330
36
100
AcDbEntity
  8
0
  6
Continuous
 62
     7
100
AcDbLine
 10
1092.990658639789
 20
126.1679772066932
 30
0.0
 11
1069.990658639798
 21
532.4786109358252
 31
0.0
  0
LINE
  5
159
330
36
100
AcDbEntity
  8
0
  6
Continuous
 62
     7
100
AcDbLine
 10
1069.990658639798
 20
532.4786109358252
 30
0.0
 11
1110.990658639798
 21
583.3965249688051
 31
0.0
  0
LINE
  5
15A
330
36
100
AcDbEntity
  8
0
  6
Continuous
 62
     7
100
AcDbLine
 10
1112.990658639797
 20
514.308446858887
 30
0.0
 11
1112.990658639798
 21
126.167977206685
 31
0.0
  0
LINE
  5
15B
330
36
100
AcDbEntity
  8
0
  6
Continuous
 62
     7
100
AcDbLine
 10
1112.990658639796
 20
536.7157248345302
 30
0.0
 11
1112.990658639798
 21
529.959895923314
 31
0.0
  0
LINE
  5
15C
330
36
100
AcDbEntity
  8
0
  6
Continuous
 62
     7
100
AcDbLine
 10
1092.990658639789
 20
126.1679772066932
 30
0.0
 11
1112.990658639798
 21
126.167977206685
 31
0.0
  0
LINE
  5
15D
330
36
100
AcDbEntity
  8
0
  6
Continuous
 62
     7
100
AcDbLine
 10
1112.990658639798
 20
529.959895923314
 30
0.0
 11
1112.990658639797
 21
514.308446858887
 31
0.0
  0
LINE
  5
15E
330
36
100
AcDbEntity
  8
0
  6
Continuous
 62
     7
100
AcDbLine
 10
1112.990658639796
 20
538.9134120370661
 30
0.0
 11
1112.990658639796
 21
537.3451578161541
 31
0.0
  0
LINE
  5
15F
330
36
100
AcDbEntity
  8
0
  6
Continuous
 62
     7
100
AcDbLine
 10
1112.990658639796
 20
537.3451578161541
 30
0.0
 11
1112.990658639796
 21
536.716883808044
 31
0.0
  0
LINE
  5
160
330
36
100
AcDbEntity
  8
0
  6
Continuous
 62
     7
100
AcDbLine
 10
1112.990658639799
 20
564.1890915303352
 30
0.0
 11
1112.990658639796
 21
538.9134120370661
 31
0.0
  0
LINE
  5
161
330
36
100
AcDbEntity
  8
0
  6
Continuous
 62
     7
100
AcDbLine
 10
1112.990658639799
 20
564.2687261416052
 30
0.0
 11
1112.990658639799
 21
564.1890915303352
 31
0.0
  0
LINE
  5
162
330
36
100
AcDbEntity
  8
0
  6
Continuous
 62
     7
100
AcDbLine
 10
1112.990658639796
 20
536.716883808044
 30
0.0
 11
1112.990658639796
 21
536.7157248345302
 31
0.0
  0
LINE
  5
163
330
36
100
AcDbEntity
  8
0
  6
Continuous
 62
     7
100
AcDbLine
 10
1112.990658639796
 20
536.7157248345302
 30
0.0
 11
1112.990658639798
 21
529.959895923314
 31
0.0
  0
LINE
  5
164
330
36
100
AcDbEntity
  8
0
  6
Continuous
 62
     7
100
AcDbLine
 10
1112.990658639798
 20
529.959895923314
 30
0.0
 11
1112.990658639797
 21
514.308446858887
 31
0.0
  0
LINE
  5
165
330
36
100
AcDbEntity
  8
0
  6
Continuous
 62
     7
100
AcDbLine
 10
1112.990658639796
 20
538.9134120370661
 30
0.0
 11
1112.990658639796
 21
537.3451578161541
 31
0.0
  0
LINE
  5
166
330
36
100
AcDbEntity
  8
0
  6
Continuous
 62
     7
100
AcDbLine
 10
1112.990658639796
 20
537.3451578161541
 30
0.0
 11
1112.990658639796
 21
536.716883808044
 31
0.0
  0
LINE
  5
167
330
36
100
AcDbEntity
  8
0
  6
Continuous
 62
     7
100
AcDbLine
 10
1112.990658639799
 20
564.1890915303352
 30
0.0
 11
1112.990658639796
 21
538.9134120370661
 31
0.0
  0
LINE
  5
168
330
36
100
AcDbEntity
  8
0
  6
Continuous
 62
     7
100
AcDbLine
 10
1112.990658639799
 20
564.2687261416052
 30
0.0
 11
1112.990658639799
 21
564.1890915303352
 31
0.0
  0
LINE
  5
169
330
36
100
AcDbEntity
  8
0
  6
Continuous
 62
     7
100
AcDbLine
 10
1112.990658639796
 20
536.716883808044
 30
0.0
 11
1112.990658639796
 21
536.7157248345302
 31
0.0
  0
LINE
  5
16A
330
36
100
AcDbEntity
  8
0
  6
Continuous
 62
     7
100
AcDbLine
 10
1112.990658639799
 20
566.2813903765612
 30
0.0
 11
1112.990658639799
 21
564.2687261416052
 31
0.0
  0
LINE
  5
16B
330
36
100
AcDbEntity
  8
0
  6
Continuous
 62
     7
100
AcDbLine
 10
1110.990658639798
 20
583.3965249688051
 30
0.0
 11
1112.990658639799
 21
583.3965249688051
 31
0.0
  0
LINE
  5
16C
330
36
100
AcDbEntity
  8
0
  6
Continuous
 62
     7
100
AcDbLine
 10
1112.990658639799
 20
575.5032071370881
 30
0.0
 11
1112.990658639799
 21
574.7525075736
 31
0.0
  0
LINE
  5
16D
330
36
100
AcDbEntity
  8
0
  6
Continuous
 62
     7
100
AcDbLine
 10
1112.990658639799
 20
566.4802701006281
 30
0.0
 11
1112.990658639799
 21
566.2813903765612
 31
0.0
  0
LINE
  5
16E
330
36
100
AcDbEntity
  8
0
  6
Continuous
 62
     7
100
AcDbLine
 10
1112.990658639799
 20
574.7525075736
 30
0.0
 11
1112.990658639798
 21
569.14281458198
 31
0.0
  0
LINE
  5
16F
330
36
100
AcDbEntity
  8
0
  6
Continuous
 62
     7
100
AcDbLine
 10
1112.990658639798
 20
569.14281458198
 30
0.0
 11
1112.990658639799
 21
566.4802701006281
 31
0.0
  0
LINE
  5
170
330
36
100
AcDbEntity
  8
0
  6
Continuous
 62
     7
100
AcDbLine
 10
1112.990658639799
 20
583.3965249688051
 30
0.0
 11
1112.990658639799
 21
575.5032071370881
 31
0.0
  0
LINE
  5
171
330
36
100
AcDbEntity
  8
0
  6
Continuous
 62
     7
100
AcDbLine
 10
750.9312890223
 20
532.3768110249241
 30
0.0
 11
680.9312890223
 21
532.3768110249262
 31
0.0
  0
LINE
  5
172
330
36
100
AcDbEntity
  8
0
  6
Continuous
 62
     7
100
AcDbLine
 10
994.9906586397983
 20
532.3768110249191
 30
0.0
 11
750.9312890223
 21
532.3768110249241
 31
0.0
  0
LINE
  5
173
330
36
100
AcDbEntity
  8
0
  6
Continuous
 62
     7
100
AcDbLine
 10
750.9312890223
 20
532.3768110249241
 30
0.0
 11
680.9312890223
 21
532.3768110249262
 31
0.0
  0
LINE
  5
174
330
36
100
AcDbEntity
  8
0
  6
Continuous
 62
     7
100
AcDbLine
 10
375.9651026855014
 20
529.9598955336614
 30
0.0
 11
375.9651026855051
 21
536.7157244448811
 31
0.0
  0
LINE
  5
175
330
36
100
AcDbEntity
  8
0
  6
Continuous
 62
     7
100
AcDbLine
 10
375.9651026855051
 20
536.7157244448811
 30
0.0
 11
375.965102685505
 21
538.2408670784947
 31
0.0
  0
LINE
  5
176
330
36
100
AcDbEntity
  8
0
  6
Continuous
 62
     7
100
AcDbLine
 10
375.965102685505
 20
538.2408670784947
 30
0.0
 11
375.9651026855005
 21
564.2687257519534
 31
0.0
  0
LINE
  5
177
330
36
100
AcDbEntity
  8
0
  6
Continuous
 62
     7
100
AcDbLine
 10
373.9651026855007
 20
564.2687257519534
 30
0.0
 11
375.9651026855005
 21
564.2687257519534
 31
0.0
  0
LINE
  5
178
330
36
100
AcDbEntity
  8
0
  6
Continuous
 62
     7
100
AcDbLine
 10
373.9651026855007
 20
564.2687257519534
 30
0.0
 11
333.0837743720939
 21
513.3886422733649
 31
0.0
  0
LINE
  5
179
330
36
100
AcDbEntity
  8
0
  6
Continuous
 62
     7
100
AcDbLine
 10
375.9651026855011
 20
126.167976817023
 30
0.0
 11
355.9651026855098
 21
126.1679768170305
 31
0.0
  0
LINE
  5
17A
330
36
100
AcDbEntity
  8
0
  6
Continuous
 62
     7
100
AcDbLine
 10
375.9651026855015
 20
514.3084464692347
 30
0.0
 11
375.9651026855014
 21
529.9598955336614
 31
0.0
  0
LINE
  5
17B
330
36
100
AcDbEntity
  8
0
  6
Continuous
 62
     7
100
AcDbLine
 10
375.9651026855011
 20
126.167976817023
 30
0.0
 11
375.9651026855015
 21
514.3084464692347
 31
0.0
  0
LINE
  5
17C
330
36
100
AcDbEntity
  8
0
  6
Continuous
 62
     7
100
AcDbLine
 10
333.0837743720939
 20
513.3886422733649
 30
0.0
 11
355.9651026855098
 21
126.1679768170305
 31
0.0
  0
LINE
  5
17D
330
36
100
AcDbEntity
  8
0
  6
Continuous
 62
     7
100
AcDbLine
 10
375.9651026855014
 20
529.9598955336614
 30
0.0
 11
375.9651026855051
 21
536.7157244448811
 31
0.0
  0
LINE
  5
17E
330
36
100
AcDbEntity
  8
0
  6
Continuous
 62
     7
100
AcDbLine
 10
375.9651026855051
 20
536.7157244448811
 30
0.0
 11
375.965102685505
 21
538.2408670784947
 31
0.0
  0
LINE
  5
17F
330
36
100
AcDbEntity
  8
0
  6
Continuous
 62
     7
100
AcDbLine
 10
375.965102685499
 20
575.5032067474303
 30
0.0
 11
375.9651026855001
 21
583.3965245791533
 31
0.0
  0
LINE
  5
180
330
36
100
AcDbEntity
  8
0
  6
Continuous
 62
     7
100
AcDbLine
 10
375.965102685499
 20
569.8935137558142
 30
0.0
 11
375.965102685499
 21
575.5032067474303
 31
0.0
  0
LINE
  5
181
330
36
100
AcDbEntity
  8
0
  6
Continuous
 62
     7
100
AcDbLine
 10
375.965102685505
 20
538.2408670784947
 30
0.0
 11
375.9651026855005
 21
564.2687257519534
 31
0.0
  0
LINE
  5
182
330
36
100
AcDbEntity
  8
0
  6
Continuous
 62
     7
100
AcDbLine
 10
375.9651026855005
 20
564.2687257519534
 30
0.0
 11
375.9651026855008
 21
564.3791728865566
 31
0.0
  0
LINE
  5
183
330
36
100
AcDbEntity
  8
0
  6
Continuous
 62
     7
100
AcDbLine
 10
375.9651026854986
 20
569.1428141923254
 30
0.0
 11
375.965102685499
 21
569.8935137558142
 31
0.0
  0
LINE
  5
184
330
36
100
AcDbEntity
  8
0
  6
Continuous
 62
     7
100
AcDbLine
 10
375.9651026855005
 20
568.7776379413095
 30
0.0
 11
375.9651026854986
 21
569.1428141923254
 31
0.0
  0
LINE
  5
185
330
36
100
AcDbEntity
  8
0
  6
Continuous
 62
     7
100
AcDbLine
 10
373.9651026855007
 20
564.2687257519534
 30
0.0
 11
375.9651026855005
 21
564.2687257519534
 31
0.0
  0
LINE
  5
186
330
36
100
AcDbEntity
  8
0
  6
Continuous
 62
     7
100
AcDbLine
 10
375.9651026855008
 20
564.3791728865566
 30
0.0
 11
375.9651026855005
 21
566.2813899869094
 31
0.0
  0
LINE
  5
187
330
36
100
AcDbEntity
  8
0
  6
Continuous
 62
     7
100
AcDbLine
 10
375.9651026855005
 20
566.2813899869094
 30
0.0
 11
375.9651026855005
 21
568.7776379413095
 31
0.0
  0
LINE
  5
188
330
36
100
AcDbEntity
  8
0
  6
Continuous
 62
     7
100
AcDbLine
 10
375.9651026855015
 20
514.3084464692347
 30
0.0
 11
375.9651026855014
 21
529.9598955336614
 31
0.0
  0
LINE
  5
189
330
36
100
AcDbEntity
  8
0
  6
Continuous
 62
     7
100
AcDbLine
 10
375.9651026855014
 20
529.9598955336614
 30
0.0
 11
375.9651026855051
 21
536.7157244448811
 31
0.0
  0
LINE
  5
18A
330
36
100
AcDbEntity
  8
0
  6
Continuous
 62
     7
100
AcDbLine
 10
375.9651026855051
 20
536.7157244448811
 30
0.0
 11
375.965102685505
 21
538.2408670784947
 31
0.0
  0
LINE
  5
18B
330
36
100
AcDbEntity
  8
0
  6
Continuous
 62
     7
100
AcDbLine
 10
375.965102685499
 20
575.5032067474303
 30
0.0
 11
375.9651026855001
 21
583.3965245791533
 31
0.0
  0
LINE
  5
18C
330
36
100
AcDbEntity
  8
0
  6
Continuous
 62
     7
100
AcDbLine
 10
375.965102685499
 20
569.8935137558142
 30
0.0
 11
375.965102685499
 21
575.5032067474303
 31
0.0
  0
LINE
  5
18D
330
36
100
AcDbEntity
  8
0
  6
Continuous
 62
     7
100
AcDbLine
 10
375.965102685505
 20
538.2408670784947
 30
0.0
 11
375.9651026855005
 21
564.2687257519534
 31
0.0
  0
LINE
  5
18E
330
36
100
AcDbEntity
  8
0
  6
Continuous
 62
     7
100
AcDbLine
 10
375.9651026855005
 20
564.2687257519534
 30
0.0
 11
375.9651026855008
 21
564.3791728865566
 31
0.0
  0
LINE
  5
18F
330
36
100
AcDbEntity
  8
0
  6
Continuous
 62
     7
100
AcDbLine
 10
375.9651026854986
 20
569.1428141923254
 30
0.0
 11
375.965102685499
 21
569.8935137558142
 31
0.0
  0
LINE
  5
190
330
36
100
AcDbEntity
  8
0
  6
Continuous
 62
     7
100
AcDbLine
 10
375.9651026855005
 20
568.7776379413095
 30
0.0
 11
375.9651026854986
 21
569.1428141923254
 31
0.0
  0
LINE
  5
191
330
36
100
AcDbEntity
  8
0
  6
Continuous
 62
     7
100
AcDbLine
 10
375.9651026855008
 20
564.3791728865566
 30
0.0
 11
375.9651026855005
 21
566.2813899869094
 31
0.0
  0
LINE
  5
192
330
36
100
AcDbEntity
  8
0
  6
Continuous
 62
     7
100
AcDbLine
 10
375.9651026855005
 20
566.2813899869094
 30
0.0
 11
375.9651026855005
 21
568.7776379413095
 31
0.0
  0
LINE
  5
193
330
36
100
AcDbEntity
  8
0
  6
Continuous
 62
     7
100
AcDbLine
 10
375.9651026855011
 20
126.167976817023
 30
0.0
 11
355.9651026855098
 21
126.1679768170305
 31
0.0
  0
LINE
  5
194
330
36
100
AcDbEntity
  8
0
  6
Continuous
 62
     7
100
AcDbLine
 10
375.9651026855015
 20
514.3084464692347
 30
0.0
 11
375.9651026855014
 21
529.9598955336614
 31
0.0
  0
LINE
  5
195
330
36
100
AcDbEntity
  8
0
  6
Continuous
 62
     7
100
AcDbLine
 10
375.9651026855011
 20
126.167976817023
 30
0.0
 11
375.9651026855015
 21
514.3084464692347
 31
0.0
  0
LINE
  5
196
330
36
100
AcDbEntity
  8
0
  6
Continuous
 62
     7
100
AcDbLine
 10
-104.034897314499
 20
514.3084464692257
 30
0.0
 11
-104.0348973144994
 21
529.9598955336513
 31
0.0
  0
LINE
  5
197
330
36
100
AcDbEntity
  8
0
  6
Continuous
 62
     7
100
AcDbLine
 10
-104.0348973144996
 20
126.167976817023
 30
0.0
 11
-104.034897314499
 21
514.3084464692257
 31
0.0
  0
LINE
  5
198
330
36
100
AcDbEntity
  8
0
  6
Continuous
 62
     7
100
AcDbLine
 10
-84.03489731449076
 20
126.167976817031
 30
0.0
 11
-104.0348973144996
 21
126.167976817023
 31
0.0
  0
LINE
  5
199
330
36
100
AcDbEntity
  8
0
  6
Continuous
 62
     7
100
AcDbLine
 10
-104.0348973144973
 20
536.7157244448682
 30
0.0
 11
-104.0348973144974
 21
538.240867078482
 31
0.0
  0
LINE
  5
19A
330
36
100
AcDbEntity
  8
0
  6
Continuous
 62
     7
100
AcDbLine
 10
-104.0348973144994
 20
529.9598955336513
 30
0.0
 11
-104.0348973144973
 21
536.7157244448682
 31
0.0
  0
LINE
  5
19B
330
36
100
AcDbEntity
  8
0
  6
Continuous
 62
     7
100
AcDbLine
 10
-101.9709121858228
 20
564.1890911406732
 30
0.0
 11
-61.03489731449898
 21
513.240945865989
 31
0.0
  0
LINE
  5
19C
330
36
100
AcDbEntity
  8
0
  6
Continuous
 62
     7
100
AcDbLine
 10
-104.0348973144974
 20
538.240867078482
 30
0.0
 11
-104.0348973145007
 21
564.1890911406731
 31
0.0
  0
LINE
  5
19D
330
36
100
AcDbEntity
  8
0
  6
Continuous
 62
     7
100
AcDbLine
 10
-104.0348973145007
 20
564.1890911406731
 30
0.0
 11
-104.0348973145002
 21
564.2687257519444
 31
0.0
  0
LINE
  5
19E
330
36
100
AcDbEntity
  8
0
  6
Continuous
 62
     7
100
AcDbLine
 10
-104.034897314499
 20
514.3084464692257
 30
0.0
 11
-104.0348973144994
 21
529.9598955336513
 31
0.0
  0
LINE
  5
19F
330
36
100
AcDbEntity
  8
0
  6
Continuous
 62
     7
100
AcDbLine
 10
-101.932691304691
 20
564.1890911406732
 30
0.0
 11
-101.841997190726
 21
564.0370748283057
 31
0.0
  0
LINE
  5
1A0
330
36
100
AcDbEntity
  8
0
  6
Continuous
 62
     7
100
AcDbLine
 10
-104.0348973144973
 20
536.7157244448682
 30
0.0
 11
-104.0348973144974
 21
538.240867078482
 31
0.0
  0
LINE
  5
1A1
330
36
100
AcDbEntity
  8
0
  6
Continuous
 62
     7
100
AcDbLine
 10
-104.0348973144994
 20
529.9598955336513
 30
0.0
 11
-104.0348973144973
 21
536.7157244448682
 31
0.0
  0
LINE
  5
1A2
330
36
100
AcDbEntity
  8
0
  6
Continuous
 62
     7
100
AcDbLine
 10
-104.0348973144995
 20
569.1428141923184
 30
0.0
 11
-104.0348973145008
 21
569.8935137558083
 31
0.0
  0
LINE
  5
1A3
330
36
100
AcDbEntity
  8
0
  6
Continuous
 62
     7
100
AcDbLine
 10
-104.0348973145008
 20
569.8935137558083
 30
0.0
 11
-104.034897314501
 21
575.5032067474268
 31
0.0
  0
LINE
  5
1A4
330
36
100
AcDbEntity
  8
0
  6
Continuous
 62
     7
100
AcDbLine
 10
-104.0348973145004
 20
568.7776379412984
 30
0.0
 11
-104.0348973144995
 21
569.1428141923184
 31
0.0
  0
LINE
  5
1A5
330
36
100
AcDbEntity
  8
0
  6
Continuous
 62
     7
100
AcDbLine
 10
-104.034897314501
 20
575.5032067474268
 30
0.0
 11
-104.0348973145002
 21
583.3965245791432
 31
0.0
  0
LINE
  5
1A6
330
36
100
AcDbEntity
  8
0
  6
Continuous
 62
     7
100
AcDbLine
 10
-104.0348973144974
 20
538.240867078482
 30
0.0
 11
-104.0348973145007
 21
564.1890911406731
 31
0.0
  0
LINE
  5
1A7
330
36
100
AcDbEntity
  8
0
  6
Continuous
 62
     7
100
AcDbLine
 10
-104.0348973145002
 20
564.2687257519444
 30
0.0
 11
-104.0348973145003
 21
566.2813899868995
 31
0.0
  0
LINE
  5
1A8
330
36
100
AcDbEntity
  8
0
  6
Continuous
 62
     7
100
AcDbLine
 10
-104.0348973145003
 20
566.2813899868995
 30
0.0
 11
-104.0348973145004
 21
568.7776379412984
 31
0.0
  0
LINE
  5
1A9
330
36
100
AcDbEntity
  8
0
  6
Continuous
 62
     7
100
AcDbLine
 10
-104.0348973145007
 20
564.1890911406731
 30
0.0
 11
-104.0348973145002
 21
564.2687257519444
 31
0.0
  0
LINE
  5
1AA
330
36
100
AcDbEntity
  8
0
  6
Continuous
 62
     7
100
AcDbLine
 10
-104.034897314499
 20
514.3084464692257
 30
0.0
 11
-104.0348973144994
 21
529.9598955336513
 31
0.0
  0
LINE
  5
1AB
330
36
100
AcDbEntity
  8
0
  6
Continuous
 62
     7
100
AcDbLine
 10
-104.0348973144996
 20
126.167976817023
 30
0.0
 11
-104.034897314499
 21
514.3084464692257
 31
0.0
  0
LINE
  5
1AC
330
36
100
AcDbEntity
  8
0
  6
Continuous
 62
     7
100
AcDbLine
 10
-84.03489731449076
 20
126.167976817031
 30
0.0
 11
-104.0348973144996
 21
126.167976817023
 31
0.0
  0
LINE
  5
1AD
330
36
100
AcDbEntity
  8
0
  6
Continuous
 62
     7
100
AcDbLine
 10
-104.0348973144973
 20
536.7157244448682
 30
0.0
 11
-104.0348973144974
 21
538.240867078482
 31
0.0
  0
LINE
  5
1AE
330
36
100
AcDbEntity
  8
0
  6
Continuous
 62
     7
100
AcDbLine
 10
-104.0348973144994
 20
529.9598955336513
 30
0.0
 11
-104.0348973144973
 21
536.7157244448682
 31
0.0
  0
LINE
  5
1AF
330
36
100
AcDbEntity
  8
0
  6
Continuous
 62
     7
100
AcDbLine
 10
-104.0348973144995
 20
569.1428141923184
 30
0.0
 11
-104.0348973145008
 21
569.8935137558083
 31
0.0
  0
LINE
  5
1B0
330
36
100
AcDbEntity
  8
0
  6
Continuous
 62
     7
100
AcDbLine
 10
-104.0348973145008
 20
569.8935137558083
 30
0.0
 11
-104.034897314501
 21
575.5032067474268
 31
0.0
  0
LINE
  5
1B1
330
36
100
AcDbEntity
  8
0
  6
Continuous
 62
     7
100
AcDbLine
 10
-104.0348973145004
 20
568.7776379412984
 30
0.0
 11
-104.0348973144995
 21
569.1428141923184
 31
0.0
  0
LINE
  5
1B2
330
36
100
AcDbEntity
  8
0
  6
Continuous
 62
     7
100
AcDbLine
 10
-104.034897314501
 20
575.5032067474268
 30
0.0
 11
-104.0348973145002
 21
583.3965245791432
 31
0.0
  0
LINE
  5
1B3
330
36
100
AcDbEntity
  8
0
  6
Continuous
 62
     7
100
AcDbLine
 10
-104.0348973144974
 20
538.240867078482
 30
0.0
 11
-104.0348973145007
 21
564.1890911406731
 31
0.0
  0
LINE
  5
1B4
330
36
100
AcDbEntity
  8
0
  6
Continuous
 62
     7
100
AcDbLine
 10
-104.0348973145002
 20
564.2687257519444
 30
0.0
 11
-104.0348973145003
 21
566.2813899868995
 31
0.0
  0
LINE
  5
1B5
330
36
100
AcDbEntity
  8
0
  6
Continuous
 62
     7
100
AcDbLine
 10
-104.0348973145003
 20
566.2813899868995
 30
0.0
 11
-104.0348973145004
 21
568.7776379412984
 31
0.0
  0
LINE
  5
1B6
330
36
100
AcDbEntity
  8
0
  6
Continuous
 62
     7
100
AcDbLine
 10
-104.0348973145007
 20
564.1890911406731
 30
0.0
 11
-104.0348973145002
 21
564.2687257519444
 31
0.0
  0
LINE
  5
1B7
330
36
100
AcDbEntity
  8
0
  6
Continuous
 62
     7
100
AcDbLine
 10
375.9651026855051
 20
536.7157244448811
 30
0.0
 11
375.965102685505
 21
538.2408670784947
 31
0.0
  0
LINE
  5
1B8
330
36
100
AcDbEntity
  8
0
  6
Continuous
 62
     7
100
AcDbLine
 10
410.9651026855051
 20
536.715724444882
 30
0.0
 11
375.9651026855051
 21
536.7157244448811
 31
0.0
  0
LINE
  5
1B9
330
36
100
AcDbEntity
  8
0
  6
Continuous
 62
     7
100
AcDbLine
 10
410.965102685505
 20
538.2408670784956
 30
0.0
 11
410.9651026855051
 21
536.715724444882
 31
0.0
  0
LINE
  5
1BA
330
36
100
AcDbEntity
  8
0
  6
Continuous
 62
     7
100
AcDbLine
 10
375.9651026854995
 20
740.9599848122462
 30
0.0
 11
375.965102685498
 21
698.1964703811239
 31
0.0
  0
LINE
  5
1BB
330
36
100
AcDbEntity
  8
0
  6
Continuous
 62
     7
100
AcDbLine
 10
375.9651026855001
 20
583.3965245791533
 30
0.0
 11
375.9651026855001
 21
586.0923542103354
 31
0.0
  0
LINE
  5
1BC
330
36
100
AcDbEntity
  8
0
  6
Continuous
 62
     7
100
AcDbLine
 10
375.965102685499
 20
575.5032067474303
 30
0.0
 11
375.9651026855001
 21
583.3965245791533
 31
0.0
  0
LINE
  5
1BD
330
36
100
AcDbEntity
  8
0
  6
Continuous
 62
     7
100
AcDbLine
 10
375.965102685499
 20
569.8935137558142
 30
0.0
 11
375.965102685499
 21
575.5032067474303
 31
0.0
  0
LINE
  5
1BE
330
36
100
AcDbEntity
  8
0
  6
Continuous
 62
     7
100
AcDbLine
 10
375.965102685505
 20
538.2408670784947
 30
0.0
 11
375.9651026855005
 21
564.2687257519534
 31
0.0
  0
LINE
  5
1BF
330
36
100
AcDbEntity
  8
0
  6
Continuous
 62
     7
100
AcDbLine
 10
375.9651026855005
 20
564.2687257519534
 30
0.0
 11
375.9651026855008
 21
564.3791728865566
 31
0.0
  0
LINE
  5
1C0
330
36
100
AcDbEntity
  8
0
  6
Continuous
 62
     7
100
AcDbLine
 10
375.9651026854986
 20
569.1428141923254
 30
0.0
 11
375.965102685499
 21
569.8935137558142
 31
0.0
  0
LINE
  5
1C1
330
36
100
AcDbEntity
  8
0
  6
Continuous
 62
     7
100
AcDbLine
 10
375.9651026855005
 20
568.7776379413095
 30
0.0
 11
375.9651026854986
 21
569.1428141923254
 31
0.0
  0
LINE
  5
1C2
330
36
100
AcDbEntity
  8
0
  6
Continuous
 62
     7
100
AcDbLine
 10
375.9651026855008
 20
564.3791728865566
 30
0.0
 11
375.9651026855005
 21
566.2813899869094
 31
0.0
  0
LINE
  5
1C3
330
36
100
AcDbEntity
  8
0
  6
Continuous
 62
     7
100
AcDbLine
 10
375.9651026855005
 20
566.2813899869094
 30
0.0
 11
375.9651026855005
 21
568.7776379413095
 31
0.0
  0
LINE
  5
1C4
330
36
100
AcDbEntity
  8
0
  6
Continuous
 62
     7
100
AcDbLine
 10
375.9651026855001
 20
586.0923542103354
 30
0.0
 11
375.965102685498
 21
698.1964703811239
 31
0.0
  0
LINE
  5
1C5
330
36
100
AcDbEntity
  8
0
  6
Continuous
 62
     7
100
AcDbLine
 10
410.965102685505
 20
538.2408670784956
 30
0.0
 11
410.9651026854995
 21
740.9599848122472
 31
0.0
  0
LINE
  5
1C6
330
36
100
AcDbEntity
  8
0
  6
Continuous
 62
     7
100
AcDbLine
 10
410.9651026854987
 20
764.7237742612881
 30
0.0
 11
410.9651026854987
 21
764.7224615644116
 31
0.0
  0
LINE
  5
1C7
330
36
100
AcDbEntity
  8
0
  6
Continuous
 62
     7
100
AcDbLine
 10
410.9651026854995
 20
740.9599848122472
 30
0.0
 11
410.9651026854976
 21
743.3166937292448
 31
0.0
  0
LINE
  5
1C8
330
36
100
AcDbEntity
  8
0
  6
Continuous
 62
     7
100
AcDbLine
 10
410.9651026854971
 20
761.4920195716594
 30
0.0
 11
410.9651026854976
 21
743.3166937292448
 31
0.0
  0
LINE
  5
1C9
330
36
100
AcDbEntity
  8
0
  6
Continuous
 62
     7
100
AcDbLine
 10
410.9651026854987
 20
764.7224615644116
 30
0.0
 11
410.9651026854971
 21
761.4920195716594
 31
0.0
  0
LINE
  5
1CA
330
36
100
AcDbEntity
  8
0
  6
Continuous
 62
     7
100
AcDbLine
 10
410.9651026854976
 20
743.3166937292448
 30
0.0
 11
375.9651026854976
 21
743.3166937292439
 31
0.0
  0
LINE
  5
1CB
330
36
100
AcDbEntity
  8
0
  6
Continuous
 62
     7
100
AcDbLine
 10
375.9651026854987
 20
764.7237742612872
 30
0.0
 11
375.9651026854987
 21
764.7224615644105
 31
0.0
  0
LINE
  5
1CC
330
36
100
AcDbEntity
  8
0
  6
Continuous
 62
     7
100
AcDbLine
 10
375.9651026854971
 20
761.4920195716584
 30
0.0
 11
375.965102685499
 21
752.7237807549324
 31
0.0
  0
LINE
  5
1CD
330
36
100
AcDbEntity
  8
0
  6
Continuous
 62
     7
100
AcDbLine
 10
375.9651026854976
 20
743.3166937292439
 30
0.0
 11
375.9651026854995
 21
740.9599848122462
 31
0.0
  0
LINE
  5
1CE
330
36
100
AcDbEntity
  8
0
  6
Continuous
 62
     7
100
AcDbLine
 10
375.9651026854987
 20
764.7224615644105
 30
0.0
 11
375.9651026854971
 21
761.4920195716584
 31
0.0
  0
LINE
  5
1CF
330
36
100
AcDbEntity
  8
0
  6
Continuous
 62
     7
100
AcDbLine
 10
375.965102685499
 20
752.7237807549324
 30
0.0
 11
375.9651026854976
 21
743.3166937292439
 31
0.0
  0
LINE
  5
1D0
330
36
100
AcDbEntity
  8
0
  6
Continuous
 62
     7
100
AcDbLine
 10
-104.0348973145006
 20
740.0851244992916
 30
0.0
 11
-104.0348973145035
 21
698.1964702982841
 31
0.0
  0
LINE
  5
1D1
330
36
100
AcDbEntity
  8
0
  6
Continuous
 62
     7
100
AcDbLine
 10
-139.0348973145053
 20
761.4920195716446
 30
0.0
 11
-139.0348973145047
 21
743.3166937292301
 31
0.0
  0
LINE
  5
1D2
330
36
100
AcDbEntity
  8
0
  6
Continuous
 62
     7
100
AcDbLine
 10
-139.0348973145029
 20
740.9599848122325
 30
0.0
 11
-139.0348973145047
 21
743.3166937292301
 31
0.0
  0
LINE
  5
1D3
330
36
100
AcDbEntity
  8
0
  6
Continuous
 62
     7
100
AcDbLine
 10
-139.0348973145037
 20
764.7237742612733
 30
0.0
 11
-139.0348973145037
 21
764.7224615643968
 31
0.0
  0
LINE
  5
1D4
330
36
100
AcDbEntity
  8
0
  6
Continuous
 62
     7
100
AcDbLine
 10
-139.0348973145037
 20
764.7224615643968
 30
0.0
 11
-139.0348973145053
 21
761.4920195716446
 31
0.0
  0
LINE
  5
1D5
330
36
100
AcDbEntity
  8
0
  6
Continuous
 62
     7
100
AcDbLine
 10
-139.0348973144973
 20
538.240867078481
 30
0.0
 11
-139.0348973145029
 21
740.9599848122325
 31
0.0
  0
LINE
  5
1D6
330
36
100
AcDbEntity
  8
0
  6
Continuous
 62
     3
100
AcDbLine
 10
-139.0348973145037
 20
764.7224615643968
 30
0.0
 11
-104.0348973145036
 21
764.7224615643977
 31
0.0
  0
LINE
  5
1D7
330
36
100
AcDbEntity
  8
0
  6
Continuous
 62
     7
100
AcDbLine
 10
-139.0348973144973
 20
538.240867078481
 30
0.0
 11
-139.0348973144973
 21
536.7157244448673
 31
0.0
  0
LINE
  5
1D8
330
36
100
AcDbEntity
  8
0
  6
Continuous
 62
     7
100
AcDbLine
 10
-139.0348973144973
 20
536.7157244448673
 30
0.0
 11
-104.0348973144973
 21
536.7157244448682
 31
0.0
  0
LINE
  5
1D9
330
36
100
AcDbEntity
  8
0
  6
Continuous
 62
     7
100
AcDbLine
 10
-139.0348973145037
 20
764.7237742612733
 30
0.0
 11
-104.0348973145036
 21
764.7237742612742
 31
0.0
  0
LINE
  5
1DA
330
36
100
AcDbEntity
  8
0
  6
Continuous
 62
     7
100
AcDbLine
 10
-104.0348973144973
 20
536.7157244448682
 30
0.0
 11
-104.0348973144974
 21
538.240867078482
 31
0.0
  0
LINE
  5
1DB
330
36
100
AcDbEntity
  8
0
  6
Continuous
 62
     7
100
AcDbLine
 10
-104.0348973145048
 20
743.316693729231
 30
0.0
 11
-104.034897314503
 21
740.9599848122334
 31
0.0
  0
LINE
  5
1DC
330
36
100
AcDbEntity
  8
0
  6
Continuous
 62
     7
100
AcDbLine
 10
-104.0348973145033
 20
752.7237807549195
 30
0.0
 11
-104.0348973145048
 21
743.316693729231
 31
0.0
  0
LINE
  5
1DD
330
36
100
AcDbEntity
  8
0
  6
Continuous
 62
     7
100
AcDbLine
 10
-104.0348973145036
 20
764.7224615643977
 30
0.0
 11
-104.0348973145053
 21
761.4920195716456
 31
0.0
  0
LINE
  5
1DE
330
36
100
AcDbEntity
  8
0
  6
Continuous
 62
     7
100
AcDbLine
 10
-104.0348973145053
 20
761.4920195716456
 30
0.0
 11
-104.0348973145033
 21
752.7237807549195
 31
0.0
  0
LINE
  5
1DF
330
36
100
AcDbEntity
  8
0
  6
Continuous
 62
     7
100
AcDbLine
 10
-104.0348973145036
 20
764.7237742612742
 30
0.0
 11
-104.0348973145036
 21
764.7224615643977
 31
0.0
  0
LINE
  5
1E0
330
36
100
AcDbEntity
  8
0
  6
Continuous
 62
     7
100
AcDbLine
 10
-104.034897314503
 20
740.9599848122334
 30
0.0
 11
-104.0348973145006
 21
740.0851244992916
 31
0.0
  0
LINE
  5
1E1
330
36
100
AcDbEntity
  8
0
  6
Continuous
 62
     7
100
AcDbLine
 10
-104.0348973145002
 20
583.3965245791432
 30
0.0
 11
-104.0348973145007
 21
586.0923542103244
 31
0.0
  0
LINE
  5
1E2
330
36
100
AcDbEntity
  8
0
  6
Continuous
 62
     7
100
AcDbLine
 10
-104.0348973144995
 20
569.1428141923184
 30
0.0
 11
-104.0348973145008
 21
569.8935137558083
 31
0.0
  0
LINE
  5
1E3
330
36
100
AcDbEntity
  8
0
  6
Continuous
 62
     7
100
AcDbLine
 10
-104.0348973145008
 20
569.8935137558083
 30
0.0
 11
-104.034897314501
 21
575.5032067474268
 31
0.0
  0
LINE
  5
1E4
330
36
100
AcDbEntity
  8
0
  6
Continuous
 62
     7
100
AcDbLine
 10
-104.0348973145004
 20
568.7776379412984
 30
0.0
 11
-104.0348973144995
 21
569.1428141923184
 31
0.0
  0
LINE
  5
1E5
330
36
100
AcDbEntity
  8
0
  6
Continuous
 62
     7
100
AcDbLine
 10
-104.034897314501
 20
575.5032067474268
 30
0.0
 11
-104.0348973145002
 21
583.3965245791432
 31
0.0
  0
LINE
  5
1E6
330
36
100
AcDbEntity
  8
0
  6
Continuous
 62
     7
100
AcDbLine
 10
-104.0348973145007
 20
586.0923542103244
 30
0.0
 11
-104.0348973145035
 21
698.1964702982841
 31
0.0
  0
LINE
  5
1E7
330
36
100
AcDbEntity
  8
0
  6
Continuous
 62
     7
100
AcDbLine
 10
-104.0348973144974
 20
538.240867078482
 30
0.0
 11
-104.0348973145007
 21
564.1890911406731
 31
0.0
  0
LINE
  5
1E8
330
36
100
AcDbEntity
  8
0
  6
Continuous
 62
     7
100
AcDbLine
 10
-104.0348973145002
 20
564.2687257519444
 30
0.0
 11
-104.0348973145003
 21
566.2813899868995
 31
0.0
  0
LINE
  5
1E9
330
36
100
AcDbEntity
  8
0
  6
Continuous
 62
     7
100
AcDbLine
 10
-104.0348973145003
 20
566.2813899868995
 30
0.0
 11
-104.0348973145004
 21
568.7776379412984
 31
0.0
  0
LINE
  5
1EA
330
36
100
AcDbEntity
  8
0
  6
Continuous
 62
     7
100
AcDbLine
 10
-104.0348973145007
 20
564.1890911406731
 30
0.0
 11
-104.0348973145002
 21
564.2687257519444
 31
0.0
  0
LINE
  5
1EB
330
36
100
AcDbEntity
  8
0
  6
Continuous
 62
     7
100
AcDbLine
 10
-435.1226861772267
 20
764.7224615643894
 30
0.0
 11
-723.2637477993945
 21
761.8269043728296
 31
0.0
  0
LINE
  5
1EC
330
36
100
AcDbEntity
  8
0
  6
Continuous
 62
     7
100
AcDbLine
 10
-721.5795009553436
 20
744.3351341657758
 30
0.0
 11
-435.2704977480528
 21
752.7177840651443
 31
0.0
  0
LINE
  5
1ED
330
36
100
AcDbEntity
  8
0
  6
Continuous
 62
     7
100
AcDbLine
 10
-723.2637477993945
 20
761.8269043728296
 30
0.0
 11
-739.8151386871792
 21
761.6605778567628
 31
0.0
  0
LINE
  5
1EE
330
36
100
AcDbEntity
  8
0
  6
Continuous
 62
     7
100
AcDbLine
 10
-739.8151386871792
 20
743.8012251196567
 30
0.0
 11
-721.5795009553436
 21
744.3351341657758
 31
0.0
  0
LINE
  5
1EF
330
36
100
AcDbEntity
  8
0
  6
Continuous
 62
     7
100
AcDbLine
 10
-747.9555285331682
 20
743.5628880874332
 30
0.0
 11
-743.5617109076787
 21
743.6915317363006
 31
0.0
  0
LINE
  5
1F0
330
36
100
AcDbEntity
  8
0
  6
Continuous
 62
     7
100
AcDbLine
 10
-739.8151386871792
 20
761.6605778567628
 30
0.0
 11
-743.3502024761255
 21
761.6250536613597
 31
0.0
  0
LINE
  5
1F1
330
36
100
AcDbEntity
  8
0
  6
Continuous
 62
     7
100
AcDbLine
 10
-743.5617109076787
 20
743.6915317363006
 30
0.0
 11
-739.8151386871792
 21
743.8012251196567
 31
0.0
  0
LINE
  5
1F2
330
36
100
AcDbEntity
  8
0
  6
Continuous
 62
     7
100
AcDbLine
 10
-743.3502024761255
 20
761.6250536613597
 30
0.0
 11
-744.2698486338618
 21
761.6158120488288
 31
0.0
  0
LINE
  5
1F3
330
36
100
AcDbEntity
  8
0
  6
Continuous
 62
     7
100
AcDbLine
 10
-756.2313312792295
 20
743.3205863914359
 30
0.0
 11
-749.6331782821735
 21
743.5137693019876
 31
0.0
  0
LINE
  5
1F4
330
36
100
AcDbEntity
  8
0
  6
Continuous
 62
     7
100
AcDbLine
 10
-750.6012594624641
 20
761.5521870935578
 30
0.0
 11
-753.8837232731223
 21
761.5192012995877
 31
0.0
  0
LINE
  5
1F5
330
36
100
AcDbEntity
  8
0
  6
Continuous
 62
     7
100
AcDbLine
 10
-744.2698486338618
 20
761.6158120488288
 30
0.0
 11
-747.9555285331682
 21
761.5787742976727
 31
0.0
  0
LINE
  5
1F6
330
36
100
AcDbEntity
  8
0
  6
Continuous
 62
     7
100
AcDbLine
 10
-747.9555285331682
 20
761.5787742976727
 30
0.0
 11
-750.6012594624641
 21
761.5521870935578
 31
0.0
  0
LINE
  5
1F7
330
36
100
AcDbEntity
  8
0
  6
Continuous
 62
     7
100
AcDbLine
 10
-749.6331782821735
 20
743.5137693019876
 30
0.0
 11
-747.9555285331682
 21
743.5628880874332
 31
0.0
  0
LINE
  5
1F8
330
36
100
AcDbEntity
  8
0
  6
Continuous
 62
     7
100
AcDbLine
 10
-753.8837232731223
 20
761.5192012995877
 30
0.0
 11
-755.2747123692125
 21
761.5052231166176
 31
0.0
  0
LINE
  5
1F9
330
36
100
AcDbEntity
  8
0
  6
Continuous
 62
     7
100
AcDbLine
 10
-755.2747123692125
 20
761.5052231166176
 30
0.0
 11
-756.5886161245564
 21
761.4920195716372
 31
0.0
  0
LINE
  5
1FA
330
36
100
AcDbEntity
  8
0
  6
Continuous
 62
     7
100
AcDbLine
 10
-404.8960394204032
 20
536.716883418374
 30
0.0
 11
-388.9228666941242
 21
537.3451574264841
 31
0.0
  0
LINE
  5
1FB
330
36
100
AcDbEntity
  8
1
  6
DOT_CENTER
 62
     2
100
AcDbLine
 10
-747.3151387021325
 20
760.5851244619209
 30
0.0
 11
-747.3151387021325
 21
744.5851244619207
 31
0.0
  0
LINE
  5
1FC
330
36
100
AcDbEntity
  8
1
  6
DOT_CENTER
 62
     2
100
AcDbLine
 10
-739.3151387021323
 20
752.5851244619208
 30
0.0
 11
-755.3151387021326
 21
752.5851244619208
 31
0.0
  0
LINE
  5
1FD
330
36
100
AcDbEntity
  8
1
  6
DOT_CENTER
 62
     2
100
AcDbLine
 10
-397.7619164165296
 20
566.8277088106031
 30
0.0
 11
-397.7619164165296
 21
550.8277088106031
 31
0.0
  0
LINE
  5
1FE
330
36
100
AcDbEntity
  8
1
  6
DOT_CENTER
 62
     2
100
AcDbLine
 10
-389.7619164165296
 20
558.8277088106031
 30
0.0
 11
-405.7619164165296
 21
558.8277088106031
 31
0.0
  0
LINE
  5
1FF
330
36
100
AcDbEntity
  8
0
  6
Continuous
 62
     7
100
AcDbLine
 10
-435.1226861772267
 20
764.7224615643894
 30
0.0
 11
-723.2637477993945
 21
761.8269043728296
 31
0.0
  0
LINE
  5
200
330
36
100
AcDbEntity
  8
0
  6
Continuous
 62
     7
100
AcDbLine
 10
-721.5795009553436
 20
744.3351341657758
 30
0.0
 11
-435.2704977480528
 21
752.7177840651443
 31
0.0
  0
LINE
  5
201
330
36
100
AcDbEntity
  8
0
  6
Continuous
 62
     7
100
AcDbLine
 10
-723.2637477993945
 20
761.8269043728296
 30
0.0
 11
-739.8151386871792
 21
761.6605778567628
 31
0.0
  0
LINE
  5
202
330
36
100
AcDbEntity
  8
0
  6
Continuous
 62
     7
100
AcDbLine
 10
-739.8151386871792
 20
743.8012251196567
 30
0.0
 11
-721.5795009553436
 21
744.3351341657758
 31
0.0
  0
LINE
  5
203
330
36
100
AcDbEntity
  8
0
  6
Continuous
 62
     7
100
AcDbLine
 10
-747.9555285331682
 20
743.5628880874332
 30
0.0
 11
-743.5617109076787
 21
743.6915317363006
 31
0.0
  0
LINE
  5
204
330
36
100
AcDbEntity
  8
0
  6
Continuous
 62
     7
100
AcDbLine
 10
-739.8151386871792
 20
761.6605778567628
 30
0.0
 11
-743.3502024761255
 21
761.6250536613597
 31
0.0
  0
LINE
  5
205
330
36
100
AcDbEntity
  8
0
  6
Continuous
 62
     7
100
AcDbLine
 10
-743.5617109076787
 20
743.6915317363006
 30
0.0
 11
-739.8151386871792
 21
743.8012251196567
 31
0.0
  0
LINE
  5
206
330
36
100
AcDbEntity
  8
0
  6
Continuous
 62
     7
100
AcDbLine
 10
-743.3502024761255
 20
761.6250536613597
 30
0.0
 11
-744.2698486338618
 21
761.6158120488288
 31
0.0
  0
LINE
  5
207
330
36
100
AcDbEntity
  8
0
  6
Continuous
 62
     7
100
AcDbLine
 10
-756.2313312792295
 20
743.3205863914359
 30
0.0
 11
-749.6331782821735
 21
743.5137693019876
 31
0.0
  0
LINE
  5
208
330
36
100
AcDbEntity
  8
0
  6
Continuous
 62
     7
100
AcDbLine
 10
-750.6012594624641
 20
761.5521870935578
 30
0.0
 11
-753.8837232731223
 21
761.5192012995877
 31
0.0
  0
LINE
  5
209
330
36
100
AcDbEntity
  8
0
  6
Continuous
 62
     7
100
AcDbLine
 10
-744.2698486338618
 20
761.6158120488288
 30
0.0
 11
-747.9555285331682
 21
761.5787742976727
 31
0.0
  0
LINE
  5
20A
330
36
100
AcDbEntity
  8
0
  6
Continuous
 62
     7
100
AcDbLine
 10
-747.9555285331682
 20
761.5787742976727
 30
0.0
 11
-750.6012594624641
 21
761.5521870935578
 31
0.0
  0
LINE
  5
20B
330
36
100
AcDbEntity
  8
0
  6
Continuous
 62
     7
100
AcDbLine
 10
-749.6331782821735
 20
743.5137693019876
 30
0.0
 11
-747.9555285331682
 21
743.5628880874332
 31
0.0
  0
LINE
  5
20C
330
36
100
AcDbEntity
  8
0
  6
Continuous
 62
     7
100
AcDbLine
 10
-753.8837232731223
 20
761.5192012995877
 30
0.0
 11
-755.2747123692125
 21
761.5052231166176
 31
0.0
  0
LINE
  5
20D
330
36
100
AcDbEntity
  8
0
  6
Continuous
 62
     7
100
AcDbLine
 10
-755.2747123692125
 20
761.5052231166176
 30
0.0
 11
-756.5886161245564
 21
761.4920195716372
 31
0.0
  0
LINE
  5
20E
330
36
100
AcDbEntity
  8
0
  6
Continuous
 62
     7
100
AcDbLine
 10
-404.8960394204032
 20
536.716883418374
 30
0.0
 11
-388.9228666941242
 21
537.3451574264841
 31
0.0
  0
LINE
  5
20F
330
36
100
AcDbEntity
  8
0
  6
Continuous
 62
     7
100
AcDbLine
 10
-711.2484361881881
 20
566.4802697109672
 30
0.0
 11
-711.2609205877075
 21
566.4797786611391
 31
0.0
  0
LINE
  5
210
330
36
100
AcDbEntity
  8
0
  6
Continuous
 62
     7
100
AcDbLine
 10
-289.0096580598014
 20
574.0887679116281
 30
0.0
 11
-281.1713402022909
 21
583.3965245791351
 31
0.0
  0
LINE
  5
211
330
36
100
AcDbEntity
  8
0
  6
Continuous
 62
     7
100
AcDbLine
 10
-711.2609205877075
 20
566.4797786611391
 30
0.0
 11
-765.5451869153798
 21
564.3446115176071
 31
0.0
  0
LINE
  5
212
330
36
100
AcDbEntity
  8
0
  6
Continuous
 62
     7
100
AcDbLine
 10
-406.4849273752514
 20
578.4675557992391
 30
0.0
 11
-711.2484361881881
 21
566.4802697109672
 31
0.0
  0
LINE
  5
213
330
36
100
AcDbEntity
  8
0
  6
Continuous
 62
     7
100
AcDbLine
 10
-767.4744986915755
 20
564.268725751936
 30
0.0
 11
-759.918257265996
 21
555.566664584858
 31
0.0
  0
LINE
  5
214
330
36
100
AcDbEntity
  8
0
  6
Continuous
 62
     7
100
AcDbLine
 10
-289.0096580598014
 20
574.0887679116281
 30
0.0
 11
-298.8726193667164
 21
562.3768106352561
 31
0.0
  0
LINE
  5
215
330
36
100
AcDbEntity
  8
0
  6
Continuous
 62
     7
100
AcDbLine
 10
-326.1717950546032
 20
529.9598955336439
 30
0.0
 11
-324.1364443812038
 21
532.3768106352561
 31
0.0
  0
LINE
  5
216
330
36
100
AcDbEntity
  8
0
  6
Continuous
 62
     7
100
AcDbLine
 10
-326.1717950546032
 20
529.9598955336439
 30
0.0
 11
-720.4456230919736
 21
514.451893305247
 31
0.0
  0
LINE
  5
217
330
36
100
AcDbEntity
  8
0
  6
Continuous
 62
     7
100
AcDbLine
 10
-765.5451869153798
 20
564.3446115176071
 30
0.0
 11
-767.4744986915755
 21
564.268725751936
 31
0.0
  0
LINE
  5
218
330
36
100
AcDbEntity
  8
0
  6
Continuous
 62
     7
100
AcDbLine
 10
-759.918257265996
 20
555.566664584858
 30
0.0
 11
-759.9181060126136
 21
555.5664903955772
 31
0.0
  0
LINE
  5
219
330
36
100
AcDbEntity
  8
0
  6
Continuous
 62
     7
100
AcDbLine
 10
-281.1713402022909
 20
583.3965245791351
 30
0.0
 11
-389.8189860472464
 21
579.1230785270329
 31
0.0
  0
LINE
  5
21A
330
36
100
AcDbEntity
  8
0
  6
Continuous
 62
     7
100
AcDbLine
 10
-711.2484361881881
 20
566.4802697109672
 30
0.0
 11
-711.2609205877075
 21
566.4797786611391
 31
0.0
  0
LINE
  5
21B
330
36
100
AcDbEntity
  8
0
  6
Continuous
 62
     7
100
AcDbLine
 10
-289.0096580598014
 20
574.0887679116281
 30
0.0
 11
-281.1713402022909
 21
583.3965245791351
 31
0.0
  0
LINE
  5
21C
330
36
100
AcDbEntity
  8
0
  6
Continuous
 62
     7
100
AcDbLine
 10
-711.2609205877075
 20
566.4797786611391
 30
0.0
 11
-765.5451869153798
 21
564.3446115176071
 31
0.0
  0
LINE
  5
21D
330
36
100
AcDbEntity
  8
0
  6
Continuous
 62
     7
100
AcDbLine
 10
-406.4849273752514
 20
578.4675557992391
 30
0.0
 11
-711.2484361881881
 21
566.4802697109672
 31
0.0
  0
LINE
  5
21E
330
36
100
AcDbEntity
  8
0
  6
Continuous
 62
     7
100
AcDbLine
 10
-767.4744986915755
 20
564.268725751936
 30
0.0
 11
-759.918257265996
 21
555.566664584858
 31
0.0
  0
LINE
  5
21F
330
36
100
AcDbEntity
  8
0
  6
Continuous
 62
     7
100
AcDbLine
 10
-289.0096580598014
 20
574.0887679116281
 30
0.0
 11
-298.8726193667164
 21
562.3768106352561
 31
0.0
  0
LINE
  5
220
330
36
100
AcDbEntity
  8
0
  6
Continuous
 62
     7
100
AcDbLine
 10
-298.8726193667164
 20
562.3768106352561
 30
0.0
 11
-324.1364443812038
 21
532.3768106352561
 31
0.0
  0
LINE
  5
221
330
36
100
AcDbEntity
  8
0
  6
Continuous
 62
     7
100
AcDbLine
 10
-326.1717950546032
 20
529.9598955336439
 30
0.0
 11
-324.1364443812038
 21
532.3768106352561
 31
0.0
  0
LINE
  5
222
330
36
100
AcDbEntity
  8
0
  6
Continuous
 62
     7
100
AcDbLine
 10
-326.1717950546032
 20
529.9598955336439
 30
0.0
 11
-720.4456230919736
 21
514.451893305247
 31
0.0
  0
LINE
  5
223
330
36
100
AcDbEntity
  8
0
  6
Continuous
 62
     7
100
AcDbLine
 10
-765.5451869153798
 20
564.3446115176071
 30
0.0
 11
-767.4744986915755
 21
564.268725751936
 31
0.0
  0
LINE
  5
224
330
36
100
AcDbEntity
  8
0
  6
Continuous
 62
     7
100
AcDbLine
 10
-759.918257265996
 20
555.566664584858
 30
0.0
 11
-759.9181060126136
 21
555.5664903955772
 31
0.0
  0
LINE
  5
225
330
36
100
AcDbEntity
  8
0
  6
Continuous
 62
     7
100
AcDbLine
 10
-759.9181060126136
 20
555.5664903955772
 30
0.0
 11
-724.0926004606831
 21
514.3084464692261
 31
0.0
  0
LINE
  5
226
330
36
100
AcDbEntity
  8
0
  6
Continuous
 62
     7
100
AcDbLine
 10
-281.1713402022909
 20
583.3965245791351
 30
0.0
 11
-389.8189860472464
 21
579.1230785270329
 31
0.0
  0
LINE
  5
227
330
36
100
AcDbEntity
  8
0
  6
Continuous
 62
     7
100
AcDbLine
 10
-289.0096580598014
 20
574.0887679116281
 30
0.0
 11
-281.1713402022909
 21
583.3965245791351
 31
0.0
  0
LINE
  5
228
330
36
100
AcDbEntity
  8
0
  6
Continuous
 62
     7
100
AcDbLine
 10
-289.0096580598014
 20
574.0887679116281
 30
0.0
 11
-298.8726193667164
 21
562.3768106352561
 31
0.0
  0
LINE
  5
229
330
36
100
AcDbEntity
  8
0
  6
Continuous
 62
     7
100
AcDbLine
 10
-326.1717950546032
 20
529.9598955336439
 30
0.0
 11
-324.1364443812038
 21
532.3768106352561
 31
0.0
  0
LINE
  5
22A
330
36
100
AcDbEntity
  8
0
  6
Continuous
 62
     7
100
AcDbLine
 10
-281.1713402022909
 20
126.1679768170141
 30
0.0
 11
-301.1713402022914
 21
126.167976817022
 31
0.0
  0
LINE
  5
22B
330
36
100
AcDbEntity
  8
0
  6
Continuous
 62
     7
100
AcDbLine
 10
-326.1717950546032
 20
529.9598955336439
 30
0.0
 11
-301.1713402022914
 21
126.167976817022
 31
0.0
  0
LINE
  5
22C
330
36
100
AcDbEntity
  8
0
  6
Continuous
 62
     7
100
AcDbLine
 10
-281.1713402022876
 20
532.4786105461551
 30
0.0
 11
-281.1713402022909
 21
583.3965245791351
 31
0.0
  0
LINE
  5
22D
330
36
100
AcDbEntity
  8
0
  6
Continuous
 62
     7
100
AcDbLine
 10
-281.1713402022876
 20
532.4786105461551
 30
0.0
 11
-281.1713402022909
 21
126.1679768170141
 31
0.0
  0
LINE
  5
22E
330
36
100
AcDbEntity
  8
0
  6
Continuous
 62
     7
100
AcDbLine
 10
-289.0096580598014
 20
574.0887679116281
 30
0.0
 11
-281.1713402022909
 21
583.3965245791351
 31
0.0
  0
LINE
  5
22F
330
36
100
AcDbEntity
  8
0
  6
Continuous
 62
     7
100
AcDbLine
 10
-289.0096580598014
 20
574.0887679116281
 30
0.0
 11
-298.8726193667164
 21
562.3768106352561
 31
0.0
  0
LINE
  5
230
330
36
100
AcDbEntity
  8
0
  6
Continuous
 62
     7
100
AcDbLine
 10
-298.8726193667164
 20
562.3768106352561
 30
0.0
 11
-324.1364443812038
 21
532.3768106352561
 31
0.0
  0
LINE
  5
231
330
36
100
AcDbEntity
  8
0
  6
Continuous
 62
     7
100
AcDbLine
 10
-326.1717950546032
 20
529.9598955336439
 30
0.0
 11
-324.1364443812038
 21
532.3768106352561
 31
0.0
  0
LINE
  5
232
330
36
100
AcDbEntity
  8
0
  6
Continuous
 62
     7
100
AcDbLine
 10
-281.1713402022909
 20
126.1679768170141
 30
0.0
 11
-301.1713402022914
 21
126.167976817022
 31
0.0
  0
LINE
  5
233
330
36
100
AcDbEntity
  8
0
  6
Continuous
 62
     7
100
AcDbLine
 10
-326.1717950546032
 20
529.9598955336439
 30
0.0
 11
-301.1713402022914
 21
126.167976817022
 31
0.0
  0
LINE
  5
234
330
36
100
AcDbEntity
  8
0
  6
Continuous
 62
     7
100
AcDbLine
 10
-281.1713402022876
 20
532.4786105461551
 30
0.0
 11
-281.1713402022909
 21
583.3965245791351
 31
0.0
  0
LINE
  5
235
330
36
100
AcDbEntity
  8
0
  6
Continuous
 62
     7
100
AcDbLine
 10
-281.1713402022876
 20
532.4786105461551
 30
0.0
 11
-281.1713402022909
 21
126.1679768170141
 31
0.0
  0
LINE
  5
236
330
36
100
AcDbEntity
  8
0
  6
Continuous
 62
     7
100
AcDbLine
 10
-770.2677166563867
 20
513.2409458659811
 30
0.0
 11
-767.4744986915755
 21
564.268725751936
 31
0.0
  0
LINE
  5
237
330
36
100
AcDbEntity
  8
0
  6
Continuous
 62
     7
100
AcDbLine
 10
-770.2678283790365
 20
513.238904865653
 30
0.0
 11
-770.2677166563867
 21
513.2409458659811
 31
0.0
  0
LINE
  5
238
330
36
100
AcDbEntity
  8
0
  6
Continuous
 62
     7
100
AcDbLine
 10
-767.4744986915755
 20
564.268725751936
 30
0.0
 11
-759.918257265996
 21
555.566664584858
 31
0.0
  0
LINE
  5
239
330
36
100
AcDbEntity
  8
0
  6
Continuous
 62
     7
100
AcDbLine
 10
-791.4557670332048
 20
126.167976817022
 30
0.0
 11
-770.2678283790365
 21
513.238904865653
 31
0.0
  0
LINE
  5
23A
330
36
100
AcDbEntity
  8
0
  6
Continuous
 62
     7
100
AcDbLine
 10
-759.918257265996
 20
555.566664584858
 30
0.0
 11
-759.9181060126136
 21
555.5664903955772
 31
0.0
  0
LINE
  5
23B
330
36
100
AcDbEntity
  8
0
  6
Continuous
 62
     7
100
AcDbLine
 10
-759.9181060126136
 20
555.5664903955772
 30
0.0
 11
-724.0926004606831
 21
514.3084464692261
 31
0.0
  0
LINE
  5
23C
330
36
100
AcDbEntity
  8
0
  6
Continuous
 62
     7
100
AcDbLine
 10
-771.4557670332047
 20
126.1679768170232
 30
0.0
 11
-791.4557670332048
 21
126.167976817022
 31
0.0
  0
LINE
  5
23D
330
36
100
AcDbEntity
  8
0
  6
Continuous
 62
     7
100
AcDbLine
 10
-771.4557670332047
 20
126.1679768170232
 30
0.0
 11
-724.2231122856856
 21
513.2389039382301
 31
0.0
  0
LINE
  5
23E
330
36
100
AcDbEntity
  8
0
  6
Continuous
 62
     7
100
AcDbLine
 10
-770.2677166563867
 20
513.2409458659811
 30
0.0
 11
-767.4744986915755
 21
564.268725751936
 31
0.0
  0
LINE
  5
23F
330
36
100
AcDbEntity
  8
0
  6
Continuous
 62
     7
100
AcDbLine
 10
-770.2678283790365
 20
513.238904865653
 30
0.0
 11
-770.2677166563867
 21
513.2409458659811
 31
0.0
  0
LINE
  5
240
330
36
100
AcDbEntity
  8
0
  6
Continuous
 62
     7
100
AcDbLine
 10
-767.4744986915755
 20
564.268725751936
 30
0.0
 11
-759.918257265996
 21
555.566664584858
 31
0.0
  0
LINE
  5
241
330
36
100
AcDbEntity
  8
0
  6
Continuous
 62
     7
100
AcDbLine
 10
-791.4557670332048
 20
126.167976817022
 30
0.0
 11
-770.2678283790365
 21
513.238904865653
 31
0.0
  0
LINE
  5
242
330
36
100
AcDbEntity
  8
0
  6
Continuous
 62
     7
100
AcDbLine
 10
-759.918257265996
 20
555.566664584858
 30
0.0
 11
-759.9181060126136
 21
555.5664903955772
 31
0.0
  0
LINE
  5
243
330
36
100
AcDbEntity
  8
0
  6
Continuous
 62
     7
100
AcDbLine
 10
-759.9181060126136
 20
555.5664903955772
 30
0.0
 11
-724.0926004606831
 21
514.3084464692261
 31
0.0
  0
LINE
  5
244
330
36
100
AcDbEntity
  8
0
  6
Continuous
 62
     7
100
AcDbLine
 10
-771.4557670332047
 20
126.1679768170232
 30
0.0
 11
-791.4557670332048
 21
126.167976817022
 31
0.0
  0
LINE
  5
245
330
36
100
AcDbEntity
  8
0
  6
Continuous
 62
     7
100
AcDbLine
 10
-771.4557670332047
 20
126.1679768170232
 30
0.0
 11
-724.2231122856856
 21
513.2389039382301
 31
0.0
  0
LINE
  5
246
330
36
100
AcDbEntity
  8
0
  6
Continuous
 62
     7
100
AcDbLine
 10
632.9906586397974
 20
126.167977206685
 30
0.0
 11
652.9906584883511
 21
126.1679772066921
 31
0.0
  0
LINE
  5
247
330
36
100
AcDbEntity
  8
0
  6
Continuous
 62
     7
100
AcDbLine
 10
1092.990658639789
 20
126.1679772066932
 30
0.0
 11
1112.990658639798
 21
126.167977206685
 31
0.0
  0
LINE
  5
248
330
36
100
AcDbEntity
  8
0
  6
Continuous
 62
     7
100
AcDbLine
 10
750.9312890223
 20
532.3768110249241
 30
0.0
 11
680.9312890223
 21
532.3768110249262
 31
0.0
  0
LINE
  5
249
330
36
100
AcDbEntity
  8
0
  6
Continuous
 62
     7
100
AcDbLine
 10
994.9906586397983
 20
532.3768110249191
 30
0.0
 11
750.9312890223
 21
532.3768110249241
 31
0.0
  0
LINE
  5
24A
330
36
100
AcDbEntity
  8
0
  6
Continuous
 62
     7
100
AcDbLine
 10
375.9651026855011
 20
126.167976817023
 30
0.0
 11
355.9651026855098
 21
126.1679768170305
 31
0.0
  0
LINE
  5
24B
330
36
100
AcDbEntity
  8
0
  6
Continuous
 62
     7
100
AcDbLine
 10
-84.03489731449076
 20
126.167976817031
 30
0.0
 11
-104.0348973144996
 21
126.167976817023
 31
0.0
  0
LINE
  5
24C
330
36
100
AcDbEntity
  8
0
  6
Continuous
 62
     7
100
AcDbLine
 10
-281.1713402022909
 20
126.1679768170141
 30
0.0
 11
-301.1713402022914
 21
126.167976817022
 31
0.0
  0
LINE
  5
24D
330
36
100
AcDbEntity
  8
0
  6
Continuous
 62
     7
100
AcDbLine
 10
-771.4557670332047
 20
126.1679768170232
 30
0.0
 11
-791.4557670332048
 21
126.167976817022
 31
0.0
  0
ARC
  5
24E
330
36
100
AcDbEntity
  8
0
  6
Continuous
 62
     7
100
AcDbCircle
 10
-1117.634301428818
 20
621.7595333376731
 30
0.0
 40
349.9999972739194
100
AcDbArc
 50
-2.085978060734
 51
10.69475816745579
  0
ARC
  5
24F
330
36
100
AcDbEntity
  8
0
  6
Continuous
 62
     7
100
AcDbCircle
 10
-411.8501821191344
 20
-1656.429567306452
 30
0.0
 40
2247.966999669488
100
AcDbArc
 50
92.27196879783281
 51
97.65690144335936
  0
ARC
  5
250
330
36
100
AcDbEntity
  8
0
  6
Continuous
 62
     7
100
AcDbCircle
 10
-411.8501821191622
 20
-1656.429567306455
 30
0.0
 40
2247.96699966949
100
AcDbArc
 50
89.87122755396693
 51
92.2719687978321
  0
ARC
  5
251
330
36
100
AcDbEntity
  8
0
  6
Continuous
 62
     7
100
AcDbCircle
 10
-411.8501821190281
 20
-1656.429567306459
 30
0.0
 40
2247.966999669491
100
AcDbArc
 50
86.6418710063103
 51
89.46152715928595
  0
ARC
  5
252
330
36
100
AcDbEntity
  8
0
  6
Continuous
 62
     7
100
AcDbCircle
 10
-1554.904720622249
 20
557.493609201181
 30
0.0
 40
1148.611304122232
100
AcDbArc
 50
1.69816163014136
 51
9.19115871408198
  0
ARC
  5
253
330
36
100
AcDbEntity
  8
0
  6
Continuous
 62
     7
100
AcDbCircle
 10
-434.8614228724833
 20
738.7237742612659
 30
0.0
 40
26.00000000000006
100
AcDbArc
 50
9.504657222801
 51
90.5757514089735
  0
ARC
  5
254
330
36
100
AcDbEntity
  8
0
  6
Continuous
 62
     7
100
AcDbCircle
 10
-434.860776680513
 20
738.7237807549112
 30
0.0
 40
14.00000000000001
100
AcDbArc
 50
9.19115871408243
 51
91.67704573459685
  0
ARC
  5
255
330
36
100
AcDbEntity
  8
0
  6
Continuous
 62
     7
100
AcDbCircle
 10
-2102.932032683812
 20
459.445100225578
 30
0.0
 40
1717.288306909105
100
AcDbArc
 50
3.99643768483195
 51
4.40817724376489
  0
ARC
  5
256
330
36
100
AcDbEntity
  8
0
  6
Continuous
 62
     7
100
AcDbCircle
 10
-1554.90472062225
 20
557.4936092012092
 30
0.0
 40
1148.611304122232
100
AcDbArc
 50
1.04666856693788
 51
1.69816163013995
  0
ARC
  5
257
330
36
100
AcDbEntity
  8
0
  6
Continuous
 62
     7
100
AcDbCircle
 10
-2102.932032683812
 20
459.4451002255933
 30
0.0
 40
1717.288306909104
100
AcDbArc
 50
4.40817724376438
 51
9.50465722280033
  0
ARC
  5
258
330
36
100
AcDbEntity
  8
0
  6
Continuous
 62
     7
100
AcDbCircle
 10
-747.3151387021342
 20
752.5851244619203
 30
0.0
 40
3.500000000011803
100
AcDbArc
 50
-100.5427158589362
 51
-39.61156398341235
  0
ARC
  5
259
330
36
100
AcDbEntity
  8
0
  6
Continuous
 62
     7
100
AcDbCircle
 10
-747.3151387021278
 20
752.585124461908
 30
0.0
 40
3.499999999998181
100
AcDbArc
 50
-0.00000000001117
 51
39.61156444952813
  0
ARC
  5
25A
330
36
100
AcDbEntity
  8
0
  6
Continuous
 62
     7
100
AcDbCircle
 10
-747.3151387021364
 20
752.5851244619098
 30
0.0
 40
3.500000000006931
100
AcDbArc
 50
-39.61156398325672
 51
-0.00000000004094
  0
ARC
  5
25B
330
36
100
AcDbEntity
  8
0
  6
Continuous
 62
     7
100
AcDbCircle
 10
-747.3151387021255
 20
752.5851244619183
 30
0.0
 40
3.499999999989883
100
AcDbArc
 50
39.61156444942139
 51
100.5427158591468
  0
ARC
  5
25C
330
36
100
AcDbEntity
  8
0
  6
Continuous
 62
     7
100
AcDbCircle
 10
-747.3151387021366
 20
752.5851244619181
 30
0.0
 40
3.499999999988119
100
AcDbArc
 50
100.5427158589686
 51
145.9889328543195
  0
ARC
  5
25D
330
36
100
AcDbEntity
  8
0
  6
Continuous
 62
     7
100
AcDbCircle
 10
-747.3151387021245
 20
752.5851244619162
 30
0.0
 40
3.500000000009502
100
AcDbArc
 50
-139.8125488229425
 51
-100.542715859104
  0
ARC
  5
25E
330
36
100
AcDbEntity
  8
0
  6
Continuous
 62
     7
100
AcDbCircle
 10
-747.3151387021317
 20
752.5851244619072
 30
0.0
 40
3.499999999998256
100
AcDbArc
 50
145.9889328542162
 51
-139.8125488229792
  0
ARC
  5
25F
330
36
100
AcDbEntity
  8
0
  6
Continuous
 62
     7
100
AcDbCircle
 10
-756.497295632819
 20
752.4045860667493
 30
0.0
 40
9.087892337498891
100
AcDbArc
 50
90.57575140895538
 51
119.5072224814021
  0
ARC
  5
260
330
36
100
AcDbEntity
  8
0
  6
Continuous
 62
     7
100
AcDbCircle
 10
-756.4972956328131
 20
752.4045860667478
 30
0.0
 40
9.087892337524931
100
AcDbArc
 50
-119.5072224813533
 51
-88.322954265424
  0
ARC
  5
261
330
36
100
AcDbEntity
  8
0
  6
Continuous
 62
     7
100
AcDbCircle
 10
-756.497295632819
 20
752.4045860667355
 30
0.0
 40
9.087892337511233
100
AcDbArc
 50
119.5072224813594
 51
-119.507222481359
  0
ARC
  5
262
330
36
100
AcDbEntity
  8
0
  6
Continuous
 62
     7
100
AcDbCircle
 10
-2102.932032683812
 20
459.445100225571
 30
0.0
 40
1717.288306909105
100
AcDbArc
 50
2.65233592392336
 51
3.9961872674726
  0
ARC
  5
263
330
36
100
AcDbEntity
  8
0
  6
Continuous
 62
     7
100
AcDbCircle
 10
-1554.904720622249
 20
557.4936092011865
 30
0.0
 40
1148.611304122232
100
AcDbArc
 50
-0.00445358717254
 51
1.04629425853084
  0
LINE
  5
264
330
36
100
AcDbEntity
  8
0
  6
Continuous
 62
     7
100
AcDbLine
 10
-389.8189860472464
 20
579.1230785270329
 30
0.0
 11
-389.8195091290696
 21
579.130565870498
 31
0.0
  0
LINE
  5
265
330
36
100
AcDbEntity
  8
0
  6
Continuous
 62
     7
100
AcDbLine
 10
-406.4849273752514
 20
578.4675557992391
 30
0.0
 11
-406.4850644207506
 21
578.475058326698
 31
0.0
  0
ARC
  5
266
330
36
100
AcDbEntity
  8
0
  6
Continuous
 62
     7
100
AcDbCircle
 10
-397.7619164165267
 20
558.827708810589
 30
0.0
 40
3.499999999999948
100
AcDbArc
 50
3.14631522702918
 51
-167.8420744929018
  0
ARC
  5
267
330
36
100
AcDbEntity
  8
0
  6
Continuous
 62
     7
100
AcDbCircle
 10
-388.981820721315
 20
538.84399845297
 30
0.0
 40
1.499999999999807
100
AcDbArc
 50
-87.74754188804812
 51
2.65233592392976
  0
ARC
  5
268
330
36
100
AcDbEntity
  8
0
  6
Continuous
 62
     7
100
AcDbCircle
 10
-1554.904720622249
 20
557.4936092011437
 30
0.0
 40
1148.611304122232
100
AcDbArc
 50
-0.19575381947246
 51
-0.0044535871704
  0
ARC
  5
269
330
36
100
AcDbEntity
  8
0
  6
Continuous
 62
     7
100
AcDbCircle
 10
-397.7619164165267
 20
558.827708810589
 30
0.0
 40
3.5
100
AcDbArc
 50
0.0
 51
3.14631522702918
  0
ARC
  5
26A
330
36
100
AcDbEntity
  8
0
  6
Continuous
 62
     7
100
AcDbCircle
 10
-397.7619164165267
 20
558.827708810589
 30
0.0
 40
3.499999999999994
100
AcDbArc
 50
-7.40187507082875
 51
0.0
  0
ARC
  5
26B
330
36
100
AcDbEntity
  8
0
  6
Continuous
 62
     7
100
AcDbCircle
 10
-404.954993447594
 20
538.2157244448601
 30
0.0
 40
1.500000000000065
100
AcDbArc
 50
179.039577162303
 51
-87.74754188804845
  0
ARC
  5
26C
330
36
100
AcDbEntity
  8
0
  6
Continuous
 62
     7
100
AcDbCircle
 10
-1554.904720622249
 20
557.4936092011908
 30
0.0
 40
1148.611304122232
100
AcDbArc
 50
-0.96042283768497
 51
-0.19575381947481
  0
ARC
  5
26D
330
36
100
AcDbEntity
  8
0
  6
Continuous
 62
     7
100
AcDbCircle
 10
-397.7619164165267
 20
558.827708810589
 30
0.0
 40
3.499999999999991
100
AcDbArc
 50
-167.8420744929018
 51
-7.40187507082875
  0
ARC
  5
26E
330
36
100
AcDbEntity
  8
0
  6
Continuous
 62
     7
100
AcDbCircle
 10
-1554.904720622249
 20
557.493609201181
 30
0.0
 40
1148.611304122232
100
AcDbArc
 50
1.69816163014136
 51
9.19115871408198
  0
ARC
  5
26F
330
36
100
AcDbEntity
  8
0
  6
Continuous
 62
     7
100
AcDbCircle
 10
-434.8614228724833
 20
738.7237742612659
 30
0.0
 40
26.00000000000006
100
AcDbArc
 50
9.504657222801
 51
90.5757514089735
  0
ARC
  5
270
330
36
100
AcDbEntity
  8
0
  6
Continuous
 62
     7
100
AcDbCircle
 10
-434.860776680513
 20
738.7237807549112
 30
0.0
 40
14.00000000000001
100
AcDbArc
 50
9.19115871408243
 51
91.67704573459685
  0
ARC
  5
271
330
36
100
AcDbEntity
  8
0
  6
Continuous
 62
     7
100
AcDbCircle
 10
-2102.932032683812
 20
459.445100225578
 30
0.0
 40
1717.288306909105
100
AcDbArc
 50
3.99643768483195
 51
4.40817724376489
  0
ARC
  5
272
330
36
100
AcDbEntity
  8
0
  6
Continuous
 62
     7
100
AcDbCircle
 10
-1554.90472062225
 20
557.4936092012092
 30
0.0
 40
1148.611304122232
100
AcDbArc
 50
1.04666856693788
 51
1.69816163013995
  0
ARC
  5
273
330
36
100
AcDbEntity
  8
0
  6
Continuous
 62
     7
100
AcDbCircle
 10
-2102.932032683812
 20
459.4451002255933
 30
0.0
 40
1717.288306909104
100
AcDbArc
 50
4.40817724376438
 51
9.50465722280033
  0
ARC
  5
274
330
36
100
AcDbEntity
  8
0
  6
Continuous
 62
     7
100
AcDbCircle
 10
-747.3151387021342
 20
752.5851244619203
 30
0.0
 40
3.500000000011803
100
AcDbArc
 50
-100.5427158589362
 51
-39.61156398341235
  0
ARC
  5
275
330
36
100
AcDbEntity
  8
0
  6
Continuous
 62
     7
100
AcDbCircle
 10
-747.3151387021278
 20
752.585124461908
 30
0.0
 40
3.499999999998181
100
AcDbArc
 50
-0.00000000001117
 51
39.61156444952813
  0
ARC
  5
276
330
36
100
AcDbEntity
  8
0
  6
Continuous
 62
     7
100
AcDbCircle
 10
-747.3151387021364
 20
752.5851244619098
 30
0.0
 40
3.500000000006931
100
AcDbArc
 50
-39.61156398325672
 51
-0.00000000004094
  0
ARC
  5
277
330
36
100
AcDbEntity
  8
0
  6
Continuous
 62
     7
100
AcDbCircle
 10
-747.3151387021255
 20
752.5851244619183
 30
0.0
 40
3.499999999989883
100
AcDbArc
 50
39.61156444942139
 51
100.5427158591468
  0
ARC
  5
278
330
36
100
AcDbEntity
  8
0
  6
Continuous
 62
     7
100
AcDbCircle
 10
-747.3151387021366
 20
752.5851244619181
 30
0.0
 40
3.499999999988119
100
AcDbArc
 50
100.5427158589686
 51
145.9889328543195
  0
ARC
  5
279
330
36
100
AcDbEntity
  8
0
  6
Continuous
 62
     7
100
AcDbCircle
 10
-747.3151387021245
 20
752.5851244619162
 30
0.0
 40
3.500000000009502
100
AcDbArc
 50
-139.8125488229425
 51
-100.542715859104
  0
ARC
  5
27A
330
36
100
AcDbEntity
  8
0
  6
Continuous
 62
     7
100
AcDbCircle
 10
-747.3151387021317
 20
752.5851244619072
 30
0.0
 40
3.499999999998256
100
AcDbArc
 50
145.9889328542162
 51
-139.8125488229792
  0
ARC
  5
27B
330
36
100
AcDbEntity
  8
0
  6
Continuous
 62
     7
100
AcDbCircle
 10
-756.497295632819
 20
752.4045860667493
 30
0.0
 40
9.087892337498891
100
AcDbArc
 50
90.57575140895538
 51
119.5072224814021
  0
ARC
  5
27C
330
36
100
AcDbEntity
  8
0
  6
Continuous
 62
     7
100
AcDbCircle
 10
-756.4972956328131
 20
752.4045860667478
 30
0.0
 40
9.087892337524931
100
AcDbArc
 50
-119.5072224813533
 51
-88.322954265424
  0
ARC
  5
27D
330
36
100
AcDbEntity
  8
0
  6
Continuous
 62
     7
100
AcDbCircle
 10
-756.497295632819
 20
752.4045860667355
 30
0.0
 40
9.087892337511233
100
AcDbArc
 50
119.5072224813594
 51
-119.507222481359
  0
ARC
  5
27E
330
36
100
AcDbEntity
  8
0
  6
Continuous
 62
     7
100
AcDbCircle
 10
-2102.932032683812
 20
459.445100225571
 30
0.0
 40
1717.288306909105
100
AcDbArc
 50
2.65233592392336
 51
3.9961872674726
  0
ARC
  5
27F
330
36
100
AcDbEntity
  8
0
  6
Continuous
 62
     7
100
AcDbCircle
 10
-1554.904720622249
 20
557.4936092011865
 30
0.0
 40
1148.611304122232
100
AcDbArc
 50
-0.00445358717254
 51
1.04629425853084
  0
LINE
  5
280
330
36
100
AcDbEntity
  8
0
  6
Continuous
 62
     7
100
AcDbLine
 10
-389.8189860472464
 20
579.1230785270329
 30
0.0
 11
-389.8195091290696
 21
579.130565870498
 31
0.0
  0
LINE
  5
281
330
36
100
AcDbEntity
  8
0
  6
Continuous
 62
     7
100
AcDbLine
 10
-406.4849273752514
 20
578.4675557992391
 30
0.0
 11
-406.4850644207506
 21
578.475058326698
 31
0.0
  0
ARC
  5
282
330
36
100
AcDbEntity
  8
0
  6
Continuous
 62
     7
100
AcDbCircle
 10
-397.7619164165296
 20
558.8277088106031
 30
0.0
 40
3.500000000002069
100
AcDbArc
 50
3.14631522679615
 51
-167.8420744926662
  0
ARC
  5
283
330
36
100
AcDbEntity
  8
0
  6
Continuous
 62
     7
100
AcDbCircle
 10
-388.981820721315
 20
538.84399845297
 30
0.0
 40
1.499999999999807
100
AcDbArc
 50
-87.74754188804812
 51
2.65233592392976
  0
ARC
  5
284
330
36
100
AcDbEntity
  8
0
  6
Continuous
 62
     7
100
AcDbCircle
 10
-1554.904720622249
 20
557.4936092011437
 30
0.0
 40
1148.611304122232
100
AcDbArc
 50
-0.19575381947246
 51
-0.0044535871704
  0
ARC
  5
285
330
36
100
AcDbEntity
  8
0
  6
Continuous
 62
     7
100
AcDbCircle
 10
-397.7619164165292
 20
558.8277088105886
 30
0.0
 40
3.500000000002501
100
AcDbArc
 50
0.00000000000744
 51
3.14631522703437
  0
ARC
  5
286
330
36
100
AcDbEntity
  8
0
  6
Continuous
 62
     7
100
AcDbCircle
 10
-397.7619164165305
 20
558.8277088105888
 30
0.0
 40
3.500000000003741
100
AcDbArc
 50
-7.40187507081703
 51
0.00000000000372
  0
ARC
  5
287
330
36
100
AcDbEntity
  8
0
  6
Continuous
 62
     7
100
AcDbCircle
 10
-404.954993447594
 20
538.2157244448601
 30
0.0
 40
1.500000000000065
100
AcDbArc
 50
179.039577162303
 51
-87.74754188804845
  0
ARC
  5
288
330
36
100
AcDbEntity
  8
0
  6
Continuous
 62
     7
100
AcDbCircle
 10
-1554.904720622249
 20
557.4936092011908
 30
0.0
 40
1148.611304122232
100
AcDbArc
 50
-0.96042283768497
 51
-0.19575381947481
  0
ARC
  5
289
330
36
100
AcDbEntity
  8
0
  6
Continuous
 62
     7
100
AcDbCircle
 10
-397.7619164165272
 20
558.8277088106031
 30
0.0
 40
3.50000000000246
100
AcDbArc
 50
-167.8420744926745
 51
-7.40187507105652
  0
CIRCLE
  5
28A
330
36
100
AcDbEntity
  8
0
  6
Continuous
 62
     7
100
AcDbCircle
 10
-747.3151387021325
 20
752.5851244619208
 30
0.0
 40
6.000000000000114
  0
CIRCLE
  5
28B
330
36
100
AcDbEntity
  8
0
  6
Continuous
 62
     7
100
AcDbCircle
 10
-397.7619164165296
 20
558.8277088106031
 30
0.0
 40
6.0
  0
SPLINE
  5
28C
330
36
100
AcDbEntity
  8
0
  6
Continuous
 62
     7
100
AcDbSpline
210
0.0
220
0.0
230
1.0
 70
     8
 71
     3
 72
    15
 73
    11
 74
     9
 42
0.0000000001
 43
0.0000000001
 44
0.00000001
 40
0.0
 40
0.0
 40
0.0
 40
0.0
 40
6.091000844499728
 40
12.17426278143941
 40
15.22013641835053
 40
18.26389885119156
 40
20.83068612717045
 40
23.92648665421041
 40
35.32558393910029
 40
46.60000087389983
 40
46.60000087389983
 40
46.60000087389983
 40
46.60000087389983
 10
632.9906586398071
 20
1006.130393776992
 30
0.0
 10
635.0203596800754
 20
1006.079710695122
 30
0.0
 10
639.0771829284747
 20
1005.978408926658
 30
0.0
 10
644.1491224100817
 20
1005.857518776331
 30
0.0
 10
648.2056676396846
 20
1005.763580696858
 30
0.0
 10
651.0904029117561
 20
1005.698267115711
 30
0.0
 10
653.9918084557187
 20
1005.634010911883
 30
0.0
 10
659.6777172272051
 20
1005.511534200573
 30
0.0
 10
668.2657588941654
 20
1005.338143334348
 30
0.0
 10
675.8225953963779
 20
1005.214750016529
 30
0.0
 10
679.5802363429265
 20
1005.153392623997
 30
0.0
 11
632.9906586398071
 21
1006.130393776992
 31
0.0
 11
639.0797900616609
 21
1005.97949707362
 31
0.0
 11
645.1613191575808
 21
1005.834308751435
 31
0.0
 11
648.2063771917261
 21
1005.763826266255
 31
0.0
 11
651.2493600159592
 21
1005.694940280763
 31
0.0
 11
653.8155189749364
 21
1005.63815016377
 31
0.0
 11
656.9106005897428
 21
1005.571436590127
 31
0.0
 11
668.3074422062171
 21
1005.344676630292
 31
0.0
 11
679.5802363429265
 21
1005.153392623997
 31
0.0
  0
SPLINE
  5
28D
330
36
100
AcDbEntity
  8
0
  6
Continuous
 62
     7
100
AcDbSpline
210
0.0
220
0.0
230
1.0
 70
     8
 71
     3
 72
    43
 73
    39
 74
    37
 42
0.0000000001
 43
0.0000000001
 44
0.00000001
 40
0.0
 40
0.0
 40
0.0
 40
0.0
 40
1.77170367675991
 40
3.296764533278101
 40
5.501109050007842
 40
7.577248997399953
 40
11.67178023711413
 40
15.77819573911043
 40
23.7137437069381
 40
32.18403241450877
 40
36.59470203936635
 40
40.3142717322005
 40
44.25686937928064
 40
48.26223544980857
 40
56.13070739397936
 40
64.23523597126159
 40
78.51974843098253
 40
93.51677899884494
 40
109.1322091314778
 40
125.2833284101426
 40
141.4344476918746
 40
157.0498778212018
 40
172.0469083884323
 40
186.3314208487562
 40
194.4359494256237
 40
202.304421370236
 40
206.3097875851155
 40
210.2523850878517
 40
213.9719547809544
 40
218.3826244055414
 40
226.8529130931258
 40
234.7884610809387
 40
238.8948766053396
 40
242.9894078226489
 40
245.065547878548
 40
247.2698922868037
 40
248.794952933077
 40
250.5666568199844
 40
250.5666568199844
 40
250.5666568199844
 40
250.5666568199844
 10
747.707367531568
 20
1004.57288845081
 30
0.0
 10
748.2979331896165
 20
1004.571260368177
 30
0.0
 10
749.3968505433284
 20
1004.568230851924
 30
0.0
 10
751.2305489990104
 20
1004.564115868138
 30
0.0
 10
753.165727263741
 20
1004.560410416283
 30
0.0
 10
755.9573958105316
 20
1004.556053814085
 30
0.0
 10
759.383089294797
 20
1004.5521432638
 30
0.0
 10
764.7619196146609
 20
1004.548311165642
 30
0.0
 10
771.5993372070792
 20
1004.546799423272
 30
0.0
 10
778.5381726133102
 20
1004.548273389043
 30
0.0
 10
784.0716814533412
 20
1004.550655558845
 30
0.0
 10
788.0959598614254
 20
1004.55282636199
 30
0.0
 10
791.9851369388125
 20
1004.555207209188
 30
0.0
 10
797.2572809659913
 20
1004.558758556644
 30
0.0
 10
803.9167346669187
 20
1004.56370303611
 30
0.0
 10
814.0025692218919
 20
1004.571616326488
 30
0.0
 10
826.4645892949845
 20
1004.581348525801
 30
0.0
 10
841.4302437877395
 20
1004.591278395148
 30
0.0
 10
857.0181023534963
 20
1004.598316424249
 30
0.0
 10
872.9906586409391
 20
1004.600954678327
 30
0.0
 10
888.9632149272792
 20
1004.598316424249
 30
0.0
 10
904.5510734927461
 20
1004.591278395147
 30
0.0
 10
919.51672798439
 20
1004.5813485258
 30
0.0
 10
931.978748057334
 20
1004.571616326486
 30
0.0
 10
942.0645826125178
 20
1004.563703036108
 30
0.0
 10
948.7240363615709
 20
1004.558758556606
 30
0.0
 10
953.9961803888996
 20
1004.555207209153
 30
0.0
 10
957.8853574663789
 20
1004.552826361959
 30
0.0
 10
961.9096358263475
 20
1004.550655558842
 30
0.0
 10
967.4431446597159
 20
1004.548273389042
 30
0.0
 10
974.3819800658563
 20
1004.546799423267
 30
0.0
 10
981.2193976657426
 20
1004.548311165636
 30
0.0
 10
986.5982279922681
 20
1004.552143263801
 30
0.0
 10
990.0239215127025
 20
1004.556053814133
 30
0.0
 10
992.8155900520355
 20
1004.56041041634
 30
0.0
 10
994.7507682466958
 20
1004.56411586808
 30
0.0
 10
996.5844666661873
 20
1004.56823085175
 30
0.0
 10
997.6833840198668
 20
1004.571260367986
 30
0.0
 10
998.2739497479641
 20
1004.572888450804
 30
0.0
 11
747.707367531568
 21
1004.57288845081
 31
0.0
 11
749.4790649169801
 21
1004.568166928945
 31
0.0
 11
751.0041218156096
 21
1004.564692446737
 31
0.0
 11
753.2084622741145
 21
1004.560462619938
 31
0.0
 11
755.2845996600187
 21
1004.557201330586
 31
0.0
 11
759.3791281315872
 21
1004.552440184724
 31
0.0
 11
763.4855425447904
 21
1004.54944985488
 31
0.0
 11
771.4210902461884
 21
1004.547393515851
 31
0.0
 11
779.8913788078459
 21
1004.548965729197
 31
0.0
 11
784.3020480337916
 21
1004.550841612022
 31
0.0
 11
788.0216171951312
 21
1004.552830044071
 31
0.0
 11
791.964214109044
 21
1004.555234449885
 31
0.0
 11
795.9695792778016
 21
1004.557922170006
 31
0.0
 11
803.8380491013475
 21
1004.563699033423
 31
0.0
 11
811.9425752319662
 21
1004.569996501327
 31
0.0
 11
826.2270835377493
 21
1004.580890258079
 31
0.0
 11
841.2241109478173
 21
1004.590622424813
 31
0.0
 11
856.8395395644942
 21
1004.59750316648
 31
0.0
 11
872.9906586399164
 21
1004.600065428965
 31
0.0
 11
889.1417777184059
 21
1004.597503166479
 31
0.0
 11
904.7572063317772
 21
1004.590622424812
 31
0.0
 11
919.7542337412133
 21
1004.580890258078
 31
0.0
 11
934.0387420475993
 21
1004.569996501325
 31
0.0
 11
942.1432681778033
 21
1004.563699033421
 31
0.0
 11
950.0117380017907
 21
1004.557922170003
 31
0.0
 11
954.0171033148999
 21
1004.555234449789
 31
0.0
 11
957.9597000844688
 21
1004.552830044067
 31
0.0
 11
961.6792692460768
 21
1004.550841612018
 31
0.0
 11
966.089938471752
 21
1004.548965729193
 31
0.0
 11
974.5602270134232
 21
1004.547393515846
 31
0.0
 11
982.4957747348065
 21
1004.549449854876
 31
0.0
 11
986.6021891704143
 21
1004.552440184739
 31
0.0
 11
990.696717619578
 21
1004.557201330581
 31
0.0
 11
992.772855113989
 21
1004.56046262012
 31
0.0
 11
994.97719546402
 21
1004.564692446732
 31
0.0
 11
996.5022521524053
 21
1004.568166928425
 31
0.0
 11
998.2739497479641
 21
1004.572888450804
 31
0.0
  0
SPLINE
  5
28E
330
36
100
AcDbEntity
  8
0
  6
Continuous
 62
     7
100
AcDbSpline
210
0.0
220
0.0
230
1.0
 70
     8
 71
     3
 72
    22
 73
    18
 74
    16
 42
0.0000000001
 43
0.0000000001
 44
0.00000001
 40
0.0
 40
0.0
 40
0.0
 40
0.0
 40
1.093525843939146
 40
2.183571252800626
 40
3.33726359275719
 40
3.99670576314248
 40
5.902692110908436
 40
7.80526260432483
 40
11.97802310552114
 40
16.13526656670001
 40
25.19492680907051
 40
34.18860855242496
 40
39.16843839330338
 40
44.56661757514152
 40
50.34408904377971
 40
59.26925106698712
 40
68.13004899029077
 40
68.13004899029077
 40
68.13004899029077
 40
68.13004899029077
 10
998.2739497479641
 20
1004.572888450804
 30
0.0
 10
998.638456779312
 20
1004.573963071862
 30
0.0
 10
999.3663107020223
 20
1004.576108893714
 30
0.0
 10
1000.478726394592
 20
1004.579610725798
 30
0.0
 10
1001.446447791808
 20
1004.582797060272
 30
0.0
 10
1002.686147549632
 20
1004.587020913675
 30
0.0
 10
1004.175471071521
 20
1004.592340588835
 30
0.0
 10
1006.835890757817
 20
1004.602512713008
 30
0.0
 10
1010.246718534399
 20
1004.616961308488
 30
0.0
 10
1016.043205768237
 20
1004.644989813548
 30
0.0
 10
1023.446610739491
 20
1004.688222686207
 30
0.0
 10
1031.12412995501
 20
1004.744775138839
 30
0.0
 10
1037.581118712441
 20
1004.800711107927
 30
0.0
 10
1042.966028433887
 20
1004.852781795012
 30
0.0
 10
1049.66590613025
 20
1004.925430814776
 30
0.0
 10
1057.519801202781
 20
1005.021731007334
 30
0.0
 10
1063.44780514209
 20
1005.109611426099
 30
0.0
 10
1066.401080936746
 20
1005.15339262399
 30
0.0
 11
998.2739497479641
 21
1004.572888450804
 31
0.0
 11
999.367470731564
 21
1004.576148786608
 31
0.0
 11
1000.457510773152
 21
1004.579569475859
 31
0.0
 11
1001.611196861286
 21
1004.583367543751
 31
0.0
 11
1002.270635203553
 21
1004.585614504162
 31
0.0
 11
1004.176609384818
 21
1004.59242465978
 31
0.0
 11
1006.079165962874
 21
1004.599701315359
 31
0.0
 11
1010.251888926214
 21
1004.617400794504
 31
0.0
 11
1014.409083674982
 21
1004.637525811954
 31
0.0
 11
1023.46858807781
 21
1004.690664144003
 31
0.0
 11
1032.462024200125
 21
1004.757132291138
 31
0.0
 11
1037.441666894109
 21
1004.80030501809
 31
0.0
 11
1042.839592967272
 21
1004.852579179056
 31
0.0
 11
1048.616725846414
 21
1004.915127301799
 31
0.0
 11
1057.54120142563
 21
1005.025819562071
 31
0.0
 11
1066.401080936746
 21
1005.15339262399
 31
0.0
  0
SPLINE
  5
28F
330
36
100
AcDbEntity
  8
0
  6
Continuous
 62
     7
100
AcDbSpline
210
0.0
220
0.0
230
1.0
 70
     8
 71
     3
 72
    22
 73
    18
 74
    16
 42
0.0000000001
 43
0.0000000001
 44
0.00000001
 40
0.0
 40
0.0
 40
0.0
 40
0.0
 40
8.860797978654986
 40
17.7859599469008
 40
23.56343142408004
 40
28.96161060595186
 40
33.94144043726372
 40
42.93512218955847
 40
51.99478242128154
 40
56.15202571269138
 40
60.32478638390639
 40
62.22735657504095
 40
64.13334322598324
 40
64.79278540921283
 40
65.94647773692206
 40
67.03649569008692
 40
68.1300489901505
 40
68.1300489901505
 40
68.1300489901505
 40
68.1300489901505
 10
679.5802363429265
 20
1005.153392623997
 30
0.0
 10
682.5335121560315
 20
1005.109611425842
 30
0.0
 10
688.4615160954703
 20
1005.021731007093
 30
0.0
 10
696.315411170978
 20
1004.925430814546
 30
0.0
 10
703.0152888518804
 20
1004.852781794955
 30
0.0
 10
708.4001985729957
 20
1004.800711107882
 30
0.0
 10
714.8571873302288
 20
1004.744775138801
 30
0.0
 10
722.534706541991
 20
1004.688222686201
 30
0.0
 10
729.9381114560872
 20
1004.644989813881
 30
0.0
 10
735.7345986864584
 20
1004.616961308758
 30
0.0
 10
739.1454263623637
 20
1004.602512713665
 30
0.0
 10
741.8058461056301
 20
1004.592340589218
 30
0.0
 10
743.2951696320989
 20
1004.587020914017
 30
0.0
 10
744.5348694911799
 20
1004.582797060261
 30
0.0
 10
745.5025817367459
 20
1004.579610755968
 30
0.0
 10
746.6149974253685
 20
1004.576108921743
 30
0.0
 10
747.342851348219
 20
1004.573963099197
 30
0.0
 10
747.707367531568
 20
1004.57288845081
 30
0.0
 11
679.5802363429265
 21
1005.153392623997
 31
0.0
 11
688.440115909389
 21
1005.025819561336
 31
0.0
 11
697.3645914336481
 21
1004.915127301802
 31
0.0
 11
703.1417243213313
 21
1004.852579178972
 31
0.0
 11
708.5396503945274
 21
1004.800305018014
 31
0.0
 11
713.5192930789455
 21
1004.757132291149
 31
0.0
 11
722.5127292102008
 21
1004.690664143954
 31
0.0
 11
731.5722336023813
 21
1004.637525811972
 31
0.0
 11
735.7294281813823
 21
1004.61740079529
 31
0.0
 11
739.9021513147389
 21
1004.599701315372
 31
0.0
 11
741.8047075905147
 21
1004.592424660911
 31
0.0
 11
743.7106820749544
 21
1004.585614504171
 31
0.0
 11
744.3701204300653
 21
1004.583367543717
 31
0.0
 11
745.5238065059524
 21
1004.579569475867
 31
0.0
 11
746.6138190919721
 21
1004.576148870612
 31
0.0
 11
747.707367531568
 21
1004.57288845081
 31
0.0
  0
SPLINE
  5
290
330
36
100
AcDbEntity
  8
0
  6
Continuous
 62
     7
100
AcDbSpline
210
0.0
220
0.0
230
1.0
 70
     8
 71
     3
 72
    15
 73
    11
 74
     9
 42
0.0000000001
 43
0.0000000001
 44
0.00000001
 40
0.0
 40
0.0
 40
0.0
 40
0.0
 40
11.27441692036375
 40
22.6735142196537
 40
25.76931475834652
 40
28.33610202266402
 40
31.37986719882053
 40
34.42573809241173
 40
40.50895058300198
 40
46.60000087384304
 40
46.60000087384304
 40
46.60000087384304
 40
46.60000087384304
 10
1066.401080936746
 20
1005.15339262399
 30
0.0
 10
1070.158721878483
 20
1005.21475001644
 30
0.0
 10
1077.715558380684
 20
1005.338143334251
 30
0.0
 10
1086.303600051517
 20
1005.511534200539
 30
0.0
 10
1091.989508827799
 20
1005.634010911958
 30
0.0
 10
1094.890915285972
 20
1005.698267136043
 30
0.0
 10
1097.775650554142
 20
1005.76358071776
 30
0.0
 10
1101.83217930602
 20
1005.857518416684
 30
0.0
 10
1106.904117873901
 20
1005.978408525381
 30
0.0
 10
1110.960941122474
 20
1006.079710287063
 30
0.0
 10
1112.990658639808
 20
1006.130393776982
 30
0.0
 11
1066.401080936746
 21
1005.15339262399
 31
0.0
 11
1077.673875059022
 21
1005.344676630018
 31
0.0
 11
1089.070716689894
 21
1005.571436590118
 31
0.0
 11
1092.16579831635
 21
1005.638150164017
 31
0.0
 11
1094.731957263669
 21
1005.694940280754
 31
0.0
 11
1097.774942830499
 21
1005.763826329037
 31
0.0
 11
1100.819998122043
 21
1005.834308751426
 31
0.0
 11
1106.901477786248
 21
1005.979495870451
 31
0.0
 11
1112.990658639808
 21
1006.130393776982
 31
0.0
  0
SPLINE
  5
291
330
36
100
AcDbEntity
  8
0
  6
Continuous
 62
     7
100
AcDbSpline
210
0.0
220
0.0
230
1.0
 70
     8
 71
     3
 72
    11
 73
     7
 74
     5
 42
0.0000000001
 43
0.0000000001
 44
0.00000001
 40
0.0
 40
0.0
 40
0.0
 40
0.0
 40
33.4378343178692
 40
66.85683217615809
 40
100.2853097659463
 40
133.695004951406
 40
133.695004951406
 40
133.695004951406
 40
133.695004951406
 10
782.3881804936718
 20
591.5374327527061
 30
0.0
 10
771.2421110288367
 20
591.4915365285765
 30
0.0
 10
748.9562509892693
 20
591.3997699349336
 30
0.0
 10
715.5348962497287
 20
590.6419717863543
 30
0.0
 10
682.1348587315365
 20
589.4704276128313
 30
0.0
 10
659.8871206521744
 20
588.2749988342908
 30
0.0
 10
648.7663775657825
 20
587.677452410614
 30
0.0
 11
782.3881804936718
 21
591.5374327527061
 31
0.0
 11
748.9512154354799
 21
591.296327865736
 31
0.0
 11
715.5400451213661
 21
590.5730602156912
 31
0.0
 11
682.1333474748212
 21
589.3665502392294
 31
0.0
 11
648.7663775657825
 21
587.677452410614
 31
0.0
  0
SPLINE
  5
292
330
36
100
AcDbEntity
  8
0
  6
Continuous
 62
     7
100
AcDbSpline
210
0.0
220
0.0
230
1.0
 70
     8
 71
     3
 72
     9
 73
     5
 74
     3
 42
0.0000000001
 43
0.0000000001
 44
0.00000001
 40
0.0
 40
0.0
 40
0.0
 40
0.0
 40
7.927585401733468
 40
15.85517503505587
 40
15.85517503505587
 40
15.85517503505587
 40
15.85517503505587
 10
648.7663775657825
 20
587.677452410614
 30
0.0
 10
646.1364152513002
 20
587.4200026771689
 30
0.0
 10
640.8764892185131
 20
586.9051030728572
 30
0.0
 10
635.6192693004032
 20
586.3632708058204
 30
0.0
 10
632.9906586397982
 20
586.0923545999972
 30
0.0
 11
648.7663775657825
 21
587.677452410614
 31
0.0
 11
640.8771671506433
 21
586.8983700481915
 31
0.0
 11
632.9906586397982
 21
586.0923545999972
 31
0.0
  0
SPLINE
  5
293
330
36
100
AcDbEntity
  8
0
  6
Continuous
 62
     7
100
AcDbSpline
210
0.0
220
0.0
230
1.0
 70
     8
 71
     3
 72
    11
 73
     7
 74
     5
 42
0.0000000001
 43
0.0000000001
 44
0.00000001
 40
0.0
 40
0.0
 40
0.0
 40
0.0
 40
33.40969537001809
 40
66.83817277517137
 40
100.2571707546853
 40
133.6950049514042
 40
133.6950049514042
 40
133.6950049514042
 40
133.6950049514042
 10
1097.214939713817
 20
587.677452410604
 30
0.0
 10
1086.094196565978
 20
588.274998837361
 30
0.0
 10
1063.846458486613
 20
589.4704276154578
 30
0.0
 10
1030.446420928033
 20
590.6419717891474
 30
0.0
 10
997.0250662499698
 20
591.3997699355332
 30
0.0
 10
974.7392062103795
 20
591.4915365288853
 30
0.0
 10
963.5931367859297
 20
591.5374327527031
 30
0.0
 11
1097.214939713817
 21
587.677452410604
 31
0.0
 11
1063.847969620389
 21
589.3665502472175
 31
0.0
 11
1030.44127215831
 21
590.5730602156821
 31
0.0
 11
997.0301017229808
 21
591.2963278674783
 31
0.0
 11
963.5931367859297
 21
591.5374327527031
 31
0.0
  0
SPLINE
  5
294
330
36
100
AcDbEntity
  8
0
  6
Continuous
 62
     7
100
AcDbSpline
210
0.0
220
0.0
230
1.0
 70
     8
 71
     3
 72
     9
 73
     5
 74
     3
 42
0.0000000001
 43
0.0000000001
 44
0.00000001
 40
0.0
 40
0.0
 40
0.0
 40
0.0
 40
7.927589633321716
 40
15.85517503505361
 40
15.85517503505361
 40
15.85517503505361
 40
15.85517503505361
 10
1112.990658639799
 20
586.092354599986
 30
0.0
 10
1110.362047979194
 20
586.3632708058098
 30
0.0
 10
1105.104828061085
 20
586.9051030728472
 30
0.0
 10
1099.844902028299
 20
587.4200026771588
 30
0.0
 10
1097.214939713817
 20
587.677452410604
 30
0.0
 11
1112.990658639799
 21
586.092354599986
 31
0.0
 11
1105.104150128955
 21
586.8983700481814
 31
0.0
 11
1097.214939713817
 21
587.677452410604
 31
0.0
  0
SPLINE
  5
295
330
36
100
AcDbEntity
  8
0
  6
Continuous
 62
     7
100
AcDbSpline
210
0.0
220
0.0
230
1.0
 70
     8
 71
     3
 72
    22
 73
    18
 74
    16
 42
0.0000000001
 43
0.0000000001
 44
0.00000001
 40
0.0
 40
0.0
 40
0.0
 40
0.0
 40
1.093508737183814
 40
2.183571253233263
 40
3.337263602599056
 40
3.996705764168677
 40
5.902692506981076
 40
7.805262606244618
 40
11.97802277917188
 40
16.13526656886913
 40
25.19492684688778
 40
34.18860855288759
 40
39.16843837654038
 40
44.56661755897115
 40
50.34408904324936
 40
59.26925108609575
 40
68.13004899015056
 40
68.13004899015056
 40
68.13004899015056
 40
68.13004899015056
 10
261.2483937937303
 20
1004.572888061148
 30
0.0
 10
261.6128951228522
 20
1004.573962665179
 30
0.0
 10
262.3407490457075
 20
1004.576108486599
 30
0.0
 10
263.4531647415619
 20
1004.579610317353
 30
0.0
 10
264.4208918413411
 20
1004.582796670632
 30
0.0
 10
265.6605917310439
 20
1004.587020524478
 30
0.0
 10
267.1499152502927
 20
1004.592340199672
 30
0.0
 10
269.8103348274636
 20
1004.602512323497
 30
0.0
 10
273.2211624727463
 20
1004.616960918347
 30
0.0
 10
279.0176497185502
 20
1004.644989423323
 30
0.0
 10
286.4210547987393
 20
1004.68822229664
 30
0.0
 10
294.0985740079485
 20
1004.744774749255
 30
0.0
 10
300.5555627473838
 20
1004.800710718177
 30
0.0
 10
305.940472468499
 20
1004.852781405242
 30
0.0
 10
312.6403501768194
 20
1004.925430425124
 30
0.0
 10
320.4942452546924
 20
1005.021730617762
 30
0.0
 10
326.422249194131
 20
1005.109611036536
 30
0.0
 10
329.3755249823719
 20
1005.153392234335
 30
0.0
 11
261.2483937937303
 21
1004.572888061148
 31
0.0
 11
262.3418976706549
 21
1004.576148344617
 31
0.0
 11
263.4319548193508
 21
1004.579569086205
 31
0.0
 11
264.5856409168943
 21
1004.583367154128
 31
0.0
 11
265.2450792503453
 21
1004.585614114509
 31
0.0
 11
267.1510538266546
 21
1004.592424271589
 31
0.0
 11
269.0536100105599
 21
1004.599700925711
 31
0.0
 11
273.2263326456339
 21
1004.617400403368
 31
0.0
 11
277.3835277229172
 21
1004.63752542231
 31
0.0
 11
286.4430321613924
 21
1004.690663754598
 31
0.0
 11
295.4364682463537
 21
1004.757131901488
 31
0.0
 11
300.416110923113
 21
1004.800304628283
 31
0.0
 11
305.8140369968681
 21
1004.852578789238
 31
0.0
 11
311.5911698916499
 21
1004.91512691214
 31
0.0
 11
320.515645490503
 21
1005.025819172674
 31
0.0
 11
329.3755249823719
 21
1005.153392234335
 31
0.0
  0
SPLINE
  5
296
330
36
100
AcDbEntity
  8
0
  6
Continuous
 62
     7
100
AcDbSpline
210
0.0
220
0.0
230
1.0
 70
     8
 71
     3
 72
    22
 73
    18
 74
    16
 42
0.0000000001
 43
0.0000000001
 44
0.00000001
 40
0.0
 40
0.0
 40
0.0
 40
0.0
 40
8.860797920344968
 40
17.78595994651205
 40
23.56343141274959
 40
28.96161059434342
 40
33.94144043786596
 40
42.93512217408686
 40
51.99478242359164
 40
56.15202580383185
 40
60.32478638596614
 40
62.2273580078448
 40
64.13334322714768
 40
64.7927854790219
 40
65.94647773749465
 40
67.0364780977766
 40
68.13004899029096
 40
68.13004899029096
 40
68.13004899029096
 40
68.13004899029096
 10
-57.44531961144779
 20
1005.153392234328
 30
0.0
 10
-54.49204381777739
 20
1005.109611036451
 30
0.0
 10
-48.56403987846847
 20
1005.021730617684
 30
0.0
 10
-40.71014480673792
 20
1004.925430425136
 30
0.0
 10
-34.01026711026948
 20
1004.852781405368
 30
0.0
 10
-28.62535738882365
 20
1004.800710718281
 30
0.0
 10
-22.16836863297113
 20
1004.744774749204
 30
0.0
 10
-14.49084941656959
 20
1004.688222296561
 30
0.0
 10
-7.087444472294658
 20
1004.644989424055
 30
0.0
 10
-1.290957236079537
 20
1004.616960918947
 30
0.0
 10
2.119870916653163
 20
1004.602512321857
 30
0.0
 10
4.780290629928466
 20
1004.592340197782
 30
0.0
 10
6.269614178980942
 20
1004.587020522641
 30
0.0
 10
7.509313560654067
 20
1004.58279667051
 30
0.0
 10
8.477019941760556
 20
1004.579610385561
 30
0.0
 10
9.589435607155778
 20
1004.576108550031
 30
0.0
 10
10.31728952986105
 20
1004.573962727041
 30
0.0
 10
10.68181157733423
 20
1004.572888061142
 30
0.0
 11
-57.44531961144779
 21
1005.153392234328
 31
0.0
 11
-48.58544010329011
 21
1005.025819172449
 31
0.0
 11
-39.66096452111486
 21
1004.915126912138
 31
0.0
 11
-33.88383164437287
 21
1004.852578789419
 31
0.0
 11
-28.48590557145484
 21
1004.800304628452
 31
0.0
 11
-23.50626287482658
 21
1004.757131901476
 31
0.0
 11
-14.51282675964478
 21
1004.690663754389
 31
0.0
 11
-5.453322349682878
 21
1004.637525422292
 31
0.0
 11
-1.296127681852376
 21
1004.617400405209
 31
0.0
 11
2.876595362424439
 21
1004.599700925697
 31
0.0
 11
4.779153068934505
 21
1004.592424265946
 31
0.0
 11
6.685126121744617
 21
1004.5856141145
 31
0.0
 11
7.344564545499728
 21
1004.583367153815
 31
0.0
 11
8.498250552150722
 21
1004.579569086198
 31
0.0
 11
9.588245545369809
 21
1004.576148534766
 31
0.0
 11
10.68181157733423
 21
1004.572888061142
 31
0.0
  0
SPLINE
  5
297
330
36
100
AcDbEntity
  8
0
  6
Continuous
 62
     7
100
AcDbSpline
210
0.0
220
0.0
230
1.0
 70
     8
 71
     3
 72
    15
 73
    11
 74
     9
 42
0.0000000001
 43
0.0000000001
 44
0.00000001
 40
0.0
 40
0.0
 40
0.0
 40
0.0
 40
60.00176204976395
 40
120.0031029352547
 40
180.0037737805815
 40
240.0038702998124
 40
300.0039668190432
 40
360.00463766437
 40
420.0059785498606
 40
480.0077405996245
 40
480.0077405996245
 40
480.0077405996245
 40
480.0077405996245
 10
-104.0348973145096
 20
990.7195527001375
 30
0.0
 10
-84.03492238305437
 20
990.5630129973165
 30
0.0
 10
-44.03511290393623
 20
990.2499346904572
 30
0.0
 10
15.96475901139379
 20
989.8390179386629
 30
0.0
 10
75.9647977462032
 20
989.5455044999296
 30
0.0
 10
135.9651026854911
 20
989.4280983216256
 30
0.0
 10
195.965407624779
 20
989.5455044999319
 30
0.0
 10
255.9654463595882
 20
989.8390179386677
 30
0.0
 10
315.9653182749181
 20
990.2499346904644
 30
0.0
 10
355.9651277540361
 20
990.5630129973248
 30
0.0
 10
375.9651026854914
 20
990.7195527001469
 30
0.0
 11
-104.0348973145096
 21
990.7195527001375
 31
0.0
 11
-44.03489731450947
 21
990.2597167767087
 31
0.0
 11
15.96510268549072
 21
989.8585833115906
 31
0.0
 11
75.96510268549092
 21
989.5748547630925
 31
0.0
 11
135.9651026854911
 21
989.4672335895252
 31
0.0
 11
195.9651026854912
 21
989.574854763095
 31
0.0
 11
255.9651026854913
 21
989.8585833115953
 31
0.0
 11
315.9651026854914
 21
990.2597167767161
 31
0.0
 11
375.9651026854914
 21
990.7195527001469
 31
0.0
  0
SPLINE
  5
298
330
36
100
AcDbEntity
  8
0
  6
Continuous
 62
     7
100
AcDbSpline
210
0.0
220
0.0
230
1.0
 70
     8
 71
     3
 72
    15
 73
    11
 74
     9
 42
0.0000000001
 43
0.0000000001
 44
0.00000001
 40
0.0
 40
0.0
 40
0.0
 40
0.0
 40
6.09105027315915
 40
12.17426278143115
 40
15.22013390194797
 40
18.26389885117923
 40
20.83068611305541
 40
23.92648665419006
 40
35.32558395347942
 40
46.60000087384304
 40
46.60000087384304
 40
46.60000087384304
 40
46.60000087384304
 10
-104.0348973145099
 20
1006.13039338732
 30
0.0
 10
-102.0051798030675
 20
1006.079709897547
 30
0.0
 10
-97.94835655449569
 20
1005.978408135863
 30
0.0
 10
-92.87641791099418
 20
1005.857518025355
 30
0.0
 10
-88.81988915322128
 20
1005.763580326366
 30
0.0
 10
-85.93515388586451
 20
1005.698266744725
 30
0.0
 10
-83.03374750331359
 20
1005.634010522314
 30
0.0
 10
-77.34783872703139
 20
1005.511533810893
 30
0.0
 10
-68.75979705538548
 20
1005.33814294459
 30
0.0
 10
-61.20296055318504
 20
1005.214749626778
 30
0.0
 10
-57.44531961144779
 20
1005.153392234328
 30
0.0
 11
-104.0348973145099
 21
1006.13039338732
 31
0.0
 11
-97.94571647862676
 21
1005.979495481219
 31
0.0
 11
-91.86423679674496
 21
1005.834308361764
 31
0.0
 11
-88.81918127833475
 21
1005.763825934181
 31
0.0
 11
-85.77619593837068
 21
1005.694939891092
 31
0.0
 11
-83.21003699349278
 21
1005.638149774408
 31
0.0
 11
-80.11495536459506
 21
1005.571436200456
 31
0.0
 11
-68.71811373372374
 21
1005.344676240357
 31
0.0
 11
-57.44531961144779
 21
1005.153392234328
 31
0.0
  0
SPLINE
  5
299
330
36
100
AcDbEntity
  8
0
  6
Continuous
 62
     7
100
AcDbSpline
210
0.0
220
0.0
230
1.0
 70
     8
 71
     3
 72
    43
 73
    39
 74
    37
 42
0.0000000001
 43
0.0000000001
 44
0.00000001
 40
0.0
 40
0.0
 40
0.0
 40
0.0
 40
1.771703880586471
 40
3.296764533179268
 40
5.501108798542157
 40
7.577248997334793
 40
11.6717802330304
 40
15.77819573904584
 40
23.7137437361781
 40
32.18403241444374
 40
36.59470200903743
 40
40.31427173213302
 40
44.25686959847277
 40
48.26223544974944
 40
56.1307074098901
 40
64.23523597122781
 40
78.51974843412459
 40
93.51677899878266
 40
109.1322091539391
 40
125.2833284098417
 40
141.434447651722
 40
157.0498778211396
 40
172.0469084002363
 40
186.3314208487226
 40
194.435949442365
 40
202.3044213701747
 40
206.3097871030498
 40
210.2523850877839
 40
213.9719547311307
 40
218.3826244054752
 40
226.852913150235
 40
234.7884610808737
 40
238.8948767254989
 40
242.9894078225836
 40
245.0655478150922
 40
247.2698922867193
 40
248.794953069839
 40
250.5666568199843
 40
250.5666568199843
 40
250.5666568199843
 40
250.5666568199843
 10
10.68181157733423
 20
1004.572888061142
 30
0.0
 10
11.27237730332474
 20
1004.57125997833
 30
0.0
 10
12.37129465700367
 20
1004.568230462093
 30
0.0
 10
14.20499302886389
 20
1004.564115478531
 30
0.0
 10
16.14017122563098
 20
1004.560410026759
 30
0.0
 10
18.93183977109265
 20
1004.556053424516
 30
0.0
 10
22.35753333915867
 20
1004.552142874134
 30
0.0
 10
27.73636366879095
 20
1004.548310775971
 30
0.0
 10
34.57378126254888
 20
1004.546799033606
 30
0.0
 10
41.51261665869165
 20
1004.54827299938
 30
0.0
 10
47.04612548895372
 20
1004.550655169176
 30
0.0
 10
51.07040397012348
 20
1004.552825972357
 30
0.0
 10
54.95958105760053
 20
1004.55520681957
 30
0.0
 10
60.23172509010546
 20
1004.558758167037
 30
0.0
 10
66.89117871795745
 20
1004.56370264645
 30
0.0
 10
76.97701327399791
 20
1004.571615936829
 30
0.0
 10
89.43903334176579
 20
1004.58134813614
 30
0.0
 10
104.4046878420196
 20
1004.591278005491
 30
0.0
 10
119.9925464066287
 20
1004.598316034591
 30
0.0
 10
135.9651026807076
 20
1004.600954288661
 30
0.0
 10
151.9376589595404
 20
1004.598316034592
 30
0.0
 10
167.525517529042
 20
1004.591278005494
 30
0.0
 10
182.4911720340589
 20
1004.581348136136
 30
0.0
 10
194.9531921126044
 20
1004.571615936818
 30
0.0
 10
205.0390266638325
 20
1004.563702646444
 30
0.0
 10
211.6984802522086
 20
1004.558758167063
 30
0.0
 10
216.9706242739342
 20
1004.555206819598
 30
0.0
 10
220.8598013348259
 20
1004.552825972399
 30
0.0
 10
224.8840798554612
 20
1004.550655169192
 30
0.0
 10
230.4175887078886
 20
1004.548272999379
 30
0.0
 10
237.3564241306151
 20
1004.546799033607
 30
0.0
 10
244.1938417705766
 20
1004.548310776001
 30
0.0
 10
249.5726720780439
 20
1004.55214287418
 30
0.0
 10
252.9983655773483
 20
1004.556053424513
 30
0.0
 10
255.7900340765997
 20
1004.560410026648
 30
0.0
 10
257.7252123168692
 20
1004.564115478464
 30
0.0
 10
259.5589107575126
 20
1004.568230462204
 30
0.0
 10
260.6578281112199
 20
1004.57125997845
 30
0.0
 10
261.2483937937303
 20
1004.572888061148
 30
0.0
 11
10.68181157733423
 21
1004.572888061142
 31
0.0
 11
12.45350916657223
 21
1004.568166538779
 31
0.0
 11
13.97856586127693
 21
1004.564692057071
 31
0.0
 11
16.18290606841538
 21
1004.560462230706
 31
0.0
 11
18.25904370571972
 21
1004.557200940919
 31
0.0
 11
22.35357217326969
 21
1004.55243979506
 31
0.0
 11
26.45998659049202
 21
1004.549449465214
 31
0.0
 11
34.39553432119465
 21
1004.547393126185
 31
0.0
 11
42.86582285354703
 21
1004.548965339532
 31
0.0
 11
47.27649204922891
 21
1004.550841222342
 31
0.0
 11
50.9960612408299
 21
1004.552829654405
 31
0.0
 11
54.93865837400224
 21
1004.55523406036
 31
0.0
 11
58.94402332350867
 21
1004.557921780341
 31
0.0
 11
66.8124931630244
 21
1004.563698643771
 31
0.0
 11
74.91701927769864
 21
1004.569996111663
 31
0.0
 11
89.20152758665759
 21
1004.580889868418
 31
0.0
 11
104.1985549935212
 21
1004.59062203515
 31
0.0
 11
119.8139836327217
 21
1004.597502776825
 31
0.0
 11
135.9651026853818
 21
1004.600065039303
 31
0.0
 11
152.1162217240195
 21
1004.59750277683
 31
0.0
 11
167.7316503774812
 21
1004.590622035152
 31
0.0
 11
182.7286777987835
 21
1004.580889868409
 31
0.0
 11
197.0131860933319
 21
1004.569996111665
 31
0.0
 11
205.1177122403109
 21
1004.563698643749
 31
0.0
 11
212.9861820474956
 21
1004.557921780344
 31
0.0
 11
216.9915468786005
 21
1004.55523406044
 31
0.0
 11
220.9341441301672
 21
1004.552829654409
 31
0.0
 11
224.6537132420194
 21
1004.550841222384
 31
0.0
 11
229.0643825174521
 21
1004.548965339535
 31
0.0
 11
237.5346711162987
 21
1004.547393126189
 31
0.0
 11
245.4702187805077
 21
1004.549449465219
 31
0.0
 11
249.5766333363398
 21
1004.552439795194
 31
0.0
 11
253.6711616652789
 21
1004.557200940924
 31
0.0
 11
255.7472990962995
 21
1004.560462230355
 31
0.0
 11
257.9516395097018
 21
1004.564692057076
 31
0.0
 11
259.476696334933
 21
1004.568166539104
 31
0.0
 11
261.2483937937303
 21
1004.572888061148
 31
0.0
  0
SPLINE
  5
29A
330
36
100
AcDbEntity
  8
0
  6
Continuous
 62
     7
100
AcDbSpline
210
0.0
220
0.0
230
1.0
 70
     8
 71
     3
 72
    15
 73
    11
 74
     9
 42
0.0000000001
 43
0.0000000001
 44
0.00000001
 40
0.0
 40
0.0
 40
0.0
 40
0.0
 40
11.27441693231188
 40
22.67351421969033
 40
25.76931475591397
 40
28.33610202270824
 40
31.37986401758383
 40
34.42573809245991
 40
40.50899922315725
 40
46.60000087389978
 40
46.60000087389978
 40
46.60000087389978
 40
46.60000087389978
 10
329.3755249823719
 20
1005.153392234335
 30
0.0
 10
333.1331659280913
 20
1005.214749626853
 30
0.0
 10
340.6900024303041
 20
1005.338142944671
 30
0.0
 10
349.2780441003256
 20
1005.511533810954
 30
0.0
 10
354.9639528726407
 20
1005.634010522288
 30
0.0
 10
357.8653582706503
 20
1005.698266722886
 30
0.0
 10
360.7500935396632
 20
1005.763580303854
 30
0.0
 10
364.806638500594
 20
1005.857518376968
 30
0.0
 10
369.8785781281551
 20
1005.978408530453
 30
0.0
 10
373.9354013765575
 20
1006.079710298806
 30
0.0
 10
375.9651026854913
 20
1006.13039338733
 30
0.0
 11
329.3755249823719
 21
1005.153392234335
 31
0.0
 11
340.6483191165941
 21
1005.344676240585
 31
0.0
 11
352.0451607355565
 21
1005.571436200465
 31
0.0
 11
355.1402423595444
 21
1005.638149774309
 31
0.0
 11
357.7064013093392
 21
1005.694939891102
 31
0.0
 11
360.7493836957215
 21
1005.763825866568
 31
0.0
 11
363.7944421677171
 21
1005.834308361773
 31
0.0
 11
369.8759704576333
 21
1005.979496664339
 31
0.0
 11
375.9651026854913
 21
1006.13039338733
 31
0.0
  0
SPLINE
  5
29B
330
36
100
AcDbEntity
  8
0
  6
Continuous
 62
     7
100
AcDbSpline
210
0.0
220
0.0
230
1.0
 70
     8
 71
     3
 72
    15
 73
    11
 74
     9
 42
0.0000000001
 43
0.0000000001
 44
0.00000001
 40
0.0
 40
0.0
 40
0.0
 40
0.0
 40
9.695429681675707
 40
19.38976610878182
 40
29.08314626505024
 40
38.77570717475926
 40
48.46758589693298
 40
58.15891951954165
 40
67.84984515368582
 40
77.54049992778482
 40
77.54049992778482
 40
77.54049992778482
 40
77.54049992778482
 10
-711.2486121557779
 20
566.4877707074961
 30
0.0
 10
-711.3279161754082
 20
569.7186112616219
 30
0.0
 10
-711.4865152723644
 20
576.1799280609862
 30
0.0
 10
-711.7705871237977
 20
585.8701818410539
 30
0.0
 10
-712.0884277865125
 20
595.5584132751524
 30
0.0
 10
-712.4434157720093
 20
605.2445411777887
 30
0.0
 10
-712.834425039479
 20
614.9285991304532
 30
0.0
 10
-713.2625816066318
 20
624.6105339514446
 30
0.0
 10
-713.7245075541666
 20
634.2905247422291
 30
0.0
 10
-714.06323100164
 20
640.7421734911944
 30
0.0
 10
-714.2325903585249
 20
643.9679527843721
 30
0.0
 11
-711.2486121557779
 21
566.4877707074961
 31
0.0
 11
-711.49422306371
 21
576.1800889025526
 31
0.0
 11
-711.776230076617
 21
585.870322687482
 31
0.0
 11
-712.0946331944986
 21
595.5584720622833
 31
0.0
 11
-712.4494324173547
 21
605.244537026957
 31
0.0
 11
-712.8406277451853
 21
614.9285175815021
 31
0.0
 11
-713.2682191779906
 21
624.6104137259201
 31
0.0
 11
-713.7322067157705
 21
634.2902254602101
 31
0.0
 11
-714.2325903585249
 21
643.9679527843721
 31
0.0
  0
SPLINE
  5
29C
330
36
100
AcDbEntity
  8
0
  6
Continuous
 62
     7
100
AcDbSpline
210
0.0
220
0.0
230
1.0
 70
     8
 71
     3
 72
    17
 73
    13
 74
    11
 42
0.0000000001
 43
0.0000000001
 44
0.00000001
 40
0.0
 40
0.0
 40
0.0
 40
0.0
 40
2.369300793338362
 40
4.841964290087308
 40
5.487567984976838
 40
6.141023667638729
 40
6.451348881195864
 40
6.763476345719515
 40
6.987295877585581
 40
7.356706944167236
 40
8.400725549117551
 40
9.302979972873233
 40
9.302979972873233
 40
9.302979972873233
 40
9.302979972873233
 10
-790.533385356794
 20
1005.177347730484
 30
0.0
 10
-789.7462664230469
 20
1005.242014234242
 30
0.0
 10
-788.137689842154
 20
1005.374168371378
 30
0.0
 10
-786.3162113758407
 20
1005.542286573826
 30
0.0
 10
-785.0647404377581
 20
1005.662590495253
 30
0.0
 10
-784.5308361609536
 20
1005.714914024582
 30
0.0
 10
-784.1076138715605
 20
1005.756930234518
 30
0.0
 10
-783.8269259526591
 20
1005.78502823364
 30
0.0
 10
-783.5266614834331
 20
1005.815294747638
 30
0.0
 10
-782.9837052006626
 20
1005.870442541503
 30
0.0
 10
-782.2158981301891
 20
1005.949788004718
 30
0.0
 10
-781.5707565260801
 20
1006.018191499384
 30
0.0
 10
-781.2716813923908
 20
1006.049902032671
 30
0.0
 11
-790.533385356794
 21
1005.177347730484
 31
0.0
 11
-788.1723618984596
 21
1005.375222636696
 31
0.0
 11
-785.7100031591535
 21
1005.600731410622
 31
0.0
 11
-785.0673647343909
 21
1005.662537444904
 31
0.0
 11
-784.4170230072693
 21
1005.726255316554
 31
0.0
 11
-784.1082158669791
 21
1005.7569129139
 31
0.0
 11
-783.7976405325646
 21
1005.788001750535
 31
0.0
 11
-783.5749494726957
 21
1005.810448904012
 31
0.0
 11
-783.207429071149
 21
1005.847775711536
 31
0.0
 11
-782.1689455897074
 21
1005.955139142253
 31
0.0
 11
-781.2716813923908
 21
1006.049902032671
 31
0.0
  0
SPLINE
  5
29D
330
36
100
AcDbEntity
  8
0
  6
Continuous
 62
     7
100
AcDbSpline
210
0.0
220
0.0
230
1.0
 70
     8
 71
     3
 72
    31
 73
    27
 74
    25
 42
0.0000000001
 43
0.0000000001
 44
0.00000001
 40
0.0
 40
0.0
 40
0.0
 40
0.0
 40
0.922620058768259
 40
1.844807290684765
 40
2.834111318861535
 40
3.716419432258602
 40
4.464523206353346
 40
5.156354759841863
 40
5.986344349873653
 40
6.795524346465799
 40
7.680776877369877
 40
8.666088292678044
 40
9.495200816951321
 40
10.4141347793362
 40
11.34189562090526
 40
12.17484156961815
 40
13.05607309048287
 40
13.9348009264488
 40
14.76698826777924
 40
15.69305656355329
 40
16.60134948095137
 40
17.51298740379939
 40
18.62668306710202
 40
19.915207132831
 40
20.98142633986888
 40
22.05342080763207
 40
22.05342080763207
 40
22.05342080763207
 40
22.05342080763207
 10
-781.2716813923908
 20
1006.049902032671
 30
0.0
 10
-781.5769369635816
 20
1006.01161341476
 30
0.0
 10
-782.1873049020444
 20
1005.935054141198
 30
0.0
 10
-783.1128954658409
 20
1005.74114382908
 30
0.0
 10
-784.0113229578446
 20
1005.493722407244
 30
0.0
 10
-784.8364598688763
 20
1005.206059212818
 30
0.0
 10
-785.552095867874
 20
1004.910101088209
 30
0.0
 10
-786.2361001092472
 20
1004.585945123476
 30
0.0
 10
-786.9199571377595
 20
1004.216118788736
 30
0.0
 10
-787.636355384525
 20
1003.773859726137
 30
0.0
 10
-788.3677813990405
 20
1003.260133419791
 30
0.0
 10
-789.069381643415
 20
1002.695415104545
 30
0.0
 10
-789.7418534890605
 20
1002.079948953777
 30
0.0
 10
-790.3622443186513
 20
1001.438246823235
 30
0.0
 10
-790.94076531578
 20
1000.75686468201
 30
0.0
 10
-791.4686487603525
 20
1000.051365438134
 30
0.0
 10
-791.9443735888129
 20
999.3291048016861
 30
0.0
 10
-792.3746486455242
 20
998.5791757190207
 30
0.0
 10
-792.7659411072148
 20
997.7915404980523
 30
0.0
 10
-793.111990840014
 20
996.9721326723455
 30
0.0
 10
-793.4135387825879
 20
996.1072389155424
 30
0.0
 10
-793.6761889573197
 20
995.164650622065
 30
0.0
 10
-793.89730838606
 20
994.0811596614365
 30
0.0
 10
-794.030987456034
 20
992.9313962824775
 30
0.0
 10
-794.0752965892757
 20
991.7884580373643
 30
0.0
 10
-794.0354248944245
 20
991.0764954767998
 30
0.0
 10
-794.0154352007828
 20
990.7195527001386
 30
0.0
 11
-781.2716813923908
 21
1006.049902032671
 31
0.0
 11
-782.1854787995122
 21
1005.922614674384
 31
0.0
 11
-783.0887467592165
 21
1005.736775271454
 31
0.0
 11
-784.0422755053251
 21
1005.473136521435
 31
0.0
 11
-784.8754807742469
 21
1005.182901122479
 31
0.0
 11
-785.5667815042891
 21
1004.896959594439
 31
0.0
 11
-786.1919653988873
 21
1004.600689453626
 31
0.0
 11
-786.9220327533574
 21
1004.205867496919
 31
0.0
 11
-787.6105778249682
 21
1003.780805205901
 31
0.0
 11
-788.3349979018465
 21
1003.27199522596
 31
0.0
 11
-789.1025595925659
 21
1002.654186488504
 31
0.0
 11
-789.7141819514571
 21
1002.094413616697
 31
0.0
 11
-790.3529011899631
 21
1001.433749283176
 31
0.0
 11
-790.9533716444372
 21
1000.726518477532
 31
0.0
 11
-791.4523884291327
 21
1000.059599290471
 31
0.0
 11
-791.9371200471318
 21
999.323661621998
 31
0.0
 11
-792.3744283976564
 21
998.5614779064393
 31
0.0
 11
-792.7446796222077
 21
997.8161928590992
 31
0.0
 11
-793.1049655174033
 21
996.9630829235334
 31
0.0
 11
-793.4039770801962
 21
996.1054185899438
 31
0.0
 11
-793.6487405709167
 21
995.2272531522358
 31
0.0
 11
-793.8710907694266
 21
994.1359793920447
 31
0.0
 11
-794.0214973919816
 21
992.8562637533755
 31
0.0
 11
-794.0584330540631
 21
991.7906844957306
 31
0.0
 11
-794.0154352007828
 21
990.7195527001386
 31
0.0
  0
SPLINE
  5
29E
330
36
100
AcDbEntity
  8
0
  6
Continuous
 62
     7
100
AcDbSpline
210
0.0
220
0.0
230
1.0
 70
     8
 71
     3
 72
    55
 73
    51
 74
    49
 42
0.0000000001
 43
0.0000000001
 44
0.00000001
 40
0.0
 40
0.0
 40
0.0
 40
0.0
 40
0.4660986797081154
 40
0.9320917576880016
 40
1.398102868698456
 40
1.485495726428111
 40
1.572894384918295
 40
1.616596196466904
 40
1.66029976560544
 40
1.682152247725483
 40
1.704005207749355
 40
1.714931871787392
 40
1.725858660120212
 40
1.736785534855116
 40
1.747712412440898
 40
1.922542371974719
 40
2.097372186677362
 40
2.447031383316868
 40
2.796690007530867
 40
4.195318826185732
 40
5.593938853801119
 40
8.391153418850029
 40
11.18833634923406
 40
16.78261436485543
 40
22.3767940610653
 40
27.97089424079037
 40
33.5649337005463
 40
39.15893123194935
 40
44.75290562323426
 40
51.14601388179095
 40
57.53914449603003
 40
63.93232551052961
 40
70.32558497517729
 40
76.71895094812571
 40
83.11245149874655
 40
89.50611471058295
 40
95.89982436963935
 40
102.293364939125
 40
108.6867641764158
 40
115.0800498239017
 40
121.4732496119742
 40
127.8663912620139
 40
134.2595024893811
 40
140.6526121309343
 40
147.0457479193435
 40
153.438937899731
 40
159.83221012293
 40
166.2255926484367
 40
172.6191135473661
 40
179.0128009054035
 40
179.0128009054035
 40
179.0128009054035
 40
179.0128009054035
 10
-794.0154352007828
 20
990.7195527001386
 30
0.0
 10
-794.0019325074272
 20
990.5647603230852
 30
0.0
 10
-793.9749301799564
 20
990.2552106395403
 30
0.0
 10
-793.9152603216348
 20
989.7928884857837
 30
0.0
 10
-793.8616218352308
 20
989.4572960486278
 30
0.0
 10
-793.8237035990361
 20
989.2470865536903
 30
0.0
 10
-793.8103408029681
 20
989.1754913043695
 30
0.0
 10
-793.7993868360946
 20
989.1182621137194
 30
0.0
 10
-793.7924310715841
 20
989.0825131755479
 30
0.0
 10
-793.7868007878481
 20
989.053926000934
 30
0.0
 10
-793.783254369552
 20
989.0360639495842
 30
0.0
 10
-793.7804010462651
 20
989.0217772901863
 30
0.0
 10
-793.7782521990084
 20
989.011063891769
 30
0.0
 10
-793.7760975782429
 20
989.0003515813917
 30
0.0
 10
-793.7631710523117
 20
988.9360773194208
 30
0.0
 10
-793.7394856981762
 20
988.8182385544151
 30
0.0
 10
-793.6935708594807
 20
988.5896988735427
 30
0.0
 10
-793.6362284666755
 20
988.3040143628228
 30
0.0
 10
-793.4987626939751
 20
987.6183428689948
 30
0.0
 10
-793.2931546890125
 20
986.5897214556421
 30
0.0
 10
-792.9293075205483
 20
984.7607398161991
 30
0.0
 10
-792.4776459107375
 20
982.4739086010653
 30
0.0
 10
-791.7617051315144
 20
978.813710822093
 30
0.0
 10
-790.8793730184408
 20
974.2360778449061
 30
0.0
 10
-789.8407320942043
 20
968.7391443118087
 30
0.0
 10
-788.8222632431132
 20
963.2385180463614
 30
0.0
 10
-787.8239760699941
 20
957.7342551590781
 30
0.0
 10
-786.8458800322908
 20
952.2264109523151
 30
0.0
 10
-785.8423707737999
 20
946.452596009381
 30
0.0
 10
-784.8169627003855
 20
940.4122584004414
 30
0.0
 10
-783.7733829434191
 20
934.1048486690827
 30
0.0
 10
-782.7562285236365
 20
927.793072418301
 30
0.0
 10
-781.7655136623152
 20
921.4770127870761
 30
0.0
 10
-780.8012525398101
 20
915.1567526840107
 30
0.0
 10
-779.8634593485964
 20
908.8323750792903
 30
0.0
 10
-778.9521551302638
 20
902.5040105410162
 30
0.0
 10
-778.0673712856755
 20
896.1718702049064
 30
0.0
 10
-777.209136804333
 20
889.8361656601837
 30
0.0
 10
-776.3774722964442
 20
883.4970611999543
 30
0.0
 10
-775.5723871751595
 20
877.1546407910207
 30
0.0
 10
-774.7938907708651
 20
870.8089884070412
 30
0.0
 10
-774.0419927185947
 20
864.4601879965826
 30
0.0
 10
-773.3167014751789
 20
858.1083232292813
 30
0.0
 10
-772.6180297419007
 20
851.7534774183265
 30
0.0
 10
-771.9459743106843
 20
845.3957350786293
 30
0.0
 10
-771.3005912957165
 20
839.0351760985798
 30
0.0
 10
-770.681715568991
 20
832.6718985063213
 30
0.0
 10
-770.0900076496213
 20
826.3059322488598
 30
0.0
 10
-769.5230466151013
 20
819.9375613623222
 30
0.0
 10
-769.1676287170942
 20
815.6899963545891
 30
0.0
 10
-768.989917454742
 20
813.5661862041141
 30
0.0
 11
-794.0154352007828
 21
990.7195527001386
 31
0.0
 11
-793.9717317549693
 21
990.2555074566012
 31
0.0
 11
-793.9129454548254
 21
989.7932372762515
 31
0.0
 11
-793.8391273762986
 21
989.3331098516528
 31
0.0
 11
-793.8236171730522
 21
989.2471043566109
 31
0.0
 11
-793.8075806411679
 21
989.1611895432723
 31
0.0
 11
-793.7993651071998
 21
989.1182668996648
 31
0.0
 11
-793.7910181173281
 21
989.0753678353915
 31
0.0
 11
-793.7867953395801
 21
989.0539272401829
 31
0.0
 11
-793.7825397136381
 21
989.0324926534212
 31
0.0
 11
-793.7803995842384
 21
989.0217776250427
 31
0.0
 11
-793.7782512447629
 21
989.0110641129776
 31
0.0
 11
-793.7760976125808
 21
989.0003515754679
 31
0.0
 11
-793.7739431801624
 21
988.9896391959596
 31
0.0
 11
-793.739488232967
 21
988.8182379959511
 31
0.0
 11
-793.7050529511276
 21
988.6468329917254
 31
0.0
 11
-793.6362413846769
 21
988.3040115774043
 31
0.0
 11
-793.5675084831305
 21
987.9611749665643
 31
0.0
 11
-793.2933635724052
 21
986.5896768293817
 31
0.0
 11
-793.0204774858109
 21
985.2179366333569
 31
0.0
 11
-792.4784823791215
 21
982.4737335382405
 31
0.0
 11
-791.9415243512727
 21
979.7285726281369
 31
0.0
 11
-790.8827242849428
 21
974.2354051506605
 31
0.0
 11
-789.8440867925086
 21
968.7384897763077
 31
0.0
 11
-788.8256213796592
 21
963.237882080459
 31
0.0
 11
-787.8273375520821
 21
957.7336376384939
 31
0.0
 11
-786.8492448154657
 21
952.2258120257932
 31
0.0
 11
-785.8913526754984
 21
946.7144608177372
 31
0.0
 11
-784.8213664196039
 21
940.4115279593115
 31
0.0
 11
-783.777791221317
 21
934.1041457878998
 31
0.0
 11
-782.7606412698865
 21
927.7923972615038
 31
0.0
 11
-781.7699307545612
 21
921.4763653381257
 31
0.0
 11
-780.8056738645903
 21
915.1561329757676
 31
0.0
 11
-779.8678847892224
 21
908.8317831324312
 31
0.0
 11
-778.9565777177063
 21
902.5033987661182
 31
0.0
 11
-778.0717865193325
 21
896.1712058016238
 31
0.0
 11
-777.2135557876408
 21
889.835528961314
 31
0.0
 11
-776.3818949177484
 21
883.4964522142726
 31
0.0
 11
-775.5768133047728
 21
877.1540595295835
 31
0.0
 11
-774.7983203438319
 21
870.8084348763302
 31
0.0
 11
-774.046425430043
 21
864.4596622235972
 31
0.0
 11
-773.3211379585239
 21
858.1078255404681
 31
0.0
 11
-772.6224671891661
 21
851.7530076795875
 31
0.0
 11
-771.9504224987529
 21
845.3952925913561
 31
0.0
 11
-771.3050132365386
 21
839.0347639176077
 31
0.0
 11
-770.6862487517765
 21
832.6715053001756
 31
0.0
 11
-770.0941383937204
 21
826.3056003808937
 31
0.0
 11
-769.5286915116244
 21
819.9371328015952
 31
0.0
 11
-768.989917454742
 21
813.5661862041141
 31
0.0
  0
SPLINE
  5
29F
330
36
100
AcDbEntity
  8
0
  6
Continuous
 62
     7
100
AcDbSpline
210
0.0
220
0.0
230
1.0
 70
     8
 71
     3
 72
    82
 73
    78
 74
    76
 42
0.0000000001
 43
0.0000000001
 44
0.00000001
 40
0.0
 40
0.0
 40
0.0
 40
0.0
 40
0.6821715921618662
 40
1.364343184323374
 40
1.705428980404252
 40
2.04651477648535
 40
2.217057674525613
 40
2.387600572565789
 40
2.472872021585507
 40
2.558143470605832
 40
2.579461332860897
 40
2.60077919511591
 40
2.611438126250861
 40
2.622097057385895
 40
2.630380338229513
 40
2.643416649946286
 40
2.686233112373182
 40
2.72880919367794
 40
3.196331085491408
 40
3.663134490020861
 40
4.129348749866631
 40
4.595099458759948
 40
5.060509242242777
 40
5.450931698805393
 40
5.839377120210691
 40
6.225914186333187
 40
6.610603151049946
 40
6.908104405867042
 40
7.196957092790798
 40
7.476994994033304
 40
7.748030960777686
 40
8.009857792617819
 40
8.26224911754095
 40
8.587813011243931
 40
8.901941630144913
 40
9.204349431579617
 40
9.494718199588759
 40
9.772698703232242
 40
10.08665409412246
 40
10.39085201511191
 40
10.68508936803961
 40
10.96913688695078
 40
11.24274031540491
 40
11.50562158269936
 40
11.81183444416743
 40
12.10875854186482
 40
12.39620538707105
 40
12.67396274725695
 40
12.94179568757988
 40
13.19944761167642
 40
13.5190254271476
 40
13.82756406239992
 40
14.12479203703896
 40
14.41040743083654
 40
14.68407940283885
 40
15.11170742807648
 40
15.5391573411226
 40
15.96652445937495
 40
16.39390365587417
 40
16.82138987333931
 40
17.24907863796631
 40
17.67706657129403
 40
18.10545189838465
 40
18.38461472205599
 40
18.67619361046376
 40
18.97983416882175
 40
19.29521333751586
 40
19.57694275417081
 40
19.86974284615181
 40
20.17333632772795
 40
20.48747405747429
 40
20.88575773050255
 40
21.28459964511672
 40
21.68407777185675
 40
22.10110830749138
 40
22.50715838371366
 40
22.90207028245449
 40
22.90207028245449
 40
22.90207028245449
 40
22.90207028245449
 10
-765.2592066421341
 20
992.9557206350224
 30
0.0
 10
-765.3174806193861
 20
993.1755173525517
 30
0.0
 10
-765.4340285738899
 20
993.6151107876104
 30
0.0
 10
-765.5797135168951
 20
994.1646025814664
 30
0.0
 10
-765.6962614715978
 20
994.6041960164724
 30
0.0
 10
-765.7691039426031
 20
994.8789419135313
 30
0.0
 10
-765.8273779209735
 20
995.0987386307652
 30
0.0
 10
-765.8637991538834
 20
995.2361115799796
 30
0.0
 10
-765.8929361483903
 20
995.3460099371903
 30
0.0
 10
-765.9093256910054
 20
995.4078277675587
 30
0.0
 10
-765.9202520794631
 20
995.449039647413
 30
0.0
 10
-765.9248047014614
 20
995.4662112745529
 30
0.0
 10
-765.928446892053
 20
995.4799485516965
 30
0.0
 10
-765.9309754786611
 20
995.4894861025857
 30
0.0
 10
-765.9337071826005
 20
995.4997896415042
 30
0.0
 10
-765.9392026815045
 20
995.5204499337091
 30
0.0
 10
-765.9476977591042
 20
995.5521407853099
 30
0.0
 10
-765.9959507586502
 20
995.7300166552362
 30
0.0
 10
-766.0868136549721
 20
996.0427871484189
 30
0.0
 10
-766.2316502689232
 20
996.4866812112489
 30
0.0
 10
-766.3906870943844
 20
996.925064795425
 30
0.0
 10
-766.563747585017
 20
997.3576011921159
 30
0.0
 10
-766.7406511893652
 20
997.761135967188
 30
0.0
 10
-766.9184873524033
 20
998.1358902004033
 30
0.0
 10
-767.0945465167789
 20
998.4822258301178
 30
0.0
 10
-767.2790108652165
 20
998.821983455927
 30
0.0
 10
-767.4573896028417
 20
999.1304012725227
 30
0.0
 10
-767.6260912181415
 20
999.4066683474345
 30
0.0
 10
-767.7816326088902
 20
999.6500245528105
 30
0.0
 10
-767.9370840450779
 20
999.8829003378371
 30
0.0
 10
-768.0918468669653
 20
1000.105342006464
 30
0.0
 10
-768.2453225370804
 20
1000.317395702835
 30
0.0
 10
-768.4135043781533
 20
1000.541185420723
 30
0.0
 10
-768.5969350221371
 20
1000.775264313748
 30
0.0
 10
-768.7961274988293
 20
1001.018070848895
 30
0.0
 10
-768.9928705898398
 20
1001.24761853004
 30
0.0
 10
-769.1862973903228
 20
1001.464053651512
 30
0.0
 10
-769.386606450311
 20
1001.67941975635
 30
0.0
 10
-769.5945421647278
 20
1001.893909576387
 30
0.0
 10
-769.8109181923717
 20
1002.107662822232
 30
0.0
 10
-770.0244799653743
 20
1002.30998500472
 30
0.0
 10
-770.2345428915639
 20
1002.501084434589
 30
0.0
 10
-770.440422944204
 20
1002.681169813182
 30
0.0
 10
-770.6552945087293
 20
1002.862120408792
 30
0.0
 10
-770.8797736246924
 20
1003.043653374035
 30
0.0
 10
-771.1145034744143
 20
1003.225425371925
 30
0.0
 10
-771.345279773479
 20
1003.396710168225
 30
0.0
 10
-771.5714943340117
 20
1003.557776252346
 30
0.0
 10
-771.7925396876158
 20
1003.708892492311
 30
0.0
 10
-772.0279731343246
 20
1003.863576427674
 30
0.0
 10
-772.277977441592
 20
1004.02070420119
 30
0.0
 10
-772.5426907306625
 20
1004.179076371379
 30
0.0
 10
-772.8008604582434
 20
1004.326201188469
 30
0.0
 10
-773.0517599178128
 20
1004.462486752548
 30
0.0
 10
-773.343868603175
 20
1004.613836487036
 30
0.0
 10
-773.6821361819166
 20
1004.778712474701
 30
0.0
 10
-774.071886311537
 20
1004.954464802695
 30
0.0
 10
-774.4666386941896
 20
1005.118461374265
 30
0.0
 10
-774.8661258116699
 20
1005.270594236246
 30
0.0
 10
-775.2700820250864
 20
1005.410756505228
 30
0.0
 10
-775.6782417517343
 20
1005.538841093146
 30
0.0
 10
-776.0903373432539
 20
1005.654740503872
 30
0.0
 10
-776.457675870068
 20
1005.746279516815
 30
0.0
 10
-776.7827468979244
 20
1005.818796100903
 30
0.0
 10
-777.0684452552283
 20
1005.876570862611
 30
0.0
 10
-777.3671654027553
 20
1005.930535006082
 30
0.0
 10
-777.6637431102148
 20
1005.977509208345
 30
0.0
 10
-777.9576504766309
 20
1006.017790355532
 30
0.0
 10
-778.248407364015
 20
1006.051705293065
 30
0.0
 10
-778.5505644237667
 20
1006.080579117363
 30
0.0
 10
-778.8883432386623
 20
1006.105509092644
 30
0.0
 10
-779.2583738593505
 20
1006.123572074007
 30
0.0
 10
-779.657204679703
 20
1006.131896480807
 30
0.0
 10
-780.0623687928448
 20
1006.12910101822
 30
0.0
 10
-780.4696703712913
 20
1006.114435146763
 30
0.0
 10
-780.8749503093819
 20
1006.088968368763
 30
0.0
 10
-781.1406693946159
 20
1006.062802858839
 30
0.0
 10
-781.2716813923908
 20
1006.049902032671
 30
0.0
 11
-765.2592066421341
 21
992.9557206350224
 31
0.0
 11
-765.4340285738649
 21
993.6151107876169
 31
0.0
 11
-765.6088505055956
 21
994.2745009402111
 31
0.0
 11
-765.696261471461
 21
994.6041960165082
 31
0.0
 11
-765.7836724373264
 21
994.9338910928057
 31
0.0
 11
-765.8273779202592
 21
995.098738630954
 31
0.0
 11
-765.8710834031917
 21
995.2635861691024
 31
0.0
 11
-765.8929361446581
 21
995.3460099381762
 31
0.0
 11
-765.9147888861246
 21
995.4284337072505
 31
0.0
 11
-765.9202520714911
 21
995.4490396495191
 31
0.0
 11
-765.9257152568578
 21
995.4696455917876
 31
0.0
 11
-765.9284468714334
 21
995.4799485571253
 31
0.0
 11
-765.931178418203
 21
995.4902515404402
 31
0.0
 11
-765.9333020070637
 21
995.4982579823394
 31
0.0
 11
-765.9366528606777
 21
995.5108562839406
 31
0.0
 11
-765.9477391905899
 21
995.5522125741977
 31
0.0
 11
-765.9588860191077
 21
995.5933035818912
 31
0.0
 11
-766.0893142935785
 21
996.0422636965377
 31
0.0
 11
-766.2341127542297
 21
996.4860415962503
 31
0.0
 11
-766.3931068068492
 21
996.9243070720925
 31
0.0
 11
-766.5661218572252
 21
997.356729915127
 31
0.0
 11
-766.7529833111458
 21
997.7829799164175
 31
0.0
 11
-766.9203645392099
 21
998.1357024973223
 31
0.0
 11
-767.0963914111337
 21
998.4819746240831
 31
0.0
 11
-767.2808239990779
 21
998.8216737909805
 31
0.0
 11
-767.4734223752035
 21
999.1546774922942
 31
0.0
 11
-767.6284685338276
 21
999.4085823668313
 31
0.0
 11
-767.7840290427363
 21
999.6519684856038
 31
0.0
 11
-767.9395051782811
 21
999.8848813392816
 31
0.0
 11
-768.094298216814
 21
1000.107366418536
 31
0.0
 11
-768.2478094346853
 21
1000.319469214036
 31
0.0
 11
-768.3994401082474
 21
1000.521235216454
 31
0.0
 11
-768.6002496898982
 21
1000.777491652081
 31
0.0
 11
-768.7994866830965
 21
1001.02035253768
 31
0.0
 11
-768.9962841483591
 21
1001.249963591497
 31
0.0
 11
-769.1897751462017
 21
1001.466470531776
 31
0.0
 11
-769.379092737141
 21
1001.670019076764
 31
0.0
 11
-769.5976220877237
 21
1001.895436268662
 31
0.0
 11
-769.8140300541351
 21
1002.109221130633
 31
0.0
 11
-770.0276321908131
 21
1002.311581569119
 31
0.0
 11
-770.2377440521972
 21
1002.502725490564
 31
0.0
 11
-770.4436811927255
 21
1002.682860801408
 31
0.0
 11
-770.6447591668372
 21
1002.852195408094
 31
0.0
 11
-770.8828592066874
 21
1003.044743291883
 31
0.0
 11
-771.117621992919
 21
1003.226540855107
 31
0.0
 11
-771.3484394988352
 21
1003.397856259498
 31
0.0
 11
-771.5747036977399
 21
1003.55895766679
 31
0.0
 11
-771.7958065629362
 21
1003.710113238716
 31
0.0
 11
-772.0111400677274
 21
1003.851591137007
 31
0.0
 11
-772.281715026193
 21
1004.021647515872
 31
0.0
 11
-772.5464856041043
 21
1004.180054051456
 31
0.0
 11
-772.8047242769726
 21
1004.327218098503
 31
0.0
 11
-773.0557035203085
 21
1004.463547011756
 31
0.0
 11
-773.298695809623
 21
1004.589448145958
 31
0.0
 11
-773.6830938354334
 21
1004.776808455847
 31
0.0
 11
-774.0727579696559
 21
1004.952522116852
 31
0.0
 11
-774.4674221435904
 21
1005.116482000897
 31
0.0
 11
-774.8668202885356
 21
1005.268580979903
 31
0.0
 11
-775.2706863357915
 21
1005.408711925794
 31
0.0
 11
-775.6787542166562
 21
1005.536767710493
 31
0.0
 11
-776.0907578624301
 21
1005.652641205923
 31
0.0
 11
-776.5064312044118
 21
1005.756225284006
 31
0.0
 11
-776.7788967971795
 21
1005.817006719312
 31
0.0
 11
-777.0646905908284
 21
1005.874800799259
 31
0.0
 11
-777.3634945868271
 21
1005.928780060602
 31
0.0
 11
-777.6749907866442
 21
1005.978117040097
 31
0.0
 11
-777.9541109251063
 21
1006.016371615165
 31
0.0
 11
-778.2449392267193
 21
1006.050294952928
 31
0.0
 11
-778.5471560067724
 21
1006.079174355794
 31
0.0
 11
-778.860441580555
 21
1006.102297126171
 31
0.0
 11
-779.2582517347547
 21
1006.121712723418
 31
0.0
 11
-779.657006551647
 21
1006.130047521454
 31
0.0
 11
-780.0564748573879
 21
1006.127246369512
 31
0.0
 11
-780.4732417609047
 21
1006.112420183733
 31
0.0
 11
-780.8784518069854
 21
1006.086314955226
 31
0.0
 11
-781.2716813923908
 21
1006.049902032671
 31
0.0
  0
SPLINE
  5
2A0
330
36
100
AcDbEntity
  8
0
  6
Continuous
 62
     7
100
AcDbSpline
210
0.0
220
0.0
230
1.0
 70
     8
 71
     3
 72
   116
 73
   112
 74
   110
 42
0.0000000001
 43
0.0000000001
 44
0.00000001
 40
0.0
 40
0.0
 40
0.0
 40
0.0
 40
0.1372277018241205
 40
0.2647267708290582
 40
0.3816834656463808
 40
0.4872840444809763
 40
0.5807147651577018
 40
0.9593241897026117
 40
1.335724974381323
 40
1.495715726989278
 40
1.646366052510891
 40
1.786971070979148
 40
1.91682590181931
 40
2.035225663908146
 40
2.141465475626388
 40
2.234840454906824
 40
2.314645719278953
 40
2.863633219164811
 40
3.402249262299069
 40
3.930668524884705
 40
4.449065689098733
 40
4.957615443329399
 40
5.496448959833402
 40
6.024339311100279
 40
6.541498511513215
 40
6.566087829246079
 40
6.602294545928475
 40
6.649158606150022
 40
6.705719954692164
 40
6.771018536567969
 40
6.844094297064413
 40
6.923987181797534
 40
7.009737136775628
 40
7.100384108483677
 40
7.194968043987539
 40
7.572159063044251
 40
7.954107852742411
 40
8.186277539447357
 40
8.429069011794043
 40
8.680846055804562
 40
8.939972483754174
 40
9.204812139177568
 40
9.473728903093786
 40
9.745086701836085
 40
9.880050168870303
 40
10.02735561272451
 40
10.18495398849114
 40
10.35079627898198
 40
10.52283350187743
 40
10.69901671926188
 40
10.77142693738183
 40
10.85395891758938
 40
10.94458946451272
 40
11.04129540251662
 40
11.14205358259028
 40
11.18021902652708
 40
11.22565612609109
 40
11.27645743536236
 40
11.33071552111257
 40
11.36358633574783
 40
11.40537277492877
 40
11.41772986938605
 40
11.43329777214567
 40
11.44055000705646
 40
11.45211703546325
 40
11.46435542768191
 40
11.481534756805
 40
11.49844425794607
 40
11.57031551093335
 40
11.63459613156272
 40
11.69064163975229
 40
11.73780755186236
 40
11.77544938122143
 40
11.92352845164854
 40
12.07170714400755
 40
12.37361364049269
 40
12.67435688581418
 40
13.29512429880223
 40
13.91136787551011
 40
14.7605011155759
 40
15.60166216172498
 40
16.43508053608353
 40
16.6135892645254
 40
16.78307925174128
 40
16.94305376154654
 40
17.09301603487689
 40
17.23246929153804
 40
17.36091673182147
 40
17.47786153801801
 40
17.58280687587141
 40
18.14982170517379
 40
18.71318812492773
 40
19.55456281863919
 40
20.38888095709952
 40
21.21647436532418
 40
21.53176320449232
 40
21.84616774830819
 40
22.00225765150263
 40
22.15796611142243
 40
22.23483188571456
 40
22.30780850856084
 40
22.37825208226158
 40
22.44840165082177
 40
22.71698993432282
 40
22.99470316328389
 40
23.28162962935725
 40
23.57785781738248
 40
24.15174250376765
 40
24.72985963007399
 40
25.31504062271927
 40
25.91011616374231
 40
25.91011616374231
 40
25.91011616374231
 40
25.91011616374231
 10
-816.4275257852146
 20
1004.59938548401
 30
0.0
 10
-816.3817853702271
 20
1004.598941749042
 30
0.0
 10
-816.2935472652748
 20
1004.598085737292
 30
0.0
 10
-816.1663252889438
 20
1004.59686612158
 30
0.0
 10
-816.0496451178024
 20
1004.595756458126
 30
0.0
 10
-815.9443204720587
 20
1004.594762936716
 30
0.0
 10
-815.7517820073556
 20
1004.592959767473
 30
0.0
 10
-815.4689803377883
 20
1004.59035697515
 30
0.0
 10
-815.1639922069971
 20
1004.587629718334
 30
0.0
 10
-814.9349870263563
 20
1004.585625057072
 30
0.0
 10
-814.7845772802498
 20
1004.584324843928
 30
0.0
 10
-814.6442123424208
 20
1004.583125864062
 30
0.0
 10
-814.5145970942891
 20
1004.58203118598
 30
0.0
 10
-814.3964364173692
 20
1004.581043871229
 30
0.0
 10
-814.2904351931671
 20
1004.580166983653
 30
0.0
 10
-814.1972983030667
 20
1004.579403596752
 30
0.0
 10
-813.9565836754809
 20
1004.577446778119
 30
0.0
 10
-813.5674594929029
 20
1004.574377978827
 30
0.0
 10
-813.0288001205689
 20
1004.570369573137
 30
0.0
 10
-812.5003354845482
 20
1004.566680861299
 30
0.0
 10
-811.981891027024
 20
1004.563310248915
 30
0.0
 10
-811.4599736043454
 20
1004.560176018311
 30
0.0
 10
-810.9348902233633
 20
1004.557303902099
 30
0.0
 10
-810.4069354924161
 20
1004.554720342624
 30
0.0
 10
-810.0503924515488
 20
1004.553192220974
 30
0.0
 10
-809.8577422238052
 20
1004.552427660406
 30
0.0
 10
-809.8218558028516
 20
1004.552286588898
 30
0.0
 10
-809.7753121100027
 20
1004.552106346721
 30
0.0
 10
-809.7190711870127
 20
1004.551892312051
 30
0.0
 10
-809.6540930751881
 20
1004.55164997882
 30
0.0
 10
-809.5813378159598
 20
1004.551384806793
 30
0.0
 10
-809.5017654506903
 20
1004.551102269923
 30
0.0
 10
-809.4163360207753
 20
1004.550807835689
 30
0.0
 10
-809.3260095674846
 20
1004.550506978626
 30
0.0
 10
-809.1385365529394
 20
1004.549906678908
 30
0.0
 10
-808.853963105769
 20
1004.549096821207
 30
0.0
 10
-808.5235273978739
 20
1004.548362570569
 30
0.0
 10
-808.2378911387214
 20
1004.547885467581
 30
0.0
 10
-807.9956452412273
 20
1004.547590527472
 30
0.0
 10
-807.74441364572
 20
1004.547410845914
 30
0.0
 10
-807.4858325918315
 20
1004.547369729511
 30
0.0
 10
-807.221538318254
 20
1004.547490472467
 30
0.0
 10
-806.9531670643107
 20
1004.547796344165
 30
0.0
 10
-806.7280880999761
 20
1004.548223763417
 30
0.0
 10
-806.5435464500976
 20
1004.548691031407
 30
0.0
 10
-806.3969246743897
 20
1004.549130816399
 30
0.0
 10
-806.2400102780321
 20
1004.549686032602
 30
0.0
 10
-806.0748523953201
 20
1004.550372319328
 30
0.0
 10
-805.9035001608879
 20
1004.551205288775
 30
0.0
 10
-805.7632921756677
 20
1004.552000389084
 30
0.0
 10
-805.6529192431
 20
1004.552698584742
 30
0.0
 10
-805.5710635298185
 20
1004.553252140392
 30
0.0
 10
-805.481109757962
 20
1004.553907620431
 30
0.0
 10
-805.3850811999864
 20
1004.554667181719
 30
0.0
 10
-805.3065409410273
 20
1004.555346571864
 30
0.0
 10
-805.2450899981242
 20
1004.555915390374
 30
0.0
 10
-805.2002907990893
 20
1004.556347802014
 30
0.0
 10
-805.1501278830483
 20
1004.556857017878
 30
0.0
 10
-805.1041538103033
 20
1004.557352343239
 30
0.0
 10
-805.0611848218216
 20
1004.557842239821
 30
0.0
 10
-805.0321821329321
 20
1004.558191087721
 30
0.0
 10
-805.0089468468678
 20
1004.558485065168
 30
0.0
 10
-804.9972221002311
 20
1004.55863804547
 30
0.0
 10
-804.9857607449708
 20
1004.558791963531
 30
0.0
 10
-804.975409126032
 20
1004.558930941586
 30
0.0
 10
-804.961748783231
 20
1004.559115038689
 30
0.0
 10
-804.9463077934563
 20
1004.55932428636
 30
0.0
 10
-804.9109910432304
 20
1004.55980544585
 30
0.0
 10
-804.8599754570532
 20
1004.56051059177
 30
0.0
 10
-804.795916053042
 20
1004.561415477347
 30
0.0
 10
-804.7400911566501
 20
1004.562219140122
 30
0.0
 10
-804.6931450964665
 20
1004.562905931946
 30
0.0
 10
-804.6155246650142
 20
1004.564055079435
 30
0.0
 10
-804.5042374979155
 20
1004.565736576162
 30
0.0
 10
-804.3048737394252
 20
1004.568851602757
 30
0.0
 10
-804.0546311965554
 20
1004.572955853044
 30
0.0
 10
-803.6468875120795
 20
1004.580071890401
 30
0.0
 10
-803.1343955085737
 20
1004.589846449665
 30
0.0
 10
-802.4391710833692
 20
1004.604645698747
 30
0.0
 10
-801.6705443184532
 20
1004.623059028084
 30
0.0
 10
-800.8296143618029
 20
1004.645855336177
 30
0.0
 10
-800.2122004931234
 20
1004.664564576535
 30
0.0
 10
-799.8185997630135
 20
1004.677268951819
 30
0.0
 10
-799.6493672324956
 20
1004.682846667003
 30
0.0
 10
-799.4896484609185
 20
1004.688214088286
 30
0.0
 10
-799.3399393908774
 20
1004.69333681663
 30
0.0
 10
-799.2007359684178
 20
1004.698180424117
 30
0.0
 10
-799.0725341390157
 20
1004.702710477982
 30
0.0
 10
-798.9558298496834
 20
1004.706892634195
 30
0.0
 10
-798.6930344897332
 20
1004.716428819077
 30
0.0
 10
-798.2815501181758
 20
1004.731922614217
 30
0.0
 10
-797.6248225410636
 20
1004.758185429704
 30
0.0
 10
-796.8791546472081
 20
1004.790198446482
 30
0.0
 10
-796.0456252279699
 20
1004.828965459797
 30
0.0
 10
-795.3873831043364
 20
1004.861957484703
 30
0.0
 10
-794.902292512748
 20
1004.887495693562
 30
0.0
 10
-794.6407463616179
 20
1004.901631315717
 30
0.0
 10
-794.4323281446843
 20
1004.913114396794
 30
0.0
 10
-794.3029746557726
 20
1004.920332534129
 30
0.0
 10
-794.2012854381833
 20
1004.926058267184
 30
0.0
 10
-794.127974469982
 20
1004.930213981585
 30
0.0
 10
-794.0569006524213
 20
1004.934278198796
 30
0.0
 10
-793.9207329190382
 20
1004.942128040246
 30
0.0
 10
-793.7156032085886
 20
1004.954186312106
 30
0.0
 10
-793.4383693627426
 20
1004.970992995304
 30
0.0
 10
-793.151972479336
 20
1004.988899901634
 30
0.0
 10
-792.7670919096968
 20
1005.013719097971
 30
0.0
 10
-792.2854391545675
 20
1005.04616956863
 30
0.0
 10
-791.7078383520443
 20
1005.087279951252
 30
0.0
 10
-791.123334059743
 20
1005.13085464879
 30
0.0
 10
-790.7311309214622
 20
1005.161763662502
 30
0.0
 10
-790.533385356794
 20
1005.177347730484
 30
0.0
 11
-816.4275257852146
 21
1004.59938548401
 31
0.0
 11
-816.2903045140125
 21
1004.598056997044
 31
0.0
 11
-816.1628113095702
 21
1004.596834124133
 31
0.0
 11
-816.0458599019636
 21
1004.59572204436
 31
0.0
 11
-815.9402640212677
 21
1004.594725936805
 31
0.0
 11
-815.8468373975584
 21
1004.593850980549
 31
0.0
 11
-815.4682440055981
 21
1004.590366742006
 31
0.0
 11
-815.0918582668852
 21
1004.587001270225
 31
0.0
 11
-814.9318736438166
 21
1004.585600805421
 31
0.0
 11
-814.7812289467726
 21
1004.584298564173
 31
0.0
 11
-814.6406290573412
 21
1004.583097601908
 31
0.0
 11
-814.5107788571108
 21
1004.582000974054
 31
0.0
 11
-814.3923832276694
 21
1004.581011736038
 31
0.0
 11
-814.2861470506051
 21
1004.580132943288
 31
0.0
 11
-814.1927752075062
 21
1004.579367651229
 31
0.0
 11
-814.1129725799606
 21
1004.57871891529
 31
0.0
 11
-813.5640021333713
 21
1004.574391814351
 31
0.0
 11
-813.0254009858478
 21
1004.570386092452
 31
0.0
 11
-812.4969945792542
 21
1004.566700099725
 31
0.0
 11
-811.9786083554554
 21
1004.563332186304
 31
0.0
 11
-811.4700677563155
 21
1004.560280702321
 31
0.0
 11
-810.9312422849287
 21
1004.557336234154
 31
0.0
 11
-810.4033582354468
 21
1004.554756842107
 31
0.0
 11
-809.886203783248
 21
1004.552540732302
 31
0.0
 11
-809.8616146591295
 21
1004.552443153347
 31
0.0
 11
-809.8254082220507
 21
1004.552300861475
 31
0.0
 11
-809.778544513389
 21
1004.552119337593
 31
0.0
 11
-809.7219835745214
 21
1004.551904062608
 31
0.0
 11
-809.6566854468243
 21
1004.551660517427
 31
0.0
 11
-809.5836101716755
 21
1004.551394182959
 31
0.0
 11
-809.503717790451
 21
1004.551110540109
 31
0.0
 11
-809.4179683445284
 21
1004.550815069786
 31
0.0
 11
-809.3273218752844
 21
1004.550513252895
 31
0.0
 11
-809.2327384240962
 21
1004.550210570346
 31
0.0
 11
-808.8555489234657
 21
1004.549140303482
 31
0.0
 11
-808.4736010684437
 21
1004.548295320636
 31
0.0
 11
-808.2414317039649
 21
1004.547908510408
 31
0.0
 11
-807.9986404100821
 21
1004.547614131388
 31
0.0
 11
-807.7468634293673
 21
1004.547435601792
 31
0.0
 11
-807.4877370043921
 21
1004.547396339837
 31
0.0
 11
-807.2228973777285
 21
1004.547519763737
 31
0.0
 11
-806.9539807919484
 21
1004.54782929171
 31
0.0
 11
-806.6826234896234
 21
1004.548348341969
 31
0.0
 11
-806.5476604567352
 21
1004.548690668586
 31
0.0
 11
-806.4003556779302
 21
1004.549133308709
 31
0.0
 11
-806.2427582928187
 21
1004.549692102336
 31
0.0
 11
-806.0769174410108
 21
1004.550382889465
 31
0.0
 11
-805.904882262117
 21
1004.551221510094
 31
0.0
 11
-805.7287018957466
 21
1004.552223804221
 31
0.0
 11
-805.6562931283922
 21
1004.55268216915
 31
0.0
 11
-805.573763038519
 21
1004.55324075889
 31
0.0
 11
-805.483134903596
 21
1004.553901966875
 31
0.0
 11
-805.3864320010923
 21
1004.554668186541
 31
0.0
 11
-805.2856776084759
 21
1004.55554181132
 31
0.0
 11
-805.2475138011448
 21
1004.555895252811
 31
0.0
 11
-805.2020788210134
 21
1004.556334111842
 31
0.0
 11
-805.1512801355058
 21
1004.556850420249
 31
0.0
 11
-805.0970252120444
 21
1004.557436209868
 31
0.0
 11
-805.0641565385117
 21
1004.557811383146
 31
0.0
 11
-805.0223731436807
 21
1004.558315779637
 31
0.0
 11
-805.0100170398519
 21
1004.558472245594
 31
0.0
 11
-804.9944504647737
 21
1004.558675559804
 31
0.0
 11
-804.987198879756
 21
1004.558772647046
 31
0.0
 11
-804.9756328950855
 21
1004.558928032907
 31
0.0
 11
-804.9633956143679
 21
1004.559092971489
 31
0.0
 11
-804.9462178619048
 21
1004.559325714772
 31
0.0
 11
-804.9293099300151
 21
1004.559556079814
 31
0.0
 11
-804.8574455415983
 21
1004.560549399222
 31
0.0
 11
-804.7931713335072
 21
1004.561457343471
 31
0.0
 11
-804.7371316322842
 21
1004.562264111757
 31
0.0
 11
-804.6899707644716
 21
1004.562953903272
 31
0.0
 11
-804.6523330566114
 21
1004.56351091721
 31
0.0
 11
-804.5042708971874
 21
1004.565748783443
 31
0.0
 11
-804.3561102876765
 21
1004.568063661103
 31
0.0
 11
-804.0542443984814
 21
1004.573015182118
 31
0.0
 11
-803.7535469503691
 21
1004.578263449001
 31
0.0
 11
-803.1328924905147
 21
1004.590105006781
 31
0.0
 11
-802.516788571587
 21
1004.603223959317
 31
0.0
 11
-801.6678991327667
 21
1004.62357045887
 31
0.0
 11
-800.8270472568709
 21
1004.64637458922
 31
0.0
 11
-799.9940115675735
 21
1004.671627847926
 31
0.0
 11
-799.8155957563457
 21
1004.67738670492
 31
0.0
 11
-799.6461977528812
 21
1004.68296991087
 31
0.0
 11
-799.4863135021973
 21
1004.688343007805
 31
0.0
 11
-799.3364389493106
 21
1004.693471537753
 31
0.0
 11
-799.1970700392383
 21
1004.698321042743
 31
0.0
 11
-799.0687027169977
 21
1004.702857064804
 31
0.0
 11
-798.9518329276057
 21
1004.707045145966
 31
0.0
 11
-798.8469566160788
 21
1004.710850828256
 31
0.0
 11
-798.2803434496389
 21
1004.732189437996
 31
0.0
 11
-797.7174270780747
 21
1004.754703467654
 31
0.0
 11
-796.8768271140289
 21
1004.790801606999
 31
0.0
 11
-796.0434102898213
 21
1004.82957212791
 31
0.0
 11
-795.2168548499017
 21
1004.871008272472
 31
0.0
 11
-794.9020020604985
 21
1004.887584553992
 31
0.0
 11
-794.5880557166172
 21
1004.904552474773
 31
0.0
 11
-794.4322022026429
 21
1004.913139678108
 31
0.0
 11
-794.2767355607248
 21
1004.921814223704
 31
0.0
 11
-794.199991385016
 21
1004.926136115918
 31
0.0
 11
-794.1271318219124
 21
1004.930267888709
 31
0.0
 11
-794.0568031236226
 21
1004.934289240794
 31
0.0
 11
-793.9867698343224
 21
1004.9383266111
 31
0.0
 11
-793.71864442737
 21
1004.954088342624
 31
0.0
 11
-793.4414401128503
 21
1004.970893269033
 31
0.0
 11
-793.1550728433607
 21
1004.988798125873
 31
0.0
 11
-792.8594585714983
 21
1005.007859648686
 31
0.0
 11
-792.286871788797
 21
1005.046434375428
 31
0.0
 11
-791.7102102902672
 21
1005.087433495444
 31
0.0
 11
-791.1266546286768
 21
1005.13101771253
 31
0.0
 11
-790.533385356794
 21
1005.177347730484
 31
0.0
  0
SPLINE
  5
2A1
330
36
100
AcDbEntity
  8
0
  6
Continuous
 62
     7
100
AcDbSpline
210
0.0
220
0.0
230
1.0
 70
     8
 71
     3
 72
    25
 73
    21
 74
    19
 42
0.0000000001
 43
0.0000000001
 44
0.00000001
 40
0.0
 40
0.0
 40
0.0
 40
0.0
 40
0.7123779706952217
 40
1.431657463992405
 40
2.17714540929775
 40
2.861173314293659
 40
4.297965501868394
 40
5.75573288014972
 40
6.537118193600163
 40
7.246086920362633
 40
8.091449475450361
 40
8.857271032660366
 40
9.710695396672751
 40
10.48170736845306
 40
10.93953368395714
 40
11.33823502124591
 40
11.84857293012985
 40
12.34025249058754
 40
12.89525625270886
 40
13.4303373191808
 40
13.4303373191808
 40
13.4303373191808
 40
13.4303373191808
 10
-828.041931538879
 20
998.8751904523036
 30
0.0
 10
-827.896453182115
 20
999.0629307308689
 30
0.0
 10
-827.604087073282
 20
999.4402301170885
 30
0.0
 10
-827.1238767379238
 20
999.9849509782937
 30
0.0
 10
-826.6250214822028
 20
1000.499316431315
 30
0.0
 10
-825.9256388909225
 20
1001.150727215275
 30
0.0
 10
-824.9936144733046
 20
1001.898592512149
 30
0.0
 10
-823.9636026720568
 20
1002.566398323122
 30
0.0
 10
-823.0995606871217
 20
1003.035416772204
 30
0.0
 10
-822.3966963670882
 20
1003.371035754984
 30
0.0
 10
-821.6813809118913
 20
1003.666279153557
 30
0.0
 10
-820.9052768306375
 20
1003.936819835768
 30
0.0
 10
-820.1388952525019
 20
1004.156457529903
 30
0.0
 10
-819.46159361777
 20
1004.309756382851
 30
0.0
 10
-818.9277444095892
 20
1004.406806186726
 30
0.0
 10
-818.4771815895458
 20
1004.474874163997
 30
0.0
 10
-818.0134322708016
 20
1004.530041406357
 30
0.0
 10
-817.4961315480738
 20
1004.572963340803
 30
0.0
 10
-816.9693089706873
 20
1004.598817346105
 30
0.0
 10
-816.6059062973577
 20
1004.599198426285
 30
0.0
 10
-816.4275257852146
 20
1004.59938548401
 30
0.0
 11
-828.041931538879
 21
998.8751904523036
 31
0.0
 11
-827.5996995526316
 21
999.4336823891044
 31
0.0
 11
-827.1255649249285
 21
999.9745699414577
 31
0.0
 11
-826.6061480404337
 21
1000.509320702745
 31
0.0
 11
-826.1056865028311
 21
1000.975617200902
 31
0.0
 11
-824.9849857820992
 21
1001.874728809562
 31
0.0
 11
-823.7618553326106
 21
1002.667847736782
 31
0.0
 11
-823.0751256360695
 21
1003.040628278072
 31
0.0
 11
-822.435351843424
 21
1003.346121567313
 31
0.0
 11
-821.6539331421832
 21
1003.668647012659
 31
0.0
 11
-820.9307884036507
 21
1003.920727048799
 31
0.0
 11
-820.1103890569957
 21
1004.155839909141
 31
0.0
 11
-819.358398576223
 21
1004.326045013223
 31
0.0
 11
-818.9079538566484
 21
1004.407925962017
 31
0.0
 11
-818.513727488591
 21
1004.467493798004
 31
0.0
 11
-818.006953912424
 21
1004.527704459377
 31
0.0
 11
-817.5169802111668
 21
1004.568625874897
 31
0.0
 11
-816.9625856578507
 21
1004.59462309056
 31
0.0
 11
-816.4275257852146
 21
1004.59938548401
 31
0.0
  0
SPLINE
  5
2A2
330
36
100
AcDbEntity
  8
0
  6
Continuous
 62
     7
100
AcDbSpline
210
0.0
220
0.0
230
1.0
 70
     8
 71
     3
 72
    23
 73
    19
 74
    17
 42
0.0000000001
 43
0.0000000001
 44
0.00000001
 40
0.0
 40
0.0
 40
0.0
 40
0.0
 40
0.628412324755489
 40
1.254219728675914
 40
1.858896046622703
 40
2.508424832979868
 40
3.135624256772725
 40
3.762637858092475
 40
4.388215905522157
 40
5.01695577281188
 40
5.666413449164561
 40
6.27123773844007
 40
6.923443521451194
 40
7.525254993257002
 40
8.127135936240823
 40
8.779689037993391
 40
9.404396355432828
 40
10.03388485220258
 40
10.03388485220258
 40
10.03388485220258
 40
10.03388485220258
 10
-830.8915063295019
 20
989.4672335895173
 30
0.0
 10
-830.9007769726928
 20
989.6765329107076
 30
0.0
 10
-830.9192798300198
 20
990.0942639568602
 30
0.0
 10
-830.9121579625765
 20
990.7141593856543
 30
0.0
 10
-830.8799345326909
 20
991.3401403986836
 30
0.0
 10
-830.819703452687
 20
991.9646152294197
 30
0.0
 10
-830.730749927264
 20
992.5931278470318
 30
0.0
 10
-830.6157445035092
 20
993.2092873103852
 30
0.0
 10
-830.4737613214491
 20
993.8203182739312
 30
0.0
 10
-830.3031088913749
 20
994.4317443744362
 30
0.0
 10
-830.1074600372685
 20
995.0283793973626
 30
0.0
 10
-829.8830932720209
 20
995.6231455362461
 30
0.0
 10
-829.6390599482137
 20
996.1929224228693
 30
0.0
 10
-829.3707050904218
 20
996.7505132651309
 30
0.0
 10
-829.0791890345853
 20
997.2965094563369
 30
0.0
 10
-828.7596858341731
 20
997.8354796839392
 30
0.0
 10
-828.4130143789323
 20
998.3685571831543
 30
0.0
 10
-828.1659397804939
 20
998.7058840493403
 30
0.0
 10
-828.041931538879
 20
998.8751904523036
 30
0.0
 11
-830.8915063295019
 21
989.4672335895173
 31
0.0
 11
-830.9134670124433
 21
990.0952620747863
 31
0.0
 11
-830.9078411253875
 21
990.7210441903796
 31
0.0
 11
-830.8763671801247
 21
991.3249008292065
 31
0.0
 11
-830.8141271934703
 21
991.9714407184383
 31
0.0
 11
-830.7262077174588
 21
992.5924473874395
 31
0.0
 11
-830.6111716488852
 21
993.2088180220151
 31
0.0
 11
-830.4695790740727
 21
993.8181614688363
 31
0.0
 11
-830.3005549593283
 21
994.4237559448302
 31
0.0
 11
-830.0981870873901
 21
995.0408803389199
 31
0.0
 11
-829.8847126281677
 21
995.606778806984
 31
0.0
 11
-829.6279281174458
 21
996.2063070368836
 31
0.0
 11
-829.3669689586568
 21
996.7485960419733
 31
0.0
 11
-829.0833984507345
 21
997.2794900394566
 31
0.0
 11
-828.7510217621923
 21
997.8410515120672
 31
0.0
 11
-828.409158471402
 21
998.3639173867161
 31
0.0
 11
-828.041931538879
 21
998.8751904523036
 31
0.0
  0
SPLINE
  5
2A3
330
36
100
AcDbEntity
  8
0
  6
Continuous
 62
     7
100
AcDbSpline
210
0.0
220
0.0
230
1.0
 70
    24
 71
     3
 72
    11
 73
     7
 74
     5
 42
0.0000000001
 43
0.0000000001
 44
0.00000001
 40
0.0
 40
0.0
 40
0.0
 40
0.0
 40
5.765207736097619
 40
11.53041547219546
 40
23.38144854998558
 40
36.89732951102529
 40
36.89732951102529
 40
36.89732951102529
 40
36.89732951102529
 10
-830.8915063295019
 20
989.4672335895173
 30
0.0
 10
-828.9708776248813
 20
989.5324585431958
 30
0.0
 10
-825.1296202156395
 20
989.6629084505524
 30
0.0
 10
-817.3402944365284
 20
989.9274355878929
 30
0.0
 10
-806.9688994315764
 20
990.2796503377551
 30
0.0
 10
-798.5181331312448
 20
990.5666401339386
 30
0.0
 10
-794.0154352007828
 20
990.7195527001386
 30
0.0
 11
-830.8915063295019
 21
989.4672335895173
 31
0.0
 11
-825.1296202156397
 21
989.6629084505523
 31
0.0
 11
-819.3677341017772
 21
989.8585833115872
 31
0.0
 11
-807.5235289921687
 21
990.2608150015387
 31
0.0
 11
-794.0154352007828
 21
990.7195527001386
 31
0.0
  0
SPLINE
  5
2A4
330
36
100
AcDbEntity
  8
0
  6
Continuous
 62
     7
100
AcDbSpline
210
0.0
220
0.0
230
1.0
 70
     8
 71
     3
 72
     9
 73
     5
 74
     3
 42
0.0000000001
 43
0.0000000001
 44
0.00000001
 40
0.0
 40
0.0
 40
0.0
 40
0.0
 40
27.66329860691041
 40
55.34422380123694
 40
55.34422380123694
 40
55.34422380123694
 40
55.34422380123694
 10
-723.2637477993961
 20
761.8269043728453
 30
0.0
 10
-724.2033676939037
 20
771.000171546999
 30
0.0
 10
-726.0832061928716
 20
789.3525509464707
 30
0.0
 10
-728.2572731644589
 20
807.6724053266324
 30
0.0
 10
-729.3446528596568
 20
816.8352498628472
 30
0.0
 11
-723.2637477993961
 21
761.8269043728453
 31
0.0
 11
-726.1561177541068
 21
789.3385798191023
 31
0.0
 11
-729.3446528596568
 21
816.8352498628472
 31
0.0
  0
SPLINE
  5
2A5
330
36
100
AcDbEntity
  8
0
  6
Continuous
 62
     7
100
AcDbSpline
210
0.0
220
0.0
230
1.0
 70
     8
 71
     3
 72
    13
 73
     9
 74
     7
 42
0.0000000001
 43
0.0000000001
 44
0.00000001
 40
0.0
 40
0.0
 40
0.0
 40
0.0
 40
2.075847666192697
 40
4.146601187842959
 40
15.61808511861108
 40
27.33843394651551
 40
38.73677743794541
 40
50.51929476607803
 40
50.51929476607803
 40
50.51929476607803
 40
50.51929476607803
 10
-764.7976583351765
 20
748.7040771628845
 30
0.0
 10
-764.7715060995467
 20
748.0126217673453
 30
0.0
 10
-764.7192658060545
 20
746.631407812594
 30
0.0
 10
-764.538374943047
 20
741.4285239678376
 30
0.0
 10
-764.3125373931654
 20
733.0102979883815
 30
0.0
 10
-764.1940161645799
 20
721.4804568037937
 30
0.0
 10
-764.2628773516378
 20
709.8459010540596
 30
0.0
 10
-764.4984129691438
 20
702.1222815023125
 30
0.0
 10
-764.6181325307366
 20
698.1964703811154
 30
0.0
 11
-764.7976583351765
 21
748.7040771628845
 31
0.0
 11
-764.7202576617423
 21
746.6296729908414
 31
0.0
 11
-764.6480922612293
 21
744.5601773270635
 31
0.0
 11
-764.346044902337
 21
733.0926705811811
 31
0.0
 11
-764.2249954069195
 21
721.37294687849
 31
0.0
 11
-764.3080093998906
 21
709.9749056860046
 31
0.0
 11
-764.6181325307366
 21
698.1964703811154
 31
0.0
  0
SPLINE
  5
2A6
330
36
100
AcDbEntity
  8
0
  6
Continuous
 62
     7
100
AcDbSpline
210
0.0
220
0.0
230
1.0
 70
     8
 71
     3
 72
    15
 73
    11
 74
     9
 42
0.0000000001
 43
0.0000000001
 44
0.00000001
 40
0.0
 40
0.0
 40
0.0
 40
0.0
 40
2.844519799790524
 40
5.689074178874226
 40
8.533661012037904
 40
11.37827817390792
 40
14.2229235389927
 40
17.06759498165659
 40
19.91229037616262
 40
22.75700759665256
 40
22.75700759665256
 40
22.75700759665256
 40
22.75700759665256
 10
-768.989917454742
 20
813.5661862041141
 30
0.0
 10
-768.9123310425131
 20
812.6211924917566
 30
0.0
 10
-768.7571572748792
 20
810.7311935792627
 30
0.0
 10
-768.5287904537706
 20
807.8958205362661
 30
0.0
 10
-768.303637538557
 20
805.0601584369797
 30
0.0
 10
-768.0820207224133
 20
802.2241871728061
 30
0.0
 10
-767.8638334045945
 20
799.3879217102403
 30
0.0
 10
-767.6491834300228
 20
796.5513603888876
 30
0.0
 10
-767.4377495319627
 20
793.7145329925722
 30
0.0
 10
-767.2997252709316
 20
791.8230912229793
 30
0.0
 10
-767.2307128756683
 20
790.877366710165
 30
0.0
 11
-768.989917454742
 21
813.5661862041141
 31
0.0
 11
-768.7578907360704
 21
810.7311453766791
 31
0.0
 11
-768.5293273984529
 21
807.8957885355987
 31
0.0
 11
-768.3042280793962
 21
805.0601220270036
 31
0.0
 11
-768.0825933957237
 21
802.2241521991318
 31
0.0
 11
-767.8644239539268
 21
799.3878854014267
 31
0.0
 11
-767.6497203398
 21
796.5513279853344
 31
0.0
 11
-767.4384831287983
 21
793.7144863034262
 31
0.0
 11
-767.2307128756683
 21
790.877366710165
 31
0.0
  0
SPLINE
  5
2A7
330
36
100
AcDbEntity
  8
0
  6
Continuous
 62
     7
100
AcDbSpline
210
0.0
220
0.0
230
1.0
 70
     8
 71
     3
 72
    16
 73
    12
 74
    10
 42
0.0000000001
 43
0.0000000001
 44
0.00000001
 40
0.0
 40
0.0
 40
0.0
 40
0.0
 40
4.343505105420132
 40
8.213931279250318
 40
11.59339579303284
 40
17.8082945951507
 40
23.19180614940898
 40
29.13294600398636
 40
34.7921502109643
 40
35.17170306245994
 40
35.55101105653217
 40
35.55101105653217
 40
35.55101105653217
 40
35.55101105653217
 10
-767.2307128756683
 20
790.877366710165
 30
0.0
 10
-767.1268499538232
 20
789.4332611295229
 30
0.0
 10
-766.9304364854861
 20
786.7023367466846
 30
0.0
 10
-766.6649748230293
 20
782.8469943512001
 30
0.0
 10
-766.3659931961221
 20
778.3686986463349
 30
0.0
 10
-766.0492088554287
 20
773.3861164367272
 30
0.0
 10
-765.7028897526908
 20
767.5498501799723
 30
0.0
 10
-765.3935314804273
 20
761.8969994672125
 30
0.0
 10
-765.1964634213909
 20
757.9085430640048
 30
0.0
 10
-765.0973557708865
 20
755.7714849307926
 30
0.0
 10
-765.0857598565173
 20
755.5187972401785
 30
0.0
 10
-765.0799637701272
 20
755.3924941615398
 30
0.0
 11
-767.2307128756683
 21
790.877366710165
 31
0.0
 11
-766.9214544187906
 21
786.544885226343
 31
0.0
 11
-766.6551647904846
 21
782.6836304301755
 31
0.0
 11
-766.4302084632304
 21
779.3116614133037
 31
0.0
 11
-766.0363041907269
 21
773.109258125491
 31
0.0
 11
-765.7178162415851
 21
767.7351756846381
 31
0.0
 11
-765.3937663903844
 21
761.8028797997732
 31
0.0
 11
-765.1149591804192
 21
756.1505476442866
 31
0.0
 11
-765.0973826100022
 21
755.771401984611
 31
0.0
 11
-765.0799637701272
 21
755.3924941615398
 31
0.0
  0
SPLINE
  5
2A8
330
36
100
AcDbEntity
  8
0
  6
Continuous
 62
     7
100
AcDbSpline
210
0.0
220
0.0
230
1.0
 70
     8
 71
     3
 72
    11
 73
     7
 74
     5
 42
0.0000000001
 43
0.0000000001
 44
0.00000001
 40
0.0
 40
0.0
 40
0.0
 40
0.0
 40
32.3865900798764
 40
64.77318015969834
 40
97.15977023951155
 40
129.5463603193245
 40
129.5463603193245
 40
129.5463603193245
 40
129.5463603193245
 10
-773.7138816125979
 20
686.711384159482
 30
0.0
 10
-775.7172806372155
 20
697.319393440395
 30
0.0
 10
-779.724078686447
 20
718.5354120022028
 30
0.0
 10
-785.7342757627598
 20
750.3594398444368
 30
0.0
 10
-791.7444728386563
 20
782.1834676867281
 30
0.0
 10
-795.7512708894677
 20
803.3994862482131
 30
0.0
 10
-797.7546699148735
 20
814.0074955289556
 30
0.0
 11
-773.7138816125979
 21
686.711384159482
 31
0.0
 11
-779.7240786868617
 21
718.535412002143
 31
0.0
 11
-785.7342757626916
 21
750.3594398444527
 31
0.0
 11
-791.7444728387097
 21
782.183467686718
 31
0.0
 11
-797.7546699148735
 21
814.0074955289556
 31
0.0
  0
SPLINE
  5
2A9
330
36
100
AcDbEntity
  8
0
  6
Continuous
 62
     7
100
AcDbSpline
210
0.0
220
0.0
230
1.0
 70
     8
 71
     3
 72
    15
 73
    11
 74
     9
 42
0.0000000001
 43
0.0000000001
 44
0.00000001
 40
0.0
 40
0.0
 40
0.0
 40
0.0
 40
24.55085957803212
 40
50.10650889840902
 40
74.83366057978924
 40
97.90752499569008
 40
119.7151246347047
 40
140.4921442735586
 40
160.4871762403847
 40
179.8446201490905
 40
179.8446201490905
 40
179.8446201490905
 40
179.8446201490905
 10
-729.3446528596568
 20
816.8352498628472
 30
0.0
 10
-730.5493517113746
 20
824.9298829060499
 30
0.0
 10
-733.0080539633932
 20
841.4504369550625
 30
0.0
 10
-737.1810480518592
 20
866.0451748933588
 30
0.0
 10
-741.6332264882175
 20
890.089484844219
 30
0.0
 10
-746.2173724221771
 20
912.8359503321017
 30
0.0
 10
-750.8501791629003
 20
934.2269391075726
 30
0.0
 10
-755.5526332431922
 20
954.5503987103652
 30
0.0
 10
-760.3110380970556
 20
974.0213806282078
 30
0.0
 10
-763.6277294503038
 20
986.7128160973011
 30
0.0
 10
-765.2592066421341
 20
992.9557206350224
 30
0.0
 11
-729.3446528596568
 21
816.8352498628472
 31
0.0
 11
-733.0392742929055
 21
841.1065184429035
 31
0.0
 11
-737.2912627215671
 21
866.3059590436114
 31
0.0
 11
-741.7996193088416
 21
890.6186460846599
 31
0.0
 11
-746.3565541891441
 21
913.2380528757333
 31
0.0
 11
-750.9740925849125
 21
934.551188289819
 31
0.0
 11
-755.6536656306118
 21
954.7943634652525
 31
0.0
 11
-760.4137718703275
 21
974.2145254609984
 31
0.0
 11
-765.2592066421341
 21
992.9557206350224
 31
0.0
  0
SPLINE
  5
2AA
330
36
100
AcDbEntity
  8
0
  6
Continuous
 62
     7
100
AcDbSpline
210
0.0
220
0.0
230
1.0
 70
     8
 71
     3
 72
    11
 73
     7
 74
     5
 42
0.0000000001
 43
0.0000000001
 44
0.00000001
 40
0.0
 40
0.0
 40
0.0
 40
0.0
 40
44.64034722636767
 40
89.28069445273511
 40
133.9210416791028
 40
178.5613889054707
 40
178.5613889054707
 40
178.5613889054707
 40
178.5613889054707
 10
-797.7546699148735
 20
814.0074955289556
 30
0.0
 10
-800.5160729494062
 20
828.6291403673395
 30
0.0
 10
-806.0388790184718
 20
857.8724300441072
 30
0.0
 10
-814.3230881222262
 20
901.737364559229
 30
0.0
 10
-822.6072972257489
 20
945.6022990743951
 30
0.0
 10
-828.1301032949174
 20
974.8455887511429
 30
0.0
 10
-830.8915063295019
 20
989.4672335895173
 30
0.0
 11
-797.7546699148735
 21
814.0074955289556
 31
0.0
 11
-806.0388790184977
 21
857.8724300441022
 31
0.0
 11
-814.3230881221875
 21
901.7373645592362
 31
0.0
 11
-822.6072972257871
 21
945.6022990743875
 31
0.0
 11
-830.8915063295019
 21
989.4672335895173
 31
0.0
  0
SPLINE
  5
2AB
330
36
100
AcDbEntity
  8
0
  6
Continuous
 62
     7
100
AcDbSpline
210
0.0
220
0.0
230
1.0
 70
     8
 71
     3
 72
    11
 73
     7
 74
     5
 42
0.0000000001
 43
0.0000000001
 44
0.00000001
 40
0.0
 40
0.0
 40
0.0
 40
0.0
 40
43.3521613463784
 40
86.73486494947139
 40
93.68760802639331
 40
100.6410874255203
 40
100.6410874255203
 40
100.6410874255203
 40
100.6410874255203
 10
-714.2325903585249
 20
643.9679527843721
 30
0.0
 10
-715.075313013886
 20
658.3944053218888
 30
0.0
 10
-716.7613520355303
 20
687.2574740520481
 30
0.0
 10
-719.2569303682747
 20
718.3893943079086
 30
0.0
 10
-720.941961476115
 20
737.4111802330783
 30
0.0
 10
-721.3669802941444
 20
742.0270680524911
 30
0.0
 10
-721.5795009553448
 20
744.3351341657906
 30
0.0
 11
-714.2325903585249
 21
643.9679527843721
 31
0.0
 11
-716.9167327930915
 21
687.2369402094712
 31
0.0
 11
-720.3311052926596
 21
730.4850734911287
 31
0.0
 11
-720.945938659379
 21
737.4105782543105
 31
0.0
 11
-721.5795009553448
 21
744.3351341657906
 31
0.0
  0
SPLINE
  5
2AC
330
36
100
AcDbEntity
  8
0
  6
Continuous
 62
     7
100
AcDbSpline
210
0.0
220
0.0
230
1.0
 70
    24
 71
     3
 72
    15
 73
    11
 74
     9
 42
0.0000000001
 43
0.0000000001
 44
0.00000001
 40
0.0
 40
0.0
 40
0.0
 40
0.0
 40
0.0009378825734437
 40
0.0018757651369203
 40
0.0028136476887143
 40
0.0037515302289503
 40
0.0046894127585323
 40
0.0056272952758691
 40
0.0065651777822139
 40
0.0075030602769932
 40
0.0075030602769932
 40
0.0075030602769932
 40
0.0075030602769932
 10
-711.2484361881881
 20
566.4802697109672
 30
0.0
 10
-711.2484435197497
 20
566.480582252512
 30
0.0
 10
-711.2484581828726
 20
566.4812073355984
 30
0.0
 10
-711.2484801779899
 20
566.4821449602125
 30
0.0
 10
-711.2485021734221
 20
566.4830825848078
 30
0.0
 10
-711.2485241692025
 20
566.4840202093839
 30
0.0
 10
-711.2485461653198
 20
566.4849578339404
 30
0.0
 10
-711.2485681617845
 20
566.4858954584774
 30
0.0
 10
-711.2485901585653
 20
566.4868330829958
 30
0.0
 10
-711.2486048233737
 20
566.4874581659973
 30
0.0
 10
-711.2486121557779
 20
566.4877707074961
 30
0.0
 11
-711.2484361881881
 21
566.4802697109672
 31
0.0
 11
-711.2484581829449
 21
566.4812073356001
 31
0.0
 11
-711.2484801780424
 21
566.482144960215
 31
0.0
 11
-711.2485021734802
 21
566.4830825848103
 31
0.0
 11
-711.2485241692588
 21
566.484020209386
 31
0.0
 11
-711.2485461653778
 21
566.4849578339431
 31
0.0
 11
-711.2485681618373
 21
566.4858954584799
 31
0.0
 11
-711.2485901586374
 21
566.4868330829978
 31
0.0
 11
-711.2486121557779
 21
566.4877707074961
 31
0.0
  0
ENDBLK
  5
38
330
36
100
AcDbEntity
  8
0
100
AcDbBlockEnd
  0
ENDSEC
  0
SECTION
  2
ENTITIES
  0
INSERT
  5
39
330
1F
100
AcDbEntity
  8
1
100
AcDbBlockReference
  2
1
 10
0.0
 20
0.0
 30
0.0
  0
ENDSEC
  0
SECTION
  2
OBJECTS
  0
DICTIONARY
  5
C
330
0
100
AcDbDictionary
281
     1
  3
ACAD_GROUP
350
D
  3
ACAD_LAYOUT
350
1A
  3
ACAD_MLINESTYLE
350
17
  3
ACAD_PLOTSETTINGS
350
19
  3
ACAD_PLOTSTYLENAME
350
E
  3
ACAD_TABLESTYLE
350
2A
  3
AcDbVariableDictionary
350
2C
  0
DICTIONARY
  5
D
102
{ACAD_REACTORS
330
C
102
}
330
C
100
AcDbDictionary
281
     1
  0
DICTIONARY
  5
1A
102
{ACAD_REACTORS
330
C
102
}
330
C
100
AcDbDictionary
281
     1
  3
Layout1
350
1E
  3
Layout2
350
26
  3
Model
350
22
  0
DICTIONARY
  5
17
102
{ACAD_REACTORS
330
C
102
}
330
C
100
AcDbDictionary
281
     1
  3
Standard
350
18
  0
DICTIONARY
  5
19
102
{ACAD_REACTORS
330
C
102
}
330
C
100
AcDbDictionary
281
     1
  0
ACDBDICTIONARYWDFLT
  5
E
102
{ACAD_REACTORS
330
C
102
}
330
C
100
AcDbDictionary
281
     1
  3
Normal
350
F
100
AcDbDictionaryWithDefault
340
F
  0
DICTIONARY
  5
2A
102
{ACAD_REACTORS
330
C
102
}
330
C
100
AcDbDictionary
281
     1
  3
Standard
350
2B
  0
DICTIONARY
  5
2C
102
{ACAD_REACTORS
330
C
102
}
330
C
100
AcDbDictionary
281
     1
  3
CTABLESTYLE
350
2D
  0
LAYOUT
  5
1E
102
{ACAD_REACTORS
330
1A
102
}
330
1A
100
AcDbPlotSettings
  1

  2

  4

  6

 40
0.0
 41
0.0
 42
0.0
 43
0.0
 44
0.0
 45
0.0
 46
0.0
 47
0.0
 48
0.0
 49
0.0
140
0.0
141
0.0
142
1.0
143
1.0
 70
   688
 72
     0
 73
     0
 74
     5
  7

 75
    16
147
1.0
148
0.0
149
0.0
100
AcDbLayout
  1
Layout1
 70
     1
 71
     1
 10
0.0
 20
0.0
 11
12.0
 21
9.0
 12
0.0
 22
0.0
 32
0.0
 14
1.00000000000000E+20
 24
1.00000000000000E+20
 34
1.00000000000000E+20
 15
-1.00000000000000E+20
 25
-1.00000000000000E+20
 35
-1.00000000000000E+20
146
0.0
 13
0.0
 23
0.0
 33
0.0
 16
1.0
 26
0.0
 36
0.0
 17
0.0
 27
1.0
 37
0.0
 76
     0
330
1B
  0
LAYOUT
  5
26
102
{ACAD_REACTORS
330
1A
102
}
330
1A
100
AcDbPlotSettings
  1

  2

  4

  6

 40
0.0
 41
0.0
 42
0.0
 43
0.0
 44
0.0
 45
0.0
 46
0.0
 47
0.0
 48
0.0
 49
0.0
140
0.0
141
0.0
142
1.0
143
1.0
 70
   688
 72
     0
 73
     0
 74
     5
  7

 75
    16
147
1.0
148
0.0
149
0.0
100
AcDbLayout
  1
Layout2
 70
     1
 71
     2
 10
0.0
 20
0.0
 11
0.0
 21
0.0
 12
0.0
 22
0.0
 32
0.0
 14
0.0
 24
0.0
 34
0.0
 15
0.0
 25
0.0
 35
0.0
146
0.0
 13
0.0
 23
0.0
 33
0.0
 16
1.0
 26
0.0
 36
0.0
 17
0.0
 27
1.0
 37
0.0
 76
     0
330
23
  0
LAYOUT
  5
22
102
{ACAD_REACTORS
330
1A
102
}
330
1A
100
AcDbPlotSettings
  1

  2

  4

  6

 40
0.0
 41
0.0
 42
0.0
 43
0.0
 44
0.0
 45
0.0
 46
0.0
 47
0.0
 48
0.0
 49
0.0
140
0.0
141
0.0
142
1.0
143
1.0
 70
  1712
 72
     0
 73
     0
 74
     0
  7

 75
     0
147
1.0
148
0.0
149
0.0
100
AcDbLayout
  1
Model
 70
     1
 71
     0
 10
0.0
 20
0.0
 11
0.0
 21
0.0
 12
0.0
 22
0.0
 32
0.0
 14
-831.7843132740293
 24
126.1679768170141
 34
0.0
 15
1147.990658639802
 25
1006.363392880092
 35
0.0
146
0.0
 13
0.0
 23
0.0
 33
0.0
 16
1.0
 26
0.0
 36
0.0
 17
0.0
 27
1.0
 37
0.0
 76
     0
330
1F
  0
MLINESTYLE
  5
18
102
{ACAD_REACTORS
330
17
102
}
330
17
100
AcDbMlineStyle
  2
Standard
 70
     0
  3

 62
   256
 51
90.0
 52
90.0
 71
     2
 49
0.5
 62
   256
  6
BYLAYER
 49
-0.5
 62
   256
  6
BYLAYER
  0
ACDBPLACEHOLDER
  5
F
102
{ACAD_REACTORS
330
E
102
}
330
E
  0
TABLESTYLE
  5
2B
102
{ACAD_REACTORS
330
2A
102
}
330
2A
100
AcDbTableStyle
  3
Standard
 70
     0
 71
     0
 40
0.06
 41
0.06
280
     0
281
     0
  7
Standard
140
0.18
170
     2
 62
     0
 63
     7
283
     0
274
    -2
284
     1
 64
     0
275
    -2
285
     1
 65
     0
276
    -2
286
     1
 66
     0
277
    -2
287
     1
 67
     0
278
    -2
288
     1
 68
     0
279
    -2
289
     1
 69
     0
  7
Standard
140
0.25
170
     5
 62
     0
 63
     7
283
     0
274
    -2
284
     1
 64
     0
275
    -2
285
     1
 65
     0
276
    -2
286
     1
 66
     0
277
    -2
287
     1
 67
     0
278
    -2
288
     1
 68
     0
279
    -2
289
     1
 69
     0
  7
Standard
140
0.18
170
     5
 62
     0
 63
     7
283
     0
274
    -2
284
     1
 64
     0
275
    -2
285
     1
 65
     0
276
    -2
286
     1
 66
     0
277
    -2
287
     1
 67
     0
278
    -2
288
     1
 68
     0
279
    -2
289
     1
 69
     0
  0
DICTIONARYVAR
  5
2D
102
{ACAD_REACTORS
330
2C
102
}
330
2C
100
DictionaryVariables
280
     0
  1
Standard
  0
ENDSEC
  0
EOF
