  0
SECTION
  2
HEADER
  9
$ACADVER
  1
AC1015
  9
$ACADMAINTVER
 70
     6
  9
$DWGCODEPAGE
  3
ANSI_1252
  9
$INSBASE
 10
0.0
 20
0.0
 30
0.0
  9
$EXTMIN
 10
-644.3243620040638
 20
-9.98990443161813
 30
0.0
  9
$EXTMAX
 10
1399.14445233246
 20
1035.403900272568
 30
0.0
  9
$LIMMIN
 10
0.0
 20
0.0
  9
$LIMMAX
 10
12.0
 20
9.0
  9
$ORTHOMODE
 70
     0
  9
$REGENMODE
 70
     1
  9
$FILLMODE
 70
     1
  9
$QTEXTMODE
 70
     0
  9
$MIRRTEXT
 70
     1
  9
$LTSCALE
 40
1.0
  9
$ATTMODE
 70
     1
  9
$TEXTSIZE
 40
0.2
  9
$TRACEWID
 40
0.05
  9
$TEXTSTYLE
  7
Standard
  9
$CLAYER
  8
0
  9
$CELTYPE
  6
ByLayer
  9
$CECOLOR
 62
   256
  9
$CELTSCALE
 40
1.0
  9
$DISPSILH
 70
     0
  9
$DIMSCALE
 40
1.0
  9
$DIMASZ
 40
0.18
  9
$DIMEXO
 40
0.0625
  9
$DIMDLI
 40
0.38
  9
$DIMRND
 40
0.0
  9
$DIMDLE
 40
0.0
  9
$DIMEXE
 40
0.18
  9
$DIMTP
 40
0.0
  9
$DIMTM
 40
0.0
  9
$DIMTXT
 40
0.18
  9
$DIMCEN
 40
0.09
  9
$DIMTSZ
 40
0.0
  9
$DIMTOL
 70
     0
  9
$DIMLIM
 70
     0
  9
$DIMTIH
 70
     1
  9
$DIMTOH
 70
     1
  9
$DIMSE1
 70
     0
  9
$DIMSE2
 70
     0
  9
$DIMTAD
 70
     0
  9
$DIMZIN
 70
     0
  9
$DIMBLK
  1

  9
$DIMASO
 70
     1
  9
$DIMSHO
 70
     1
  9
$DIMPOST
  1

  9
$DIMAPOST
  1

  9
$DIMALT
 70
     0
  9
$DIMALTD
 70
     2
  9
$DIMALTF
 40
25.4
  9
$DIMLFAC
 40
1.0
  9
$DIMTOFL
 70
     0
  9
$DIMTVP
 40
0.0
  9
$DIMTIX
 70
     0
  9
$DIMSOXD
 70
     0
  9
$DIMSAH
 70
     0
  9
$DIMBLK1
  1

  9
$DIMBLK2
  1

  9
$DIMSTYLE
  2
Standard
  9
$DIMCLRD
 70
     0
  9
$DIMCLRE
 70
     0
  9
$DIMCLRT
 70
     0
  9
$DIMTFAC
 40
1.0
  9
$DIMGAP
 40
0.09
  9
$DIMJUST
 70
     0
  9
$DIMSD1
 70
     0
  9
$DIMSD2
 70
     0
  9
$DIMTOLJ
 70
     1
  9
$DIMTZIN
 70
     0
  9
$DIMALTZ
 70
     0
  9
$DIMALTTZ
 70
     0
  9
$DIMUPT
 70
     0
  9
$DIMDEC
 70
     4
  9
$DIMTDEC
 70
     4
  9
$DIMALTU
 70
     2
  9
$DIMALTTD
 70
     2
  9
$DIMTXSTY
  7
Standard
  9
$DIMAUNIT
 70
     0
  9
$DIMADEC
 70
     0
  9
$DIMALTRND
 40
0.0
  9
$DIMAZIN
 70
     0
  9
$DIMDSEP
 70
    46
  9
$DIMATFIT
 70
     3
  9
$DIMFRAC
 70
     0
  9
$DIMLDRBLK
  1

  9
$DIMLUNIT
 70
     2
  9
$DIMLWD
 70
    -2
  9
$DIMLWE
 70
    -2
  9
$DIMTMOVE
 70
     0
  9
$LUNITS
 70
     2
  9
$LUPREC
 70
     4
  9
$SKETCHINC
 40
0.1
  9
$FILLETRAD
 40
0.5
  9
$AUNITS
 70
     0
  9
$AUPREC
 70
     0
  9
$MENU
  1
.
  9
$ELEVATION
 40
0.0
  9
$PELEVATION
 40
0.0
  9
$THICKNESS
 40
0.0
  9
$LIMCHECK
 70
     0
  9
$CHAMFERA
 40
0.5
  9
$CHAMFERB
 40
0.5
  9
$CHAMFERC
 40
1.0
  9
$CHAMFERD
 40
0.0
  9
$SKPOLY
 70
     0
  9
$TDCREATE
 40
2454777.628950371
  9
$TDUCREATE
 40
2454777.587283704
  9
$TDUPDATE
 40
2454777.628950382
  9
$TDUUPDATE
 40
2454777.587283715
  9
$TDINDWG
 40
0.0000000116
  9
$TDUSRTIMER
 40
0.0000000116
  9
$USRTIMER
 70
     1
  9
$ANGBASE
 50
0.0
  9
$ANGDIR
 70
     0
  9
$PDMODE
 70
     0
  9
$PDSIZE
 40
0.0
  9
$PLINEWID
 40
0.0
  9
$SPLFRAME
 70
     0
  9
$SPLINETYPE
 70
     6
  9
$SPLINESEGS
 70
     8
  9
$HANDSEED
  5
23E
  9
$SURFTAB1
 70
     6
  9
$SURFTAB2
 70
     6
  9
$SURFTYPE
 70
     6
  9
$SURFU
 70
     6
  9
$SURFV
 70
     6
  9
$UCSBASE
  2

  9
$UCSNAME
  2

  9
$UCSORG
 10
0.0
 20
0.0
 30
0.0
  9
$UCSXDIR
 10
1.0
 20
0.0
 30
0.0
  9
$UCSYDIR
 10
0.0
 20
1.0
 30
0.0
  9
$UCSORTHOREF
  2

  9
$UCSORTHOVIEW
 70
     0
  9
$UCSORGTOP
 10
0.0
 20
0.0
 30
0.0
  9
$UCSORGBOTTOM
 10
0.0
 20
0.0
 30
0.0
  9
$UCSORGLEFT
 10
0.0
 20
0.0
 30
0.0
  9
$UCSORGRIGHT
 10
0.0
 20
0.0
 30
0.0
  9
$UCSORGFRONT
 10
0.0
 20
0.0
 30
0.0
  9
$UCSORGBACK
 10
0.0
 20
0.0
 30
0.0
  9
$PUCSBASE
  2

  9
$PUCSNAME
  2

  9
$PUCSORG
 10
0.0
 20
0.0
 30
0.0
  9
$PUCSXDIR
 10
1.0
 20
0.0
 30
0.0
  9
$PUCSYDIR
 10
0.0
 20
1.0
 30
0.0
  9
$PUCSORTHOREF
  2

  9
$PUCSORTHOVIEW
 70
     0
  9
$PUCSORGTOP
 10
0.0
 20
0.0
 30
0.0
  9
$PUCSORGBOTTOM
 10
0.0
 20
0.0
 30
0.0
  9
$PUCSORGLEFT
 10
0.0
 20
0.0
 30
0.0
  9
$PUCSORGRIGHT
 10
0.0
 20
0.0
 30
0.0
  9
$PUCSORGFRONT
 10
0.0
 20
0.0
 30
0.0
  9
$PUCSORGBACK
 10
0.0
 20
0.0
 30
0.0
  9
$USERI1
 70
     0
  9
$USERI2
 70
     0
  9
$USERI3
 70
     0
  9
$USERI4
 70
     0
  9
$USERI5
 70
     0
  9
$USERR1
 40
13.01
  9
$USERR2
 40
0.0
  9
$USERR3
 40
0.0
  9
$USERR4
 40
0.0
  9
$USERR5
 40
0.0
  9
$WORLDVIEW
 70
     1
  9
$SHADEDGE
 70
     3
  9
$SHADEDIF
 70
    70
  9
$TILEMODE
 70
     1
  9
$MAXACTVP
 70
    64
  9
$PINSBASE
 10
0.0
 20
0.0
 30
0.0
  9
$PLIMCHECK
 70
     0
  9
$PEXTMIN
 10
1.00000000000000E+20
 20
1.00000000000000E+20
 30
1.00000000000000E+20
  9
$PEXTMAX
 10
-1.00000000000000E+20
 20
-1.00000000000000E+20
 30
-1.00000000000000E+20
  9
$PLIMMIN
 10
0.0
 20
0.0
  9
$PLIMMAX
 10
12.0
 20
9.0
  9
$UNITMODE
 70
     0
  9
$VISRETAIN
 70
     1
  9
$PLINEGEN
 70
     0
  9
$PSLTSCALE
 70
     1
  9
$TREEDEPTH
 70
  3020
  9
$CMLSTYLE
  2
Standard
  9
$CMLJUST
 70
     0
  9
$CMLSCALE
 40
1.0
  9
$PROXYGRAPHICS
 70
     1
  9
$MEASUREMENT
 70
     1
  9
$CELWEIGHT
370
    -1
  9
$ENDCAPS
280
     0
  9
$JOINSTYLE
280
     0
  9
$LWDISPLAY
290
     0
  9
$INSUNITS
 70
     1
  9
$HYPERLINKBASE
  1

  9
$STYLESHEET
  1

  9
$XEDIT
290
     1
  9
$CEPSNTYPE
380
     0
  9
$PSTYLEMODE
290
     0
  9
$FINGERPRINTGUID
  2
{FAEB1C30-E019-11D5-929B-00C0DF256EC4}
  9
$VERSIONGUID
  2
{FAEB1C32-E019-11D5-929B-00C0DF256EC4}
  9
$EXTNAMES
290
     1
  9
$PSVPSCALE
 40
0.0
  9
$OLESTARTUP
290
     0
  0
ENDSEC
  0
SECTION
  2
CLASSES
  0
CLASS
  1
ACDBDICTIONARYWDFLT
  2
AcDbDictionaryWithDefault
  3
ObjectDBX Classes
 90
        0
280
     0
281
     0
  0
CLASS
  1
TABLESTYLE
  2
AcDbTableStyle
  3
ObjectDBX Classes
 90
     2047
280
     0
281
     0
  0
CLASS
  1
DICTIONARYVAR
  2
AcDbDictionaryVar
  3
ObjectDBX Classes
 90
        0
280
     0
281
     0
  0
CLASS
  1

  2
exOdDbCircle
  3

 90
        0
280
     0
281
     1
  0
CLASS
  1

  2
exOdDbSpline
  3

 90
        0
280
     0
281
     1
  0
CLASS
  1
ACDBPLACEHOLDER
  2
AcDbPlaceHolder
  3
ObjectDBX Classes
 90
        0
280
     0
281
     0
  0
CLASS
  1
LAYOUT
  2
AcDbLayout
  3
ObjectDBX Classes
 90
        0
280
     0
281
     0
  0
ENDSEC
  0
SECTION
  2
TABLES
  0
TABLE
  2
VPORT
  5
8
330
0
100
AcDbSymbolTable
 70
     2
  0
VPORT
  5
29
330
8
100
AcDbSymbolTableRecord
100
AcDbViewportTableRecord
  2
*Active
 70
     0
 10
0.0
 20
0.0
 11
1.0
 21
1.0
 12
377.4100451641982
 22
512.706997920475
 13
0.0
 23
0.0
 14
0.5
 24
0.5
 15
0.5
 25
0.5
 16
0.0
 26
0.0
 36
1.0
 17
0.0
 27
0.0
 37
0.0
 40
1402.536812959665
 41
1.60267857142857
 42
50.0
 43
0.0
 44
0.0
 50
0.0
 51
0.0
 71
     0
 72
   100
 73
     1
 74
     3
 75
     0
 76
     0
 77
     0
 78
     0
281
     0
 65
     1
110
0.0
120
0.0
130
0.0
111
1.0
121
0.0
131
0.0
112
0.0
122
1.0
132
0.0
 79
     0
146
0.0
  0
ENDTAB
  0
TABLE
  2
LTYPE
  5
5
330
0
100
AcDbSymbolTable
 70
     8
  0
LTYPE
  5
14
330
5
100
AcDbSymbolTableRecord
100
AcDbLinetypeTableRecord
  2
ByBlock
 70
     0
  3

 72
    65
 73
     0
 40
0.0
  0
LTYPE
  5
15
330
5
100
AcDbSymbolTableRecord
100
AcDbLinetypeTableRecord
  2
ByLayer
 70
     0
  3

 72
    65
 73
     0
 40
0.0
  0
LTYPE
  5
16
330
5
100
AcDbSymbolTableRecord
100
AcDbLinetypeTableRecord
  2
Continuous
 70
     0
  3
Solid line
 72
    65
 73
     0
 40
0.0
  0
LTYPE
  5
2E
330
5
100
AcDbSymbolTableRecord
100
AcDbLinetypeTableRecord
  2
DASHED
 70
     0
  3
Dashed
 72
    65
 73
     2
 40
15.0
 49
7.0
 74
     0
 49
-8.0
 74
     0
  0
LTYPE
  5
2F
330
5
100
AcDbSymbolTableRecord
100
AcDbLinetypeTableRecord
  2
DOTTED
 70
     0
  3
Dotted
 72
    65
 73
     2
 40
1.0
 49
0.0
 74
     0
 49
-1.0
 74
     0
  0
LTYPE
  5
30
330
5
100
AcDbSymbolTableRecord
100
AcDbLinetypeTableRecord
  2
DOT_CENTER
 70
     0
  3
Dot_Center
 72
    65
 73
     4
 40
14.0
 49
12.0
 74
     0
 49
-1.0
 74
     0
 49
0.0
 74
     0
 49
-1.0
 74
     0
  0
LTYPE
  5
31
330
5
100
AcDbSymbolTableRecord
100
AcDbLinetypeTableRecord
  2
LONG_DASHED
 70
     0
  3
Long_Dashed
 72
    65
 73
     2
 40
15.0
 49
10.0
 74
     0
 49
-5.0
 74
     0
  0
LTYPE
  5
32
330
5
100
AcDbSymbolTableRecord
100
AcDbLinetypeTableRecord
  2
DASH_CENTER
 70
     0
  3
Dash_Center
 72
    65
 73
     4
 40
14.0
 49
11.0
 74
     0
 49
-1.0
 74
     0
 49
1.0
 74
     0
 49
-1.0
 74
     0
  0
LTYPE
  5
33
330
5
100
AcDbSymbolTableRecord
100
AcDbLinetypeTableRecord
  2
PHANTOM
 70
     0
  3
Phantom
 72
    65
 73
     6
 40
13.0
 49
10.0
 74
     0
 49
-1.0
 74
     0
 49
0.0
 74
     0
 49
-1.0
 74
     0
 49
0.0
 74
     0
 49
-1.0
 74
     0
  0
LTYPE
  5
34
330
5
100
AcDbSymbolTableRecord
100
AcDbLinetypeTableRecord
  2
CENTER_DASH_DASH
 70
     0
  3
Center_Dash_Dash
 72
    65
 73
     6
 40
14.0
 49
9.0
 74
     0
 49
-1.0
 74
     0
 49
1.0
 74
     0
 49
-1.0
 74
     0
 49
1.0
 74
     0
 49
-1.0
 74
     0
  0
ENDTAB
  0
TABLE
  2
LAYER
  5
2
330
0
100
AcDbSymbolTable
 70
     2
  0
LAYER
  5
10
330
2
100
AcDbSymbolTableRecord
100
AcDbLayerTableRecord
  2
0
 70
     0
 62
     7
  6
Continuous
370
    -3
390
F
  0
LAYER
  5
35
330
2
100
AcDbSymbolTableRecord
100
AcDbLayerTableRecord
  2
1
 70
     0
 62
     7
  6
Continuous
370
    -3
390
F
  0
ENDTAB
  0
TABLE
  2
STYLE
  5
3
330
0
100
AcDbSymbolTable
 70
     1
  0
STYLE
  5
11
330
3
100
AcDbSymbolTableRecord
100
AcDbTextStyleTableRecord
  2
Standard
 70
     0
 40
0.0
 41
1.0
 50
0.0
 71
     0
 42
0.2
  3
txt
  4

  0
ENDTAB
  0
TABLE
  2
VIEW
  5
6
330
0
100
AcDbSymbolTable
 70
     0
  0
ENDTAB
  0
TABLE
  2
UCS
  5
7
330
0
100
AcDbSymbolTable
 70
     0
  0
ENDTAB
  0
TABLE
  2
APPID
  5
9
330
0
100
AcDbSymbolTable
 70
     1
  0
APPID
  5
12
330
9
100
AcDbSymbolTableRecord
100
AcDbRegAppTableRecord
  2
ACAD
 70
     0
  0
ENDTAB
  0
TABLE
  2
DIMSTYLE
  5
A
330
0
100
AcDbSymbolTable
 70
     1
100
AcDbDimStyleTable
  0
DIMSTYLE
105
27
330
A
100
AcDbSymbolTableRecord
100
AcDbDimStyleTableRecord
  2
Standard
 70
     0
340
11
  0
ENDTAB
  0
TABLE
  2
BLOCK_RECORD
  5
1
330
0
100
AcDbSymbolTable
 70
     1
  0
BLOCK_RECORD
  5
1F
330
1
100
AcDbSymbolTableRecord
100
AcDbBlockTableRecord
  2
*Model_Space
340
22
  0
BLOCK_RECORD
  5
1B
330
1
100
AcDbSymbolTableRecord
100
AcDbBlockTableRecord
  2
*Paper_Space
340
1E
  0
BLOCK_RECORD
  5
23
330
1
100
AcDbSymbolTableRecord
100
AcDbBlockTableRecord
  2
*Paper_Space0
340
26
  0
ENDTAB
  0
ENDSEC
  0
SECTION
  2
BLOCKS
  0
BLOCK
  5
20
330
1F
100
AcDbEntity
  8
0
100
AcDbBlockBegin
  2
*Model_Space
 70
     0
 71
     0
 10
0.0
 20
0.0
 30
0.0
  3
*Model_Space
  1

  0
ENDBLK
  5
21
330
1F
100
AcDbEntity
  8
0
100
AcDbBlockEnd
  0
BLOCK
  5
1C
330
1B
100
AcDbEntity
 67
     1
  8
0
100
AcDbBlockBegin
  2
*Paper_Space
 70
     0
 71
     0
 10
0.0
 20
0.0
 30
0.0
  3
*Paper_Space
  1

  0
ENDBLK
  5
1D
330
1B
100
AcDbEntity
 67
     1
  8
0
100
AcDbBlockEnd
  0
BLOCK
  5
24
330
23
100
AcDbEntity
  8
0
100
AcDbBlockBegin
  2
*Paper_Space0
 70
     0
 71
     0
 10
0.0
 20
0.0
 30
0.0
  3
*Paper_Space0
  1

  0
ENDBLK
  5
25
330
23
100
AcDbEntity
  8
0
100
AcDbBlockEnd
  0
ENDSEC
  0
SECTION
  2
ENTITIES
  0
LINE
  5
36
330
1F
100
AcDbEntity
  8
1
  6
Continuous
 62
     7
100
AcDbLine
 10
930.497721776365
 20
1017.767917970582
 30
0.0
 11
1317.61398468619
 21
1017.767917970582
 31
0.0
  0
LINE
  5
37
330
1F
100
AcDbEntity
  8
1
  6
Continuous
 62
     7
100
AcDbLine
 10
1321.268531644044
 20
377.2307610247179
 30
0.0
 11
927.1498599574511
 21
377.2307610247179
 31
0.0
  0
LINE
  5
38
330
1F
100
AcDbEntity
  8
0
  6
Continuous
 62
     7
100
AcDbLine
 10
1364.149859957451
 20
430.6000044977438
 30
0.0
 11
1321.268531644044
 21
377.2307610247179
 31
0.0
  0
LINE
  5
39
330
1F
100
AcDbEntity
  8
1
  6
Continuous
 62
     7
100
AcDbLine
 10
1399.144452332453
 20
628.5645803157648
 30
0.0
 11
1364.144452332453
 21
628.5645803157639
 31
0.0
  0
LINE
  5
3A
330
1F
100
AcDbEntity
  8
0
  6
Continuous
 62
     3
100
AcDbLine
 10
713.3469506080455
 20
400.5590021697325
 30
0.0
 11
678.3469506080455
 21
400.5590021697334
 31
0.0
  0
LINE
  5
3B
330
1F
100
AcDbEntity
  8
0
  6
Continuous
 62
     7
100
AcDbLine
 10
243.1558847698173
 20
377.4650545487634
 30
0.0
 11
243.3739230770666
 21
377.4650545487606
 31
0.0
  0
LINE
  5
3C
330
1F
100
AcDbEntity
  8
0
  6
Continuous
 62
     7
100
AcDbLine
 10
243.3739230770666
 20
377.4650545487606
 30
0.0
 11
633.3091628890352
 21
377.4650545487524
 31
0.0
  0
LINE
  5
3D
330
1F
100
AcDbEntity
  8
0
  6
Continuous
 62
     7
100
AcDbLine
 10
633.3091628890352
 20
377.4650545487524
 30
0.0
 11
633.5272011962907
 21
377.4650545487635
 31
0.0
  0
LINE
  5
3E
330
1F
100
AcDbEntity
  8
0
  6
Continuous
 62
     7
100
AcDbLine
 10
246.2821733655544
 20
396.218929386615
 30
0.0
 11
242.7074047762933
 21
396.2189293866147
 31
0.0
  0
LINE
  5
3F
330
1F
100
AcDbEntity
  8
0
  6
Continuous
 62
     7
100
AcDbLine
 10
316.2821733655543
 20
396.2189293866134
 30
0.0
 11
246.2821733655544
 21
396.218929386615
 31
0.0
  0
LINE
  5
40
330
1F
100
AcDbEntity
  8
0
  6
Continuous
 62
     7
100
AcDbLine
 10
630.3415429830526
 20
396.2189293866067
 30
0.0
 11
560.3415429830526
 21
396.2189293866082
 31
0.0
  0
LINE
  5
41
330
1F
100
AcDbEntity
  8
0
  6
Continuous
 62
     7
100
AcDbLine
 10
633.9756811898117
 20
396.2189293866065
 30
0.0
 11
630.3415429830526
 21
396.2189293866067
 31
0.0
  0
LINE
  5
42
330
1F
100
AcDbEntity
  8
0
  6
Continuous
 62
     7
100
AcDbLine
 10
560.3415429830526
 20
396.2189293866082
 30
0.0
 11
316.2821733655543
 21
396.2189293866134
 31
0.0
  0
LINE
  5
43
330
1F
100
AcDbEntity
  8
0
  6
Continuous
 62
     7
100
AcDbLine
 10
634.0576522686845
 20
396.3207292975148
 30
0.0
 11
633.9756811898117
 21
396.2189293866065
 31
0.0
  0
LINE
  5
44
330
1F
100
AcDbEntity
  8
0
  6
Continuous
 62
     7
100
AcDbLine
 10
242.7074047762933
 20
396.2189293866147
 30
0.0
 11
242.6254336974192
 21
396.3207292975245
 31
0.0
  0
LINE
  5
45
330
1F
100
AcDbEntity
  8
0
  6
Continuous
 62
     7
100
AcDbLine
 10
-549.5341821151744
 20
377.9153974952651
 30
0.0
 11
-549.47156821304
 21
377.9106837715081
 31
0.0
  0
LINE
  5
46
330
1F
100
AcDbEntity
  8
0
  6
Continuous
 62
     7
100
AcDbLine
 10
-549.5341821151744
 20
377.9153974952651
 30
0.0
 11
-549.3037825696572
 21
380.9758684389467
 31
0.0
  0
LINE
  5
47
330
1F
100
AcDbEntity
  8
0
  6
Continuous
 62
     7
100
AcDbLine
 10
-490.6177720654354
 20
430.3251692863109
 30
0.0
 11
-490.5536965502923
 21
430.3276895733821
 31
0.0
  0
LINE
  5
48
330
1F
100
AcDbEntity
  8
0
  6
Continuous
 62
     7
100
AcDbLine
 10
-495.7447687654084
 20
430.1235087382605
 30
0.0
 11
-490.6177720654354
 21
430.3251692863109
 31
0.0
  0
LINE
  5
49
330
1F
100
AcDbEntity
  8
0
  6
Continuous
 62
     7
100
AcDbLine
 10
-169.0686638655708
 20
442.9726846218575
 30
0.0
 11
-99.88439629062964
 21
445.6939146387205
 31
0.0
  0
LINE
  5
4A
330
1F
100
AcDbEntity
  8
0
  6
Continuous
 62
     7
100
AcDbLine
 10
-480.4919762581166
 20
430.7159400589786
 30
0.0
 11
-480.4922711114521
 21
430.7234363793712
 31
0.0
  0
LINE
  5
4B
330
1F
100
AcDbEntity
  8
0
  6
Continuous
 62
     7
100
AcDbLine
 10
-480.4922711114521
 20
430.7234363793712
 30
0.0
 11
-185.7342191572522
 21
442.3171770780579
 31
0.0
  0
LINE
  5
4C
330
1F
100
AcDbEntity
  8
0
  6
Continuous
 62
     7
100
AcDbLine
 10
-99.88439629062964
 20
445.6939146387205
 30
0.0
 11
-67.42049493879182
 21
446.970819720187
 31
0.0
  0
LINE
  5
4D
330
1F
100
AcDbEntity
  8
0
  6
Continuous
 62
     7
100
AcDbLine
 10
-63.51252060731162
 20
447.1245323694367
 30
0.0
 11
-62.91899531835281
 21
447.1478775444214
 31
0.0
  0
LINE
  5
4E
330
1F
100
AcDbEntity
  8
0
  6
Continuous
 62
     7
100
AcDbLine
 10
-62.91899531835281
 20
447.1478775444214
 30
0.0
 11
-62.91885806201481
 21
447.1478829431354
 31
0.0
  0
LINE
  5
4F
330
1F
100
AcDbEntity
  8
0
  6
Continuous
 62
     7
100
AcDbLine
 10
-67.42049493879182
 20
446.970819720187
 30
0.0
 11
-63.51252060731162
 21
447.1245323694367
 31
0.0
  0
LINE
  5
50
330
1F
100
AcDbEntity
  8
0
  6
Continuous
 62
     7
100
AcDbLine
 10
-169.0686638655708
 20
442.9726846218575
 30
0.0
 11
-99.88439629062964
 21
445.6939146387205
 31
0.0
  0
LINE
  5
51
330
1F
100
AcDbEntity
  8
0
  6
Continuous
 62
     7
100
AcDbLine
 10
-480.5423285055185
 20
430.721467468104
 30
0.0
 11
-480.4922711114521
 21
430.7234363793712
 31
0.0
  0
LINE
  5
52
330
1F
100
AcDbEntity
  8
0
  6
Continuous
 62
     7
100
AcDbLine
 10
-480.4922711114521
 20
430.7234363793712
 30
0.0
 11
-185.7342191572522
 21
442.3171770780579
 31
0.0
  0
LINE
  5
53
330
1F
100
AcDbEntity
  8
0
  6
Continuous
 62
     7
100
AcDbLine
 10
-99.88439629062964
 20
445.6939146387205
 30
0.0
 11
-67.42049493879182
 21
446.970819720187
 31
0.0
  0
LINE
  5
54
330
1F
100
AcDbEntity
  8
0
  6
Continuous
 62
     7
100
AcDbLine
 10
-67.42049493879182
 20
446.970819720187
 30
0.0
 11
-63.51252060731162
 21
447.1245323694367
 31
0.0
  0
LINE
  5
55
330
1F
100
AcDbEntity
  8
0
  6
Continuous
 62
     7
100
AcDbLine
 10
1364.149859957451
 20
428.1108445033068
 30
0.0
 11
1364.149859957451
 21
428.2212916379068
 31
0.0
  0
LINE
  5
56
330
1F
100
AcDbEntity
  8
0
  6
Continuous
 62
     7
100
AcDbLine
 10
1364.149859957451
 20
428.2212916379068
 30
0.0
 11
1364.149859957451
 21
430.6000044977438
 31
0.0
  0
LINE
  5
57
330
1F
100
AcDbEntity
  8
0
  6
Continuous
 62
     7
100
AcDbLine
 10
1364.149859957451
 20
430.1235087382628
 30
0.0
 11
1364.149859957451
 21
432.6197566926629
 31
0.0
  0
LINE
  5
58
330
1F
100
AcDbEntity
  8
0
  6
Continuous
 62
     7
100
AcDbLine
 10
1364.149859957451
 20
421.320173668565
 30
0.0
 11
1364.149859957451
 21
421.3230834390309
 31
0.0
  0
LINE
  5
59
330
1F
100
AcDbEntity
  8
0
  6
Continuous
 62
     7
100
AcDbLine
 10
1364.14985995745
 20
449.9344729616888
 30
0.0
 11
1364.149859957451
 21
626.1366783160069
 31
0.0
  0
LINE
  5
5A
330
1F
100
AcDbEntity
  8
0
  6
Continuous
 62
     7
100
AcDbLine
 10
1364.14985995745
 20
449.9344729616888
 30
0.0
 11
1364.14985995745
 21
447.238643330507
 31
0.0
  0
LINE
  5
5B
330
1F
100
AcDbEntity
  8
0
  6
Continuous
 62
     7
100
AcDbLine
 10
1364.149859957451
 20
432.6197566926629
 30
0.0
 11
1364.14985995745
 21
447.238643330507
 31
0.0
  0
LINE
  5
5C
330
1F
100
AcDbEntity
  8
0
  6
Continuous
 62
     7
100
AcDbLine
 10
884.1498599574495
 20
449.9344729616779
 30
0.0
 11
884.1498599574416
 21
626.1366783159209
 31
0.0
  0
LINE
  5
5D
330
1F
100
AcDbEntity
  8
0
  6
Continuous
 62
     7
100
AcDbLine
 10
884.1498599574497
 20
432.619756692652
 30
0.0
 11
884.14985995745
 21
447.2386433304959
 31
0.0
  0
LINE
  5
5E
330
1F
100
AcDbEntity
  8
0
  6
Continuous
 62
     7
100
AcDbLine
 10
884.1498599574495
 20
449.9344729616779
 30
0.0
 11
884.14985995745
 21
447.2386433304959
 31
0.0
  0
LINE
  5
5F
330
1F
100
AcDbEntity
  8
0
  6
Continuous
 62
     7
100
AcDbLine
 10
884.1498599574495
 20
428.0312098706328
 30
0.0
 11
884.14985995745
 21
428.1108445032979
 31
0.0
  0
LINE
  5
60
330
1F
100
AcDbEntity
  8
0
  6
Continuous
 62
     7
100
AcDbLine
 10
884.14985995745
 20
428.1108445032979
 30
0.0
 11
884.1498599574499
 21
430.6000044977345
 31
0.0
  0
LINE
  5
61
330
1F
100
AcDbEntity
  8
0
  6
Continuous
 62
     7
100
AcDbLine
 10
884.1498599574499
 20
430.1235087382528
 30
0.0
 11
884.1498599574497
 21
432.619756692652
 31
0.0
  0
LINE
  5
62
330
1F
100
AcDbEntity
  8
0
  6
Continuous
 62
     7
100
AcDbLine
 10
1364.149859957451
 20
430.1235087382628
 30
0.0
 11
1364.149859957451
 21
432.6197566926629
 31
0.0
  0
LINE
  5
63
330
1F
100
AcDbEntity
  8
0
  6
Continuous
 62
     7
100
AcDbLine
 10
1364.14985995745
 20
449.9344729616888
 30
0.0
 11
1364.14985995745
 21
447.238643330507
 31
0.0
  0
LINE
  5
64
330
1F
100
AcDbEntity
  8
0
  6
Continuous
 62
     7
100
AcDbLine
 10
1364.149859957451
 20
432.6197566926629
 30
0.0
 11
1364.14985995745
 21
447.238643330507
 31
0.0
  0
LINE
  5
65
330
1F
100
AcDbEntity
  8
0
  6
Continuous
 62
     7
100
AcDbLine
 10
884.1498599574497
 20
432.619756692652
 30
0.0
 11
884.14985995745
 21
447.2386433304959
 31
0.0
  0
LINE
  5
66
330
1F
100
AcDbEntity
  8
0
  6
Continuous
 62
     7
100
AcDbLine
 10
884.1498599574495
 20
449.9344729616779
 30
0.0
 11
884.14985995745
 21
447.2386433304959
 31
0.0
  0
LINE
  5
67
330
1F
100
AcDbEntity
  8
0
  6
Continuous
 62
     7
100
AcDbLine
 10
884.1498599574499
 20
430.1235087382528
 30
0.0
 11
884.1498599574497
 21
432.619756692652
 31
0.0
  0
LINE
  5
68
330
1F
100
AcDbEntity
  8
0
  6
Continuous
 62
     7
100
AcDbLine
 10
198.3415429830518
 20
430.3223884623266
 30
0.0
 11
198.3415429830523
 21
430.1235087382605
 31
0.0
  0
LINE
  5
69
330
1F
100
AcDbEntity
  8
0
  6
Continuous
 62
     7
100
AcDbLine
 10
198.3415429830526
 20
449.9344729616865
 30
0.0
 11
198.3415429830526
 21
447.2386433305045
 31
0.0
  0
LINE
  5
6A
330
1F
100
AcDbEntity
  8
0
  6
Continuous
 62
     7
100
AcDbLine
 10
198.3415429830526
 20
447.2386433305045
 30
0.0
 11
198.3415429830518
 21
430.3223884623266
 31
0.0
  0
LINE
  5
6B
330
1F
100
AcDbEntity
  8
0
  6
Continuous
 62
     7
100
AcDbLine
 10
198.3415429830523
 20
430.1235087382605
 30
0.0
 11
198.3415429830523
 21
428.1108445033046
 31
0.0
  0
LINE
  5
6C
330
1F
100
AcDbEntity
  8
0
  6
Continuous
 62
     7
100
AcDbLine
 10
198.3415429830517
 20
421.3230237867596
 30
0.0
 11
198.3415429830517
 21
421.3201736685628
 31
0.0
  0
LINE
  5
6D
330
1F
100
AcDbEntity
  8
0
  6
Continuous
 62
     7
100
AcDbLine
 10
198.3415429830517
 20
421.3230834390292
 30
0.0
 11
198.3415429830517
 21
421.3230237867596
 31
0.0
  0
LINE
  5
6E
330
1F
100
AcDbEntity
  8
0
  6
Continuous
 62
     7
100
AcDbLine
 10
678.3415429830616
 20
626.1366783159206
 30
0.0
 11
678.3415429830616
 21
622.9427393346512
 31
0.0
  0
LINE
  5
6F
330
1F
100
AcDbEntity
  8
0
  6
Continuous
 62
     7
100
AcDbLine
 10
678.3415429830616
 20
622.9427393346512
 30
0.0
 11
678.3415429830545
 21
507.810071535721
 31
0.0
  0
LINE
  5
70
330
1F
100
AcDbEntity
  8
0
  6
Continuous
 62
     7
100
AcDbLine
 10
678.3415429830545
 20
507.810071535721
 30
0.0
 11
678.3415429830536
 21
449.9344729616755
 31
0.0
  0
LINE
  5
71
330
1F
100
AcDbEntity
  8
0
  6
Continuous
 62
     7
100
AcDbLine
 10
678.3415429830536
 20
430.3223884623179
 30
0.0
 11
678.3415429830525
 21
430.1235087382506
 31
0.0
  0
LINE
  5
72
330
1F
100
AcDbEntity
  8
0
  6
Continuous
 62
     7
100
AcDbLine
 10
678.3415429830536
 20
428.1108445032943
 30
0.0
 11
678.3415429830536
 21
428.0312098706311
 31
0.0
  0
LINE
  5
73
330
1F
100
AcDbEntity
  8
0
  6
Continuous
 62
     7
100
AcDbLine
 10
678.3415429830525
 20
430.1235087382506
 30
0.0
 11
678.3415429830536
 21
428.1108445032943
 31
0.0
  0
LINE
  5
74
330
1F
100
AcDbEntity
  8
0
  6
Continuous
 62
     7
100
AcDbLine
 10
678.3415429830536
 20
449.9344729616755
 30
0.0
 11
678.3415429830525
 21
447.2386433304944
 31
0.0
  0
LINE
  5
75
330
1F
100
AcDbEntity
  8
0
  6
Continuous
 62
     7
100
AcDbLine
 10
678.3415429830525
 20
447.2386433304944
 30
0.0
 11
678.3415429830536
 21
430.3223884623179
 31
0.0
  0
LINE
  5
76
330
1F
100
AcDbEntity
  8
0
  6
Continuous
 62
     3
100
AcDbLine
 10
200.7366985803114
 20
667.1622936035745
 30
0.0
 11
200.7366985803114
 21
670.2132338493996
 31
0.0
  0
LINE
  5
77
330
1F
100
AcDbEntity
  8
0
  6
Continuous
 62
     7
100
AcDbLine
 10
198.3415429830518
 20
430.3223884623266
 30
0.0
 11
198.3415429830523
 21
430.1235087382605
 31
0.0
  0
LINE
  5
78
330
1F
100
AcDbEntity
  8
0
  6
Continuous
 62
     7
100
AcDbLine
 10
198.3415429830526
 20
449.9344729616865
 30
0.0
 11
198.3415429830526
 21
447.2386433305045
 31
0.0
  0
LINE
  5
79
330
1F
100
AcDbEntity
  8
0
  6
Continuous
 62
     7
100
AcDbLine
 10
198.3415429830526
 20
447.2386433305045
 30
0.0
 11
198.3415429830518
 21
430.3223884623266
 31
0.0
  0
LINE
  5
7A
330
1F
100
AcDbEntity
  8
0
  6
Continuous
 62
     7
100
AcDbLine
 10
241.3415429830516
 20
393.8020142850118
 30
0.0
 11
241.3415429830516
 21
392.5363594254451
 31
0.0
  0
LINE
  5
7B
330
1F
100
AcDbEntity
  8
0
  6
Continuous
 62
     7
100
AcDbLine
 10
241.3415429830515
 20
396.3207292975245
 30
0.0
 11
241.3415429830516
 21
396.2189293866148
 31
0.0
  0
LINE
  5
7C
330
1F
100
AcDbEntity
  8
0
  6
Continuous
 62
     7
100
AcDbLine
 10
241.3415429830516
 20
396.2189293866148
 30
0.0
 11
241.3415429830516
 21
393.8020142850118
 31
0.0
  0
LINE
  5
7D
330
1F
100
AcDbEntity
  8
0
  6
Continuous
 62
     7
100
AcDbLine
 10
241.3415429830516
 20
392.5363594254451
 30
0.0
 11
241.3415429830513
 21
389.4592053339461
 31
0.0
  0
LINE
  5
7E
330
1F
100
AcDbEntity
  8
0
  6
Continuous
 62
     7
100
AcDbLine
 10
678.3415429830536
 20
430.3223884623179
 30
0.0
 11
678.3415429830525
 21
430.1235087382506
 31
0.0
  0
LINE
  5
7F
330
1F
100
AcDbEntity
  8
0
  6
Continuous
 62
     7
100
AcDbLine
 10
678.3415429830536
 20
449.9344729616755
 30
0.0
 11
678.3415429830525
 21
447.2386433304944
 31
0.0
  0
LINE
  5
80
330
1F
100
AcDbEntity
  8
0
  6
Continuous
 62
     7
100
AcDbLine
 10
678.3415429830525
 20
447.2386433304944
 30
0.0
 11
678.3415429830536
 21
430.3223884623179
 31
0.0
  0
LINE
  5
81
330
1F
100
AcDbEntity
  8
0
  6
Continuous
 62
     7
100
AcDbLine
 10
635.3415429830521
 20
396.3207292975146
 30
0.0
 11
676.3415429830525
 21
447.2386433304947
 31
0.0
  0
LINE
  5
82
330
1F
100
AcDbEntity
  8
0
  6
Continuous
 62
     7
100
AcDbLine
 10
241.3415429830515
 20
396.3207292975245
 30
0.0
 11
200.3415429830525
 21
447.2386433305045
 31
0.0
  0
LINE
  5
83
330
1F
100
AcDbEntity
  8
0
  6
Continuous
 62
     7
100
AcDbLine
 10
635.3415429830525
 20
393.8020142850047
 30
0.0
 11
635.3415429830526
 21
396.2189293866065
 31
0.0
  0
LINE
  5
84
330
1F
100
AcDbEntity
  8
0
  6
Continuous
 62
     7
100
AcDbLine
 10
635.3415429830525
 20
392.5363594254368
 30
0.0
 11
635.3415429830525
 21
393.8020142850047
 31
0.0
  0
LINE
  5
85
330
1F
100
AcDbEntity
  8
0
  6
Continuous
 62
     7
100
AcDbLine
 10
635.3415429830526
 20
396.2189293866065
 30
0.0
 11
635.3415429830521
 21
396.3207292975146
 31
0.0
  0
LINE
  5
86
330
1F
100
AcDbEntity
  8
0
  6
Continuous
 62
     7
100
AcDbLine
 10
635.3415429830525
 20
389.4592053339379
 30
0.0
 11
635.3415429830525
 21
392.5363594254368
 31
0.0
  0
LINE
  5
87
330
1F
100
AcDbEntity
  8
0
  6
Continuous
 62
     7
100
AcDbLine
 10
214.117261909044
 20
451.5195707723048
 30
0.0
 11
662.5658240570626
 21
451.5195707722947
 31
0.0
  0
LINE
  5
88
330
1F
100
AcDbEntity
  8
0
  6
Continuous
 62
     7
100
AcDbLine
 10
347.7390648369262
 20
455.379551114396
 30
0.0
 11
528.9440211291841
 21
455.3795511143931
 31
0.0
  0
LINE
  5
89
330
1F
100
AcDbEntity
  8
0
  6
Continuous
 62
     7
100
AcDbLine
 10
200.3415429830525
 20
447.2386433305045
 30
0.0
 11
198.3415429830526
 21
447.2386433305045
 31
0.0
  0
LINE
  5
8A
330
1F
100
AcDbEntity
  8
0
  6
Continuous
 62
     7
100
AcDbLine
 10
676.3415429830525
 20
447.2386433304947
 30
0.0
 11
678.3415429830525
 21
447.2386433304944
 31
0.0
  0
LINE
  5
8B
330
1F
100
AcDbEntity
  8
0
  6
Continuous
 62
     7
100
AcDbLine
 10
635.3415429830521
 20
396.3207292975146
 30
0.0
 11
241.3415429830515
 21
396.3207292975245
 31
0.0
  0
LINE
  5
8C
330
1F
100
AcDbEntity
  8
0
  6
Continuous
 62
     7
100
AcDbLine
 10
-550.6170541852198
 20
376.7239481472629
 30
0.0
 11
-549.5386791702553
 21
376.6846701929551
 31
0.0
  0
LINE
  5
8D
330
1F
100
AcDbEntity
  8
0
  6
Continuous
 62
     7
100
AcDbLine
 10
-549.075102679196
 20
419.0581788292604
 30
0.0
 11
-550.6170541852198
 21
376.7239481472629
 31
0.0
  0
LINE
  5
8E
330
1F
100
AcDbEntity
  8
0
  6
Continuous
 62
     7
100
AcDbLine
 10
-546.8110653396689
 20
428.1074063033518
 30
0.0
 11
-548.7429372118946
 21
428.1777714120321
 31
0.0
  0
LINE
  5
8F
330
1F
100
AcDbEntity
  8
0
  6
Continuous
 62
     7
100
AcDbLine
 10
-546.7236534280769
 20
428.1108445032957
 30
0.0
 11
-548.7413520625545
 21
428.2212916379045
 31
0.0
  0
LINE
  5
90
330
1F
100
AcDbEntity
  8
0
  6
Continuous
 62
     7
100
AcDbLine
 10
-546.7236534280769
 20
428.1108445032957
 30
0.0
 11
-546.8110653396689
 21
428.1074063033518
 31
0.0
  0
LINE
  5
91
330
1F
100
AcDbEntity
  8
0
  6
Continuous
 62
     7
100
AcDbLine
 10
-490.2876620623416
 20
421.3230237867594
 30
0.0
 11
-490.3616411458487
 21
421.3201736685628
 31
0.0
  0
LINE
  5
92
330
1F
100
AcDbEntity
  8
0
  6
Continuous
 62
     7
100
AcDbLine
 10
-490.2876634462796
 20
421.3230834390288
 30
0.0
 11
-490.3616411458487
 21
421.3201736685628
 31
0.0
  0
LINE
  5
93
330
1F
100
AcDbEntity
  8
0
  6
Continuous
 62
     7
100
AcDbLine
 10
-544.7943413892406
 20
428.1867302594001
 30
0.0
 11
-546.7236534280769
 21
428.1108445032957
 31
0.0
  0
LINE
  5
94
330
1F
100
AcDbEntity
  8
0
  6
Continuous
 62
     7
100
AcDbLine
 10
-490.4975909246895
 20
430.3223884623266
 30
0.0
 11
-490.5069100865385
 21
430.3220219110529
 31
0.0
  0
LINE
  5
95
330
1F
100
AcDbEntity
  8
0
  6
Continuous
 62
     7
100
AcDbLine
 10
-490.5069100865385
 20
430.3220219110529
 30
0.0
 11
-544.7943413892406
 21
428.1867302594001
 31
0.0
  0
LINE
  5
96
330
1F
100
AcDbEntity
  8
0
  6
Continuous
 62
     7
100
AcDbLine
 10
-59.42049493879244
 20
396.3207292975246
 30
0.0
 11
-60.42049493878903
 21
396.3207292975147
 31
0.0
  0
LINE
  5
97
330
1F
100
AcDbEntity
  8
0
  6
Continuous
 62
     7
100
AcDbLine
 10
-59.4204949387921
 20
447.2386433305047
 30
0.0
 11
-60.42049493879222
 21
447.2386433304946
 31
0.0
  0
LINE
  5
98
330
1F
100
AcDbEntity
  8
0
  6
Continuous
 62
     7
100
AcDbLine
 10
-59.4204949387921
 20
449.9344729616865
 30
0.0
 11
-59.4204949387921
 21
447.2386433305047
 31
0.0
  0
LINE
  5
99
330
1F
100
AcDbEntity
  8
0
  6
Continuous
 62
     7
100
AcDbLine
 10
-169.0686638655708
 20
442.9726846218575
 30
0.0
 11
-99.88439629062964
 21
445.6939146387205
 31
0.0
  0
LINE
  5
9A
330
1F
100
AcDbEntity
  8
0
  6
Continuous
 62
     7
100
AcDbLine
 10
-490.5536965502923
 20
430.3276895733821
 30
0.0
 11
-490.4977668922792
 21
430.3298894588525
 31
0.0
  0
LINE
  5
9B
330
1F
100
AcDbEntity
  8
0
  6
Continuous
 62
     7
100
AcDbLine
 10
-490.6177720654354
 20
430.3251692863109
 30
0.0
 11
-490.5536965502923
 21
430.3276895733821
 31
0.0
  0
LINE
  5
9C
330
1F
100
AcDbEntity
  8
0
  6
Continuous
 62
     7
100
AcDbLine
 10
-480.5423285055185
 20
430.721467468104
 30
0.0
 11
-480.4922711114521
 21
430.7234363793712
 31
0.0
  0
LINE
  5
9D
330
1F
100
AcDbEntity
  8
0
  6
Continuous
 62
     7
100
AcDbLine
 10
-490.4977668922792
 20
430.3298894588525
 30
0.0
 11
-480.5423285055185
 21
430.721467468104
 31
0.0
  0
LINE
  5
9E
330
1F
100
AcDbEntity
  8
0
  6
Continuous
 62
     7
100
AcDbLine
 10
-495.7447687654084
 20
430.1235087382605
 30
0.0
 11
-490.6177720654354
 21
430.3251692863109
 31
0.0
  0
LINE
  5
9F
330
1F
100
AcDbEntity
  8
0
  6
Continuous
 62
     7
100
AcDbLine
 10
-67.42049493879182
 20
446.9633118023058
 30
0.0
 11
-67.42049493879182
 21
446.970819720187
 31
0.0
  0
LINE
  5
A0
330
1F
100
AcDbEntity
  8
0
  6
Continuous
 62
     7
100
AcDbLine
 10
-480.4922711114521
 20
430.7234363793712
 30
0.0
 11
-185.7342191572522
 21
442.3171770780579
 31
0.0
  0
LINE
  5
A1
330
1F
100
AcDbEntity
  8
0
  6
Continuous
 62
     7
100
AcDbLine
 10
-185.7847452086869
 20
444.9210809444888
 30
0.0
 11
-490.5576208022446
 21
432.8294814747364
 31
0.0
  0
LINE
  5
A2
330
1F
100
AcDbEntity
  8
0
  6
Continuous
 62
     7
100
AcDbLine
 10
-99.88439629062964
 20
445.6939146387205
 30
0.0
 11
-67.42049493879182
 21
446.970819720187
 31
0.0
  0
LINE
  5
A3
330
1F
100
AcDbEntity
  8
0
  6
Continuous
 62
     7
100
AcDbLine
 10
-59.42049493879961
 20
451.5195707723038
 30
0.0
 11
-59.4204949387921
 21
449.9344729616865
 31
0.0
  0
LINE
  5
A4
330
1F
100
AcDbEntity
  8
0
  6
Continuous
 62
     7
100
AcDbLine
 10
-60.42049493879222
 20
447.2386433304946
 30
0.0
 11
-60.61137545818161
 21
447.2386433305047
 31
0.0
  0
LINE
  5
A5
330
1F
100
AcDbEntity
  8
0
  6
Continuous
 62
     7
100
AcDbLine
 10
-62.91885806201481
 20
447.1478829431354
 30
0.0
 11
-60.61137545818161
 21
447.2386433305047
 31
0.0
  0
LINE
  5
A6
330
1F
100
AcDbEntity
  8
0
  6
Continuous
 62
     7
100
AcDbLine
 10
-59.42049493879244
 20
396.3207292975246
 30
0.0
 11
-59.4204949387921
 21
447.2386433305047
 31
0.0
  0
LINE
  5
A7
330
1F
100
AcDbEntity
  8
0
  6
Continuous
 62
     7
100
AcDbLine
 10
-63.51252060731162
 20
447.1245323694367
 30
0.0
 11
-62.91899531835281
 21
447.1478775444214
 31
0.0
  0
LINE
  5
A8
330
1F
100
AcDbEntity
  8
0
  6
Continuous
 62
     7
100
AcDbLine
 10
-62.91899531835281
 20
447.1478775444214
 30
0.0
 11
-62.91885806201481
 21
447.1478829431354
 31
0.0
  0
LINE
  5
A9
330
1F
100
AcDbEntity
  8
0
  6
Continuous
 62
     7
100
AcDbLine
 10
-67.42049493879182
 20
446.970819720187
 30
0.0
 11
-63.51252060731162
 21
447.1245323694367
 31
0.0
  0
LINE
  5
AA
330
1F
100
AcDbEntity
  8
0
  6
Continuous
 62
     7
100
AcDbLine
 10
-59.4204949387921
 20
449.9344729616865
 30
0.0
 11
-169.2526006040595
 21
445.5769794411837
 31
0.0
  0
LINE
  5
AB
330
1F
100
AcDbEntity
  8
0
  6
Continuous
 62
     7
100
AcDbLine
 10
1364.149859957451
 20
428.1108445033068
 30
0.0
 11
1364.149859957451
 21
428.2212916379068
 31
0.0
  0
LINE
  5
AC
330
1F
100
AcDbEntity
  8
0
  6
Continuous
 62
     7
100
AcDbLine
 10
1364.149859957451
 20
428.2212916379068
 30
0.0
 11
1364.149859957451
 21
430.1235087382628
 31
0.0
  0
LINE
  5
AD
330
1F
100
AcDbEntity
  8
0
  6
Continuous
 62
     7
100
AcDbLine
 10
1364.149859957451
 20
430.1235087382628
 30
0.0
 11
1364.149859957451
 21
432.6197566926629
 31
0.0
  0
LINE
  5
AE
330
1F
100
AcDbEntity
  8
0
  6
Continuous
 62
     7
100
AcDbLine
 10
1364.149859957451
 20
421.320173668565
 30
0.0
 11
1364.149859957451
 21
421.3230834390309
 31
0.0
  0
LINE
  5
AF
330
1F
100
AcDbEntity
  8
0
  6
Continuous
 62
     7
100
AcDbLine
 10
1364.149859957451
 20
421.3230834390309
 30
0.0
 11
1364.149859957451
 21
428.1108445033068
 31
0.0
  0
LINE
  5
B0
330
1F
100
AcDbEntity
  8
0
  6
Continuous
 62
     7
100
AcDbLine
 10
1364.149859957452
 20
378.150565220588
 30
0.0
 11
1364.149859957452
 21
393.8020142850149
 31
0.0
  0
LINE
  5
B1
330
1F
100
AcDbEntity
  8
0
  6
Continuous
 62
     7
100
AcDbLine
 10
1364.149859957452
 20
393.8020142850149
 30
0.0
 11
1364.149859957451
 21
421.320173668565
 31
0.0
  0
LINE
  5
B2
330
1F
100
AcDbEntity
  8
0
  6
Continuous
 62
     7
100
AcDbLine
 10
1364.14985995746
 20
-9.98990443161597
 30
0.0
 11
1364.149859957452
 21
378.150565220588
 31
0.0
  0
LINE
  5
B3
330
1F
100
AcDbEntity
  8
0
  6
Continuous
 62
     7
100
AcDbLine
 10
1344.14985995746
 20
-9.98990443161642
 30
0.0
 11
1364.14985995746
 21
-9.98990443161597
 31
0.0
  0
LINE
  5
B4
330
1F
100
AcDbEntity
  8
0
  6
Continuous
 62
     7
100
AcDbLine
 10
1364.149859957451
 20
432.6197566926629
 30
0.0
 11
1364.14985995745
 21
447.238643330507
 31
0.0
  0
LINE
  5
B5
330
1F
100
AcDbEntity
  8
0
  6
Continuous
 62
     7
100
AcDbLine
 10
1364.149859957451
 20
428.1108445033068
 30
0.0
 11
1364.149859957451
 21
428.2212916379068
 31
0.0
  0
LINE
  5
B6
330
1F
100
AcDbEntity
  8
0
  6
Continuous
 62
     7
100
AcDbLine
 10
1364.149859957451
 20
428.2212916379068
 30
0.0
 11
1364.149859957451
 21
430.1235087382628
 31
0.0
  0
LINE
  5
B7
330
1F
100
AcDbEntity
  8
0
  6
Continuous
 62
     7
100
AcDbLine
 10
1364.149859957451
 20
430.1235087382628
 30
0.0
 11
1364.149859957451
 21
432.6197566926629
 31
0.0
  0
LINE
  5
B8
330
1F
100
AcDbEntity
  8
0
  6
Continuous
 62
     7
100
AcDbLine
 10
1364.149859957451
 20
421.320173668565
 30
0.0
 11
1364.149859957451
 21
421.3230834390309
 31
0.0
  0
LINE
  5
B9
330
1F
100
AcDbEntity
  8
0
  6
Continuous
 62
     7
100
AcDbLine
 10
1364.149859957451
 20
421.3230834390309
 30
0.0
 11
1364.149859957451
 21
428.1108445033068
 31
0.0
  0
LINE
  5
BA
330
1F
100
AcDbEntity
  8
0
  6
Continuous
 62
     7
100
AcDbLine
 10
1364.149859957452
 20
378.150565220588
 30
0.0
 11
1364.149859957452
 21
393.8020142850149
 31
0.0
  0
LINE
  5
BB
330
1F
100
AcDbEntity
  8
0
  6
Continuous
 62
     7
100
AcDbLine
 10
1364.149859957452
 20
393.8020142850149
 30
0.0
 11
1364.149859957451
 21
421.320173668565
 31
0.0
  0
LINE
  5
BC
330
1F
100
AcDbEntity
  8
0
  6
Continuous
 62
     7
100
AcDbLine
 10
1364.149859957451
 20
432.6197566926629
 30
0.0
 11
1364.14985995745
 21
447.238643330507
 31
0.0
  0
LINE
  5
BD
330
1F
100
AcDbEntity
  8
0
  6
Continuous
 62
     7
100
AcDbLine
 10
1364.149859957451
 20
421.320173668565
 30
0.0
 11
1364.149859957451
 21
421.3230834390309
 31
0.0
  0
LINE
  5
BE
330
1F
100
AcDbEntity
  8
0
  6
Continuous
 62
     7
100
AcDbLine
 10
1364.149859957451
 20
421.3230834390309
 30
0.0
 11
1364.149859957451
 21
428.1108445033068
 31
0.0
  0
LINE
  5
BF
330
1F
100
AcDbEntity
  8
0
  6
Continuous
 62
     7
100
AcDbLine
 10
1364.149859957452
 20
378.150565220588
 30
0.0
 11
1364.149859957452
 21
393.8020142850149
 31
0.0
  0
LINE
  5
C0
330
1F
100
AcDbEntity
  8
0
  6
Continuous
 62
     7
100
AcDbLine
 10
1364.149859957452
 20
393.8020142850149
 30
0.0
 11
1364.149859957451
 21
421.320173668565
 31
0.0
  0
LINE
  5
C1
330
1F
100
AcDbEntity
  8
0
  6
Continuous
 62
     7
100
AcDbLine
 10
1364.14985995746
 20
-9.98990443161597
 30
0.0
 11
1364.149859957452
 21
378.150565220588
 31
0.0
  0
LINE
  5
C2
330
1F
100
AcDbEntity
  8
0
  6
Continuous
 62
     7
100
AcDbLine
 10
1344.14985995746
 20
-9.98990443161642
 30
0.0
 11
1364.14985995746
 21
-9.98990443161597
 31
0.0
  0
LINE
  5
C3
330
1F
100
AcDbEntity
  8
0
  6
Continuous
 62
     7
100
AcDbLine
 10
1321.268531644044
 20
377.2307610247179
 30
0.0
 11
1344.14985995746
 21
-9.98990443161642
 31
0.0
  0
LINE
  5
C4
330
1F
100
AcDbEntity
  8
0
  6
Continuous
 62
     7
100
AcDbLine
 10
886.2520659800182
 20
428.0312098706398
 30
0.0
 11
886.3427600812236
 21
427.87919357966
 31
0.0
  0
LINE
  5
C5
330
1F
100
AcDbEntity
  8
0
  6
Continuous
 62
     7
100
AcDbLine
 10
884.1498599574511
 20
378.1505652205789
 30
0.0
 11
884.1498599574509
 21
393.8020142850049
 31
0.0
  0
LINE
  5
C6
330
1F
100
AcDbEntity
  8
0
  6
Continuous
 62
     7
100
AcDbLine
 10
884.1498599574497
 20
432.619756692652
 30
0.0
 11
884.14985995745
 21
447.2386433304959
 31
0.0
  0
LINE
  5
C7
330
1F
100
AcDbEntity
  8
0
  6
Continuous
 62
     7
100
AcDbLine
 10
884.1498599574495
 20
428.0312098706328
 30
0.0
 11
884.14985995745
 21
428.1108445032979
 31
0.0
  0
LINE
  5
C8
330
1F
100
AcDbEntity
  8
0
  6
Continuous
 62
     7
100
AcDbLine
 10
884.14985995745
 20
428.1108445032979
 30
0.0
 11
884.1498599574499
 21
430.1235087382528
 31
0.0
  0
LINE
  5
C9
330
1F
100
AcDbEntity
  8
0
  6
Continuous
 62
     7
100
AcDbLine
 10
884.1498599574499
 20
430.1235087382528
 30
0.0
 11
884.1498599574497
 21
432.619756692652
 31
0.0
  0
LINE
  5
CA
330
1F
100
AcDbEntity
  8
0
  6
Continuous
 62
     7
100
AcDbLine
 10
884.1498599574509
 20
393.8020142850049
 30
0.0
 11
884.1498599574495
 21
428.0312098706328
 31
0.0
  0
LINE
  5
CB
330
1F
100
AcDbEntity
  8
0
  6
Continuous
 62
     7
100
AcDbLine
 10
884.1498599574511
 20
378.1505652205789
 30
0.0
 11
884.1498599574509
 21
393.8020142850049
 31
0.0
  0
LINE
  5
CC
330
1F
100
AcDbEntity
  8
0
  6
Continuous
 62
     7
100
AcDbLine
 10
884.1498599574593
 20
-9.98990443161574
 30
0.0
 11
884.1498599574511
 21
378.1505652205789
 31
0.0
  0
LINE
  5
CD
330
1F
100
AcDbEntity
  8
0
  6
Continuous
 62
     7
100
AcDbLine
 10
904.1498599574594
 20
-9.98990443161574
 30
0.0
 11
884.1498599574593
 21
-9.98990443161574
 31
0.0
  0
LINE
  5
CE
330
1F
100
AcDbEntity
  8
0
  6
Continuous
 62
     7
100
AcDbLine
 10
904.1498599574594
 20
-9.98990443161574
 30
0.0
 11
927.1498599574511
 21
377.0810236170149
 31
0.0
  0
LINE
  5
CF
330
1F
100
AcDbEntity
  8
0
  6
Continuous
 62
     7
100
AcDbLine
 10
884.1498599574495
 20
428.0312098706328
 30
0.0
 11
884.14985995745
 21
428.1108445032979
 31
0.0
  0
LINE
  5
D0
330
1F
100
AcDbEntity
  8
0
  6
Continuous
 62
     7
100
AcDbLine
 10
884.1498599574509
 20
393.8020142850049
 30
0.0
 11
884.1498599574495
 21
428.0312098706328
 31
0.0
  0
LINE
  5
D1
330
1F
100
AcDbEntity
  8
0
  6
Continuous
 62
     7
100
AcDbLine
 10
927.1498599574512
 20
377.0830646173419
 30
0.0
 11
927.1498599574511
 21
377.0810236170149
 31
0.0
  0
LINE
  5
D2
330
1F
100
AcDbEntity
  8
0
  6
Continuous
 62
     7
100
AcDbLine
 10
884.1498599574499
 20
430.6000044977345
 30
0.0
 11
927.1498599574512
 21
377.0830646173419
 31
0.0
  0
LINE
  5
D3
330
1F
100
AcDbEntity
  8
0
  6
Continuous
 62
     7
100
AcDbLine
 10
884.1498599574511
 20
378.1505652205789
 30
0.0
 11
884.1498599574509
 21
393.8020142850049
 31
0.0
  0
LINE
  5
D4
330
1F
100
AcDbEntity
  8
0
  6
Continuous
 62
     7
100
AcDbLine
 10
884.1498599574593
 20
-9.98990443161574
 30
0.0
 11
884.1498599574511
 21
378.1505652205789
 31
0.0
  0
LINE
  5
D5
330
1F
100
AcDbEntity
  8
0
  6
Continuous
 62
     7
100
AcDbLine
 10
904.1498599574594
 20
-9.98990443161574
 30
0.0
 11
884.1498599574593
 21
-9.98990443161574
 31
0.0
  0
LINE
  5
D6
330
1F
100
AcDbEntity
  8
0
  6
Continuous
 62
     7
100
AcDbLine
 10
884.1498599574497
 20
432.619756692652
 30
0.0
 11
884.14985995745
 21
447.2386433304959
 31
0.0
  0
LINE
  5
D7
330
1F
100
AcDbEntity
  8
0
  6
Continuous
 62
     7
100
AcDbLine
 10
884.1498599574495
 20
428.0312098706328
 30
0.0
 11
884.14985995745
 21
428.1108445032979
 31
0.0
  0
LINE
  5
D8
330
1F
100
AcDbEntity
  8
0
  6
Continuous
 62
     7
100
AcDbLine
 10
884.14985995745
 20
428.1108445032979
 30
0.0
 11
884.1498599574499
 21
430.1235087382528
 31
0.0
  0
LINE
  5
D9
330
1F
100
AcDbEntity
  8
0
  6
Continuous
 62
     7
100
AcDbLine
 10
884.1498599574499
 20
430.1235087382528
 30
0.0
 11
884.1498599574497
 21
432.619756692652
 31
0.0
  0
LINE
  5
DA
330
1F
100
AcDbEntity
  8
0
  6
Continuous
 62
     7
100
AcDbLine
 10
884.1498599574509
 20
393.8020142850049
 30
0.0
 11
884.1498599574495
 21
428.0312098706328
 31
0.0
  0
LINE
  5
DB
330
1F
100
AcDbEntity
  8
0
  6
Continuous
 62
     7
100
AcDbLine
 10
1399.144452332453
 20
628.5658930126418
 30
0.0
 11
1399.144452332453
 21
628.5645803157648
 31
0.0
  0
LINE
  5
DC
330
1F
100
AcDbEntity
  8
0
  6
Continuous
 62
     7
100
AcDbLine
 10
1364.144452332453
 20
628.5658930126409
 30
0.0
 11
1364.144452332453
 21
628.5645803157639
 31
0.0
  0
LINE
  5
DD
330
1F
100
AcDbEntity
  8
0
  6
Continuous
 62
     7
100
AcDbLine
 10
1399.144452332453
 20
628.5645803157648
 30
0.0
 11
1399.144452332452
 21
625.3341383230128
 31
0.0
  0
LINE
  5
DE
330
1F
100
AcDbEntity
  8
0
  6
Continuous
 62
     7
100
AcDbLine
 10
1399.144452332452
 20
607.1588124805979
 30
0.0
 11
1364.149859957448
 21
607.1588124805968
 31
0.0
  0
LINE
  5
DF
330
1F
100
AcDbEntity
  8
0
  6
Continuous
 62
     7
100
AcDbLine
 10
1399.144452332454
 20
604.8021035636008
 30
0.0
 11
1399.144452332452
 21
607.1588124805979
 31
0.0
  0
LINE
  5
E0
330
1F
100
AcDbEntity
  8
0
  6
Continuous
 62
     7
100
AcDbLine
 10
1399.144452332452
 20
625.3341383230128
 30
0.0
 11
1399.144452332452
 21
607.1588124805979
 31
0.0
  0
LINE
  5
E1
330
1F
100
AcDbEntity
  8
0
  6
Continuous
 62
     7
100
AcDbLine
 10
1364.144452332453
 20
628.5645803157639
 30
0.0
 11
1364.144452332453
 21
628.230934668463
 31
0.0
  0
LINE
  5
E2
330
1F
100
AcDbEntity
  8
0
  6
Continuous
 62
     7
100
AcDbLine
 10
1399.14445233246
 20
402.0829858298488
 30
0.0
 11
1399.14445233246
 21
400.5578431962359
 31
0.0
  0
LINE
  5
E3
330
1F
100
AcDbEntity
  8
0
  6
Continuous
 62
     7
100
AcDbLine
 10
1399.14445233246
 20
402.0829858298488
 30
0.0
 11
1399.144452332454
 21
604.8021035636008
 31
0.0
  0
LINE
  5
E4
330
1F
100
AcDbEntity
  8
0
  6
Continuous
 62
     7
100
AcDbLine
 10
1399.14445233246
 20
400.5578431962359
 30
0.0
 11
1364.149859957452
 21
400.5578431962339
 31
0.0
  0
LINE
  5
E5
330
1F
100
AcDbEntity
  8
0
  6
Continuous
 62
     7
100
AcDbLine
 10
884.1444523324507
 20
628.564580315751
 30
0.0
 11
884.1444523324491
 21
625.3341383229989
 31
0.0
  0
LINE
  5
E6
330
1F
100
AcDbEntity
  8
0
  6
Continuous
 62
     7
100
AcDbLine
 10
884.1444523324491
 20
625.3341383229989
 30
0.0
 11
884.1444523324495
 21
607.1588124805838
 31
0.0
  0
LINE
  5
E7
330
1F
100
AcDbEntity
  8
0
  6
Continuous
 62
     7
100
AcDbLine
 10
884.1444523324514
 20
604.8021035635869
 30
0.0
 11
884.1444523324495
 21
607.1588124805838
 31
0.0
  0
LINE
  5
E8
330
1F
100
AcDbEntity
  8
0
  6
Continuous
 62
     7
100
AcDbLine
 10
884.1444523324507
 20
628.565893012628
 30
0.0
 11
884.1444523324507
 21
628.564580315751
 31
0.0
  0
LINE
  5
E9
330
1F
100
AcDbEntity
  8
0
  6
Continuous
 62
     7
100
AcDbLine
 10
884.1444523324569
 20
402.0829858298349
 30
0.0
 11
884.144452332457
 21
400.5578431962218
 31
0.0
  0
LINE
  5
EA
330
1F
100
AcDbEntity
  8
0
  6
Continuous
 62
     7
100
AcDbLine
 10
884.1444523324569
 20
402.0829858298349
 30
0.0
 11
884.1444523324514
 21
604.8021035635869
 31
0.0
  0
LINE
  5
EB
330
1F
100
AcDbEntity
  8
0
  6
Continuous
 62
     7
100
AcDbLine
 10
849.1444523324507
 20
628.5658930126268
 30
0.0
 11
884.1444523324507
 21
628.565893012628
 31
0.0
  0
LINE
  5
EC
330
1F
100
AcDbEntity
  8
0
  6
Continuous
 62
     7
100
AcDbLine
 10
849.1444523324515
 20
604.802103563586
 30
0.0
 11
849.1444523324495
 21
607.1588124805838
 31
0.0
  0
LINE
  5
ED
330
1F
100
AcDbEntity
  8
0
  6
Continuous
 62
     7
100
AcDbLine
 10
849.144452332449
 20
625.334138322998
 30
0.0
 11
849.1444523324495
 21
607.1588124805838
 31
0.0
  0
LINE
  5
EE
330
1F
100
AcDbEntity
  8
0
  6
Continuous
 62
     7
100
AcDbLine
 10
849.1444523324507
 20
628.5645803157498
 30
0.0
 11
849.144452332449
 21
625.334138322998
 31
0.0
  0
LINE
  5
EF
330
1F
100
AcDbEntity
  8
0
  6
Continuous
 62
     7
100
AcDbLine
 10
849.1444523324495
 20
607.1588124805838
 30
0.0
 11
884.1444523324495
 21
607.1588124805838
 31
0.0
  0
LINE
  5
F0
330
1F
100
AcDbEntity
  8
0
  6
Continuous
 62
     7
100
AcDbLine
 10
849.1444523324507
 20
628.5658930126268
 30
0.0
 11
849.1444523324507
 21
628.5645803157498
 31
0.0
  0
LINE
  5
F1
330
1F
100
AcDbEntity
  8
0
  6
Continuous
 62
     7
100
AcDbLine
 10
849.1444523324569
 20
402.082985829834
 30
0.0
 11
849.1444523324569
 21
400.5578431962209
 31
0.0
  0
LINE
  5
F2
330
1F
100
AcDbEntity
  8
0
  6
Continuous
 62
     7
100
AcDbLine
 10
849.1444523324569
 20
402.082985829834
 30
0.0
 11
849.1444523324515
 21
604.802103563586
 31
0.0
  0
LINE
  5
F3
330
1F
100
AcDbEntity
  8
0
  6
Continuous
 62
     7
100
AcDbLine
 10
849.1444523324569
 20
400.5578431962209
 30
0.0
 11
884.144452332457
 21
400.5578431962218
 31
0.0
  0
LINE
  5
F4
330
1F
100
AcDbEntity
  8
0
  6
Continuous
 62
     7
100
AcDbLine
 10
884.1498599574454
 20
619.427243213269
 30
0.0
 11
884.1444523324451
 21
619.427243213269
 31
0.0
  0
LINE
  5
F5
330
1F
100
AcDbEntity
  8
0
  6
Continuous
 62
     7
100
AcDbLine
 10
884.1498599574456
 20
613.427243213269
 30
0.0
 11
884.1444523324453
 21
613.427243213269
 31
0.0
  0
LINE
  5
F6
330
1F
100
AcDbEntity
  8
0
  6
Continuous
 62
     7
100
AcDbLine
 10
163.3469506080492
 20
606.8592151477626
 30
0.0
 11
163.3469506080498
 21
628.5658930126394
 31
0.0
  0
LINE
  5
F7
330
1F
100
AcDbEntity
  8
0
  6
Continuous
 62
     7
100
AcDbLine
 10
163.3469506080498
 20
628.5658930126394
 30
0.0
 11
198.3469506080498
 21
628.5658930126385
 31
0.0
  0
LINE
  5
F8
330
1F
100
AcDbEntity
  8
0
  6
Continuous
 62
     7
100
AcDbLine
 10
198.3469506080492
 20
606.8592151477617
 30
0.0
 11
198.3469506080498
 21
628.5658930126385
 31
0.0
  0
LINE
  5
F9
330
1F
100
AcDbEntity
  8
0
  6
Continuous
 62
     7
100
AcDbLine
 10
163.3469506080435
 20
402.7555303987692
 30
0.0
 11
163.3469506080492
 21
606.8592151477626
 31
0.0
  0
LINE
  5
FA
330
1F
100
AcDbEntity
  8
0
  6
Continuous
 62
     7
100
AcDbLine
 10
198.3469506080407
 20
449.9350349544198
 30
0.0
 11
198.3469506080492
 21
606.8592151477617
 31
0.0
  0
LINE
  5
FB
330
1F
100
AcDbEntity
  8
0
  6
Continuous
 62
     7
100
AcDbLine
 10
163.3469506080435
 20
400.5578431962333
 30
0.0
 11
163.3469506080435
 21
400.5590021697472
 31
0.0
  0
LINE
  5
FC
330
1F
100
AcDbEntity
  8
0
  6
Continuous
 62
     7
100
AcDbLine
 10
163.3469506080435
 20
401.187276177857
 30
0.0
 11
163.3469506080435
 21
402.7555303987692
 31
0.0
  0
LINE
  5
FD
330
1F
100
AcDbEntity
  8
0
  6
Continuous
 62
     7
100
AcDbLine
 10
163.3469506080435
 20
400.5590021697472
 30
0.0
 11
163.3469506080435
 21
401.187276177857
 31
0.0
  0
LINE
  5
FE
330
1F
100
AcDbEntity
  8
0
  6
Continuous
 62
     3
100
AcDbLine
 10
163.3469506080435
 20
400.5590021697472
 30
0.0
 11
198.3415429830516
 21
400.5590021697463
 31
0.0
  0
LINE
  5
FF
330
1F
100
AcDbEntity
  8
0
  6
Continuous
 62
     7
100
AcDbLine
 10
163.3469506080435
 20
400.5578431962333
 30
0.0
 11
198.3415429830516
 21
400.5578431962324
 31
0.0
  0
LINE
  5
100
330
1F
100
AcDbEntity
  8
0
  6
Continuous
 62
     7
100
AcDbLine
 10
713.3469506080526
 20
628.5658930126247
 30
0.0
 11
678.3469506080526
 21
628.5658930126256
 31
0.0
  0
LINE
  5
101
330
1F
100
AcDbEntity
  8
0
  6
Continuous
 62
     7
100
AcDbLine
 10
713.3469506080517
 20
606.8592151477478
 30
0.0
 11
713.3469506080526
 21
628.5658930126247
 31
0.0
  0
LINE
  5
102
330
1F
100
AcDbEntity
  8
0
  6
Continuous
 62
     7
100
AcDbLine
 10
678.3469506080517
 20
606.8592151477488
 30
0.0
 11
678.3469506080526
 21
628.5658930126256
 31
0.0
  0
LINE
  5
103
330
1F
100
AcDbEntity
  8
0
  6
Continuous
 62
     7
100
AcDbLine
 10
713.3469506080455
 20
400.5578431962186
 30
0.0
 11
678.3469506080455
 21
400.5578431962196
 31
0.0
  0
LINE
  5
104
330
1F
100
AcDbEntity
  8
0
  6
Continuous
 62
     7
100
AcDbLine
 10
678.3469506080455
 20
400.5578431962196
 30
0.0
 11
678.3469506080455
 21
400.5590021697334
 31
0.0
  0
LINE
  5
105
330
1F
100
AcDbEntity
  8
0
  6
Continuous
 62
     7
100
AcDbLine
 10
678.3469506080455
 20
400.5590021697334
 30
0.0
 11
678.3469506080455
 21
401.1872761778433
 31
0.0
  0
LINE
  5
106
330
1F
100
AcDbEntity
  8
0
  6
Continuous
 62
     7
100
AcDbLine
 10
678.3469506080455
 20
401.1872761778433
 30
0.0
 11
678.3469506080455
 21
402.7555303987555
 31
0.0
  0
LINE
  5
107
330
1F
100
AcDbEntity
  8
0
  6
Continuous
 62
     7
100
AcDbLine
 10
713.3469506080455
 20
400.5578431962186
 30
0.0
 11
713.3469506080455
 21
400.5590021697325
 31
0.0
  0
LINE
  5
108
330
1F
100
AcDbEntity
  8
0
  6
Continuous
 62
     7
100
AcDbLine
 10
713.3469506080455
 20
400.5590021697325
 30
0.0
 11
713.3469506080455
 21
401.1872761778424
 31
0.0
  0
LINE
  5
109
330
1F
100
AcDbEntity
  8
0
  6
Continuous
 62
     7
100
AcDbLine
 10
713.3469506080455
 20
401.1872761778424
 30
0.0
 11
713.3469506080455
 21
402.7555303987545
 31
0.0
  0
LINE
  5
10A
330
1F
100
AcDbEntity
  8
0
  6
Continuous
 62
     7
100
AcDbLine
 10
713.3469506080455
 20
402.7555303987545
 30
0.0
 11
713.3469506080517
 21
606.8592151477478
 31
0.0
  0
LINE
  5
10B
330
1F
100
AcDbEntity
  8
0
  6
Continuous
 62
     7
100
AcDbLine
 10
678.3469506080455
 20
402.7555303987555
 30
0.0
 11
678.3469506080517
 21
606.8592151477488
 31
0.0
  0
LINE
  5
10C
330
1F
100
AcDbEntity
  8
1
  6
DOT_CENTER
 62
     2
100
AcDbLine
 10
676.3415429830575
 20
616.4272432132671
 30
0.0
 11
680.3469506080526
 21
616.4272432132671
 31
0.0
  0
LINE
  5
10D
330
1F
100
AcDbEntity
  8
0
  6
Continuous
 62
     7
100
AcDbLine
 10
678.3415429830575
 20
613.4272432132671
 30
0.0
 11
678.3469506080526
 21
613.4272432132671
 31
0.0
  0
LINE
  5
10E
330
1F
100
AcDbEntity
  8
0
  6
Continuous
 62
     7
100
AcDbLine
 10
678.3415429830575
 20
619.4272432132671
 30
0.0
 11
678.3469506080476
 21
619.4272432132671
 31
0.0
  0
LINE
  5
10F
330
1F
100
AcDbEntity
  8
0
  6
Continuous
 62
     7
100
AcDbLine
 10
198.3415429830518
 20
430.3223884623266
 30
0.0
 11
198.3415429830523
 21
430.1235087382605
 31
0.0
  0
LINE
  5
110
330
1F
100
AcDbEntity
  8
0
  6
Continuous
 62
     7
100
AcDbLine
 10
198.3415429830526
 20
447.2386433305045
 30
0.0
 11
198.3415429830518
 21
430.3223884623266
 31
0.0
  0
LINE
  5
111
330
1F
100
AcDbEntity
  8
0
  6
Continuous
 62
     7
100
AcDbLine
 10
198.3415429830523
 20
430.1235087382605
 30
0.0
 11
198.3415429830523
 21
428.1108445033046
 31
0.0
  0
LINE
  5
112
330
1F
100
AcDbEntity
  8
0
  6
Continuous
 62
     7
100
AcDbLine
 10
198.3415429830429
 20
-9.98990443161756
 30
0.0
 11
198.3415429830511
 21
378.1505652205859
 31
0.0
  0
LINE
  5
113
330
1F
100
AcDbEntity
  8
0
  6
Continuous
 62
     7
100
AcDbLine
 10
198.3415429830517
 20
421.3230237867596
 30
0.0
 11
198.3415429830517
 21
421.3201736685628
 31
0.0
  0
LINE
  5
114
330
1F
100
AcDbEntity
  8
0
  6
Continuous
 62
     7
100
AcDbLine
 10
198.3415429830517
 20
421.3230834390292
 30
0.0
 11
198.3415429830517
 21
421.3230237867596
 31
0.0
  0
LINE
  5
115
330
1F
100
AcDbEntity
  8
0
  6
Continuous
 62
     7
100
AcDbLine
 10
198.3415429830516
 20
393.8020142850127
 30
0.0
 11
198.3415429830511
 21
378.1505652205859
 31
0.0
  0
LINE
  5
116
330
1F
100
AcDbEntity
  8
0
  6
Continuous
 62
     7
100
AcDbLine
 10
198.3415429830517
 20
421.3201736685628
 30
0.0
 11
198.3415429830516
 21
393.8020142850127
 31
0.0
  0
LINE
  5
117
330
1F
100
AcDbEntity
  8
0
  6
Continuous
 62
     7
100
AcDbLine
 10
198.3415429830523
 20
428.1108445033046
 30
0.0
 11
198.3415429830517
 21
421.3230834390292
 31
0.0
  0
LINE
  5
118
330
1F
100
AcDbEntity
  8
0
  6
Continuous
 62
     7
100
AcDbLine
 10
241.3415429830515
 20
396.3207292975245
 30
0.0
 11
200.3415429830525
 21
447.2386433305045
 31
0.0
  0
LINE
  5
119
330
1F
100
AcDbEntity
  8
0
  6
Continuous
 62
     7
100
AcDbLine
 10
218.3415428316054
 20
-9.98990443161813
 30
0.0
 11
198.3415429830429
 21
-9.98990443161756
 31
0.0
  0
LINE
  5
11A
330
1F
100
AcDbEntity
  8
0
  6
Continuous
 62
     7
100
AcDbLine
 10
200.3415429830525
 20
447.2386433305045
 30
0.0
 11
198.3415429830526
 21
447.2386433305045
 31
0.0
  0
LINE
  5
11B
330
1F
100
AcDbEntity
  8
0
  6
Continuous
 62
     7
100
AcDbLine
 10
198.3415429830518
 20
430.3223884623266
 30
0.0
 11
198.3415429830523
 21
430.1235087382605
 31
0.0
  0
LINE
  5
11C
330
1F
100
AcDbEntity
  8
0
  6
Continuous
 62
     7
100
AcDbLine
 10
198.3415429830526
 20
447.2386433305045
 30
0.0
 11
198.3415429830518
 21
430.3223884623266
 31
0.0
  0
LINE
  5
11D
330
1F
100
AcDbEntity
  8
0
  6
Continuous
 62
     7
100
AcDbLine
 10
198.3415429830523
 20
430.1235087382605
 30
0.0
 11
198.3415429830523
 21
428.1108445033046
 31
0.0
  0
LINE
  5
11E
330
1F
100
AcDbEntity
  8
0
  6
Continuous
 62
     7
100
AcDbLine
 10
198.3415429830517
 20
421.3230237867596
 30
0.0
 11
198.3415429830517
 21
421.3201736685628
 31
0.0
  0
LINE
  5
11F
330
1F
100
AcDbEntity
  8
0
  6
Continuous
 62
     7
100
AcDbLine
 10
198.3415429830517
 20
421.3230834390292
 30
0.0
 11
198.3415429830517
 21
421.3230237867596
 31
0.0
  0
LINE
  5
120
330
1F
100
AcDbEntity
  8
0
  6
Continuous
 62
     7
100
AcDbLine
 10
198.3415429830516
 20
393.8020142850127
 30
0.0
 11
198.3415429830511
 21
378.1505652205859
 31
0.0
  0
LINE
  5
121
330
1F
100
AcDbEntity
  8
0
  6
Continuous
 62
     7
100
AcDbLine
 10
198.3415429830517
 20
421.3201736685628
 30
0.0
 11
198.3415429830516
 21
393.8020142850127
 31
0.0
  0
LINE
  5
122
330
1F
100
AcDbEntity
  8
0
  6
Continuous
 62
     7
100
AcDbLine
 10
198.3415429830523
 20
428.1108445033046
 30
0.0
 11
198.3415429830517
 21
421.3230834390292
 31
0.0
  0
LINE
  5
123
330
1F
100
AcDbEntity
  8
0
  6
Continuous
 62
     7
100
AcDbLine
 10
241.3415429830516
 20
393.8020142850118
 30
0.0
 11
241.1989662437815
 21
393.8020142850118
 31
0.0
  0
LINE
  5
124
330
1F
100
AcDbEntity
  8
0
  6
Continuous
 62
     7
100
AcDbLine
 10
241.2772232679668
 20
378.150565220585
 30
0.0
 11
241.3415429830512
 21
378.150565220585
 31
0.0
  0
LINE
  5
125
330
1F
100
AcDbEntity
  8
0
  6
Continuous
 62
     7
100
AcDbLine
 10
241.3415429830516
 20
393.8020142850118
 30
0.0
 11
241.3415429830516
 21
392.5363594254451
 31
0.0
  0
LINE
  5
126
330
1F
100
AcDbEntity
  8
0
  6
Continuous
 62
     7
100
AcDbLine
 10
241.3415429830515
 20
396.3207292975245
 30
0.0
 11
241.3415429830516
 21
396.2189293866148
 31
0.0
  0
LINE
  5
127
330
1F
100
AcDbEntity
  8
0
  6
Continuous
 62
     7
100
AcDbLine
 10
241.3415429830516
 20
396.2189293866148
 30
0.0
 11
241.3415429830516
 21
393.8020142850118
 31
0.0
  0
LINE
  5
128
330
1F
100
AcDbEntity
  8
0
  6
Continuous
 62
     7
100
AcDbLine
 10
241.3415429830513
 20
389.4592053339461
 30
0.0
 11
241.3415429830511
 21
379.2390474795632
 31
0.0
  0
LINE
  5
129
330
1F
100
AcDbEntity
  8
0
  6
Continuous
 62
     7
100
AcDbLine
 10
241.3415429830516
 20
392.5363594254451
 30
0.0
 11
241.3415429830513
 21
389.4592053339461
 31
0.0
  0
LINE
  5
12A
330
1F
100
AcDbEntity
  8
0
  6
Continuous
 62
     7
100
AcDbLine
 10
241.3415429830511
 20
379.2390474795632
 30
0.0
 11
241.341542983051
 21
379.188715004339
 31
0.0
  0
LINE
  5
12B
330
1F
100
AcDbEntity
  8
0
  6
Continuous
 62
     7
100
AcDbLine
 10
241.341542983051
 20
379.188715004339
 30
0.0
 11
241.3415429830512
 21
378.150565220585
 31
0.0
  0
LINE
  5
12C
330
1F
100
AcDbEntity
  8
0
  6
Continuous
 62
     7
100
AcDbLine
 10
200.3415429830525
 20
447.2386433305045
 30
0.0
 11
198.3415429830526
 21
447.2386433305045
 31
0.0
  0
LINE
  5
12D
330
1F
100
AcDbEntity
  8
0
  6
Continuous
 62
     7
100
AcDbLine
 10
198.3415429830429
 20
-9.98990443161756
 30
0.0
 11
198.3415429830511
 21
378.1505652205859
 31
0.0
  0
LINE
  5
12E
330
1F
100
AcDbEntity
  8
0
  6
Continuous
 62
     7
100
AcDbLine
 10
198.3415429830517
 20
421.3230237867596
 30
0.0
 11
198.3415429830517
 21
421.3201736685628
 31
0.0
  0
LINE
  5
12F
330
1F
100
AcDbEntity
  8
0
  6
Continuous
 62
     7
100
AcDbLine
 10
198.3415429830517
 20
421.3230834390292
 30
0.0
 11
198.3415429830517
 21
421.3230237867596
 31
0.0
  0
LINE
  5
130
330
1F
100
AcDbEntity
  8
0
  6
Continuous
 62
     7
100
AcDbLine
 10
198.3415429830516
 20
393.8020142850127
 30
0.0
 11
198.3415429830511
 21
378.1505652205859
 31
0.0
  0
LINE
  5
131
330
1F
100
AcDbEntity
  8
0
  6
Continuous
 62
     7
100
AcDbLine
 10
198.3415429830517
 20
421.3201736685628
 30
0.0
 11
198.3415429830516
 21
393.8020142850127
 31
0.0
  0
LINE
  5
132
330
1F
100
AcDbEntity
  8
0
  6
Continuous
 62
     7
100
AcDbLine
 10
198.3415429830523
 20
428.1108445033046
 30
0.0
 11
198.3415429830517
 21
421.3230834390292
 31
0.0
  0
LINE
  5
133
330
1F
100
AcDbEntity
  8
0
  6
Continuous
 62
     7
100
AcDbLine
 10
241.3415429830516
 20
393.8020142850118
 30
0.0
 11
241.3415429830516
 21
392.5363594254451
 31
0.0
  0
LINE
  5
134
330
1F
100
AcDbEntity
  8
0
  6
Continuous
 62
     7
100
AcDbLine
 10
241.3415429830515
 20
396.3207292975245
 30
0.0
 11
241.3415429830516
 21
396.2189293866148
 31
0.0
  0
LINE
  5
135
330
1F
100
AcDbEntity
  8
0
  6
Continuous
 62
     7
100
AcDbLine
 10
241.3415429830516
 20
396.2189293866148
 30
0.0
 11
241.3415429830516
 21
393.8020142850118
 31
0.0
  0
LINE
  5
136
330
1F
100
AcDbEntity
  8
0
  6
Continuous
 62
     7
100
AcDbLine
 10
241.3415429830513
 20
389.4592053339461
 30
0.0
 11
241.3415429830511
 21
379.2390474795632
 31
0.0
  0
LINE
  5
137
330
1F
100
AcDbEntity
  8
0
  6
Continuous
 62
     7
100
AcDbLine
 10
241.3415429830516
 20
392.5363594254451
 30
0.0
 11
241.3415429830513
 21
389.4592053339461
 31
0.0
  0
LINE
  5
138
330
1F
100
AcDbEntity
  8
0
  6
Continuous
 62
     7
100
AcDbLine
 10
241.2772232679668
 20
378.150565220585
 30
0.0
 11
218.3415428316054
 21
-9.98990443161813
 31
0.0
  0
LINE
  5
139
330
1F
100
AcDbEntity
  8
0
  6
Continuous
 62
     7
100
AcDbLine
 10
218.3415428316054
 20
-9.98990443161813
 30
0.0
 11
198.3415429830429
 21
-9.98990443161756
 31
0.0
  0
LINE
  5
13A
330
1F
100
AcDbEntity
  8
0
  6
Continuous
 62
     7
100
AcDbLine
 10
241.3415429830512
 20
378.150565220585
 30
0.0
 11
241.341542983051
 21
377.4650545487607
 31
0.0
  0
LINE
  5
13B
330
1F
100
AcDbEntity
  8
0
  6
Continuous
 62
     7
100
AcDbLine
 10
241.3415429830516
 20
393.8020142850118
 30
0.0
 11
241.3415429830516
 21
392.5363594254451
 31
0.0
  0
LINE
  5
13C
330
1F
100
AcDbEntity
  8
0
  6
Continuous
 62
     7
100
AcDbLine
 10
241.3415429830515
 20
396.3207292975245
 30
0.0
 11
241.3415429830516
 21
396.2189293866148
 31
0.0
  0
LINE
  5
13D
330
1F
100
AcDbEntity
  8
0
  6
Continuous
 62
     7
100
AcDbLine
 10
241.3415429830516
 20
396.2189293866148
 30
0.0
 11
241.3415429830516
 21
393.8020142850118
 31
0.0
  0
LINE
  5
13E
330
1F
100
AcDbEntity
  8
0
  6
Continuous
 62
     7
100
AcDbLine
 10
241.3415429830513
 20
389.4592053339461
 30
0.0
 11
241.3415429830511
 21
379.2390474795632
 31
0.0
  0
LINE
  5
13F
330
1F
100
AcDbEntity
  8
0
  6
Continuous
 62
     7
100
AcDbLine
 10
241.3415429830516
 20
392.5363594254451
 30
0.0
 11
241.3415429830513
 21
389.4592053339461
 31
0.0
  0
LINE
  5
140
330
1F
100
AcDbEntity
  8
0
  6
Continuous
 62
     7
100
AcDbLine
 10
241.3415429830511
 20
379.2390474795632
 30
0.0
 11
241.341542983051
 21
379.188715004339
 31
0.0
  0
LINE
  5
141
330
1F
100
AcDbEntity
  8
0
  6
Continuous
 62
     7
100
AcDbLine
 10
241.341542983051
 20
379.188715004339
 30
0.0
 11
241.3415429830512
 21
378.150565220585
 31
0.0
  0
LINE
  5
142
330
1F
100
AcDbEntity
  8
0
  6
Continuous
 62
     7
100
AcDbLine
 10
243.1558847698173
 20
377.4650545487634
 30
0.0
 11
243.3739230770666
 21
377.4650545487606
 31
0.0
  0
LINE
  5
143
330
1F
100
AcDbEntity
  8
0
  6
Continuous
 62
     7
100
AcDbLine
 10
633.5272011962907
 20
377.4650545487635
 30
0.0
 11
635.3415429830521
 21
377.4650545487524
 31
0.0
  0
LINE
  5
144
330
1F
100
AcDbEntity
  8
0
  6
Continuous
 62
     7
100
AcDbLine
 10
241.341542983051
 20
377.4650545487607
 30
0.0
 11
243.1558847698173
 21
377.4650545487634
 31
0.0
  0
LINE
  5
145
330
1F
100
AcDbEntity
  8
0
  6
Continuous
 62
     7
100
AcDbLine
 10
243.3739230770666
 20
377.4650545487606
 30
0.0
 11
633.3091628890352
 21
377.4650545487524
 31
0.0
  0
LINE
  5
146
330
1F
100
AcDbEntity
  8
0
  6
Continuous
 62
     7
100
AcDbLine
 10
633.3091628890352
 20
377.4650545487524
 30
0.0
 11
633.5272011962907
 21
377.4650545487635
 31
0.0
  0
LINE
  5
147
330
1F
100
AcDbEntity
  8
0
  6
Continuous
 62
     7
100
AcDbLine
 10
635.3415429830521
 20
379.1887150043307
 30
0.0
 11
635.3415429830521
 21
378.1505652205777
 31
0.0
  0
LINE
  5
148
330
1F
100
AcDbEntity
  8
0
  6
Continuous
 62
     7
100
AcDbLine
 10
635.3415429830521
 20
378.1505652205777
 30
0.0
 11
635.3415429830521
 21
377.4650545487524
 31
0.0
  0
LINE
  5
149
330
1F
100
AcDbEntity
  8
0
  6
Continuous
 62
     7
100
AcDbLine
 10
635.3415429830525
 20
393.8020142850047
 30
0.0
 11
635.3415429830526
 21
396.2189293866065
 31
0.0
  0
LINE
  5
14A
330
1F
100
AcDbEntity
  8
0
  6
Continuous
 62
     7
100
AcDbLine
 10
635.3415429830525
 20
392.5363594254368
 30
0.0
 11
635.3415429830525
 21
393.8020142850047
 31
0.0
  0
LINE
  5
14B
330
1F
100
AcDbEntity
  8
0
  6
Continuous
 62
     7
100
AcDbLine
 10
635.3415429830526
 20
396.2189293866065
 30
0.0
 11
635.3415429830521
 21
396.3207292975146
 31
0.0
  0
LINE
  5
14C
330
1F
100
AcDbEntity
  8
0
  6
Continuous
 62
     7
100
AcDbLine
 10
635.3415429830525
 20
389.4592053339379
 30
0.0
 11
635.3415429830525
 21
392.5363594254368
 31
0.0
  0
LINE
  5
14D
330
1F
100
AcDbEntity
  8
0
  6
Continuous
 62
     7
100
AcDbLine
 10
635.3415429830521
 20
379.1887150043307
 30
0.0
 11
635.3415429830525
 21
389.4592053339379
 31
0.0
  0
LINE
  5
14E
330
1F
100
AcDbEntity
  8
0
  6
Continuous
 62
     7
100
AcDbLine
 10
241.3415429830515
 20
396.3207292975245
 30
0.0
 11
241.3415429830516
 21
396.2189293866148
 31
0.0
  0
LINE
  5
14F
330
1F
100
AcDbEntity
  8
0
  6
Continuous
 62
     7
100
AcDbLine
 10
635.3415429830526
 20
396.2189293866065
 30
0.0
 11
635.3415429830521
 21
396.3207292975146
 31
0.0
  0
LINE
  5
150
330
1F
100
AcDbEntity
  8
0
  6
Continuous
 62
     7
100
AcDbLine
 10
242.7074047762933
 20
396.2189293866147
 30
0.0
 11
241.3415429830516
 21
396.2189293866148
 31
0.0
  0
LINE
  5
151
330
1F
100
AcDbEntity
  8
0
  6
Continuous
 62
     7
100
AcDbLine
 10
246.2821733655544
 20
396.218929386615
 30
0.0
 11
242.7074047762933
 21
396.2189293866147
 31
0.0
  0
LINE
  5
152
330
1F
100
AcDbEntity
  8
0
  6
Continuous
 62
     7
100
AcDbLine
 10
316.2821733655543
 20
396.2189293866134
 30
0.0
 11
246.2821733655544
 21
396.218929386615
 31
0.0
  0
LINE
  5
153
330
1F
100
AcDbEntity
  8
0
  6
Continuous
 62
     7
100
AcDbLine
 10
630.3415429830526
 20
396.2189293866067
 30
0.0
 11
560.3415429830526
 21
396.2189293866082
 31
0.0
  0
LINE
  5
154
330
1F
100
AcDbEntity
  8
0
  6
Continuous
 62
     7
100
AcDbLine
 10
635.3415429830526
 20
396.2189293866065
 30
0.0
 11
633.9756811898117
 21
396.2189293866065
 31
0.0
  0
LINE
  5
155
330
1F
100
AcDbEntity
  8
0
  6
Continuous
 62
     7
100
AcDbLine
 10
633.9756811898117
 20
396.2189293866065
 30
0.0
 11
630.3415429830526
 21
396.2189293866067
 31
0.0
  0
LINE
  5
156
330
1F
100
AcDbEntity
  8
0
  6
Continuous
 62
     7
100
AcDbLine
 10
560.3415429830526
 20
396.2189293866082
 30
0.0
 11
316.2821733655543
 21
396.2189293866134
 31
0.0
  0
LINE
  5
157
330
1F
100
AcDbEntity
  8
0
  6
Continuous
 62
     7
100
AcDbLine
 10
678.3415429830525
 20
393.8020142850038
 30
0.0
 11
678.3415429830516
 21
378.1505652205768
 31
0.0
  0
LINE
  5
158
330
1F
100
AcDbEntity
  8
0
  6
Continuous
 62
     7
100
AcDbLine
 10
678.3415429830536
 20
428.0312098706311
 30
0.0
 11
678.3415429830525
 21
393.8020142850038
 31
0.0
  0
LINE
  5
159
330
1F
100
AcDbEntity
  8
0
  6
Continuous
 62
     7
100
AcDbLine
 10
678.3415429830516
 20
378.1505652205768
 30
0.0
 11
678.3415429830436
 21
-9.98990443161767
 31
0.0
  0
LINE
  5
15A
330
1F
100
AcDbEntity
  8
0
  6
Continuous
 62
     7
100
AcDbLine
 10
678.3415429830536
 20
430.3223884623179
 30
0.0
 11
678.3415429830525
 21
430.1235087382506
 31
0.0
  0
LINE
  5
15B
330
1F
100
AcDbEntity
  8
0
  6
Continuous
 62
     7
100
AcDbLine
 10
678.3415429830536
 20
428.1108445032943
 30
0.0
 11
678.3415429830536
 21
428.0312098706311
 31
0.0
  0
LINE
  5
15C
330
1F
100
AcDbEntity
  8
0
  6
Continuous
 62
     7
100
AcDbLine
 10
678.3415429830525
 20
430.1235087382506
 30
0.0
 11
678.3415429830536
 21
428.1108445032943
 31
0.0
  0
LINE
  5
15D
330
1F
100
AcDbEntity
  8
0
  6
Continuous
 62
     7
100
AcDbLine
 10
678.3415429830525
 20
447.2386433304944
 30
0.0
 11
678.3415429830536
 21
430.3223884623179
 31
0.0
  0
LINE
  5
15E
330
1F
100
AcDbEntity
  8
0
  6
Continuous
 62
     7
100
AcDbLine
 10
635.3415429830521
 20
396.3207292975146
 30
0.0
 11
676.3415429830525
 21
447.2386433304947
 31
0.0
  0
LINE
  5
15F
330
1F
100
AcDbEntity
  8
0
  6
Continuous
 62
     7
100
AcDbLine
 10
658.3415429830436
 20
-9.98990443161779
 30
0.0
 11
678.3415429830436
 21
-9.98990443161767
 31
0.0
  0
LINE
  5
160
330
1F
100
AcDbEntity
  8
0
  6
Continuous
 62
     7
100
AcDbLine
 10
676.3415429830525
 20
447.2386433304947
 30
0.0
 11
678.3415429830525
 21
447.2386433304944
 31
0.0
  0
LINE
  5
161
330
1F
100
AcDbEntity
  8
0
  6
Continuous
 62
     7
100
AcDbLine
 10
678.3415429830525
 20
393.8020142850038
 30
0.0
 11
678.3415429830516
 21
378.1505652205768
 31
0.0
  0
LINE
  5
162
330
1F
100
AcDbEntity
  8
0
  6
Continuous
 62
     7
100
AcDbLine
 10
678.3415429830536
 20
428.0312098706311
 30
0.0
 11
678.3415429830525
 21
393.8020142850038
 31
0.0
  0
LINE
  5
163
330
1F
100
AcDbEntity
  8
0
  6
Continuous
 62
     7
100
AcDbLine
 10
678.3415429830536
 20
430.3223884623179
 30
0.0
 11
678.3415429830525
 21
430.1235087382506
 31
0.0
  0
LINE
  5
164
330
1F
100
AcDbEntity
  8
0
  6
Continuous
 62
     7
100
AcDbLine
 10
678.3415429830536
 20
428.1108445032943
 30
0.0
 11
678.3415429830536
 21
428.0312098706311
 31
0.0
  0
LINE
  5
165
330
1F
100
AcDbEntity
  8
0
  6
Continuous
 62
     7
100
AcDbLine
 10
678.3415429830525
 20
430.1235087382506
 30
0.0
 11
678.3415429830536
 21
428.1108445032943
 31
0.0
  0
LINE
  5
166
330
1F
100
AcDbEntity
  8
0
  6
Continuous
 62
     7
100
AcDbLine
 10
678.3415429830525
 20
447.2386433304944
 30
0.0
 11
678.3415429830536
 21
430.3223884623179
 31
0.0
  0
LINE
  5
167
330
1F
100
AcDbEntity
  8
0
  6
Continuous
 62
     7
100
AcDbLine
 10
635.3415429830525
 20
393.8020142850047
 30
0.0
 11
635.4841197223219
 21
393.8020142850046
 31
0.0
  0
LINE
  5
168
330
1F
100
AcDbEntity
  8
0
  6
Continuous
 62
     7
100
AcDbLine
 10
635.3415429830521
 20
379.1887150043307
 30
0.0
 11
635.3415429830521
 21
378.1505652205777
 31
0.0
  0
LINE
  5
169
330
1F
100
AcDbEntity
  8
0
  6
Continuous
 62
     7
100
AcDbLine
 10
635.3415429830525
 20
393.8020142850047
 30
0.0
 11
635.3415429830526
 21
396.2189293866065
 31
0.0
  0
LINE
  5
16A
330
1F
100
AcDbEntity
  8
0
  6
Continuous
 62
     7
100
AcDbLine
 10
635.3415429830525
 20
392.5363594254368
 30
0.0
 11
635.3415429830525
 21
393.8020142850047
 31
0.0
  0
LINE
  5
16B
330
1F
100
AcDbEntity
  8
0
  6
Continuous
 62
     7
100
AcDbLine
 10
635.3415429830526
 20
396.2189293866065
 30
0.0
 11
635.3415429830521
 21
396.3207292975146
 31
0.0
  0
LINE
  5
16C
330
1F
100
AcDbEntity
  8
0
  6
Continuous
 62
     7
100
AcDbLine
 10
635.3415429830525
 20
389.4592053339379
 30
0.0
 11
635.3415429830525
 21
392.5363594254368
 31
0.0
  0
LINE
  5
16D
330
1F
100
AcDbEntity
  8
0
  6
Continuous
 62
     7
100
AcDbLine
 10
635.3415429830521
 20
379.1887150043307
 30
0.0
 11
635.3415429830525
 21
389.4592053339379
 31
0.0
  0
LINE
  5
16E
330
1F
100
AcDbEntity
  8
0
  6
Continuous
 62
     7
100
AcDbLine
 10
676.3415429830525
 20
447.2386433304947
 30
0.0
 11
678.3415429830525
 21
447.2386433304944
 31
0.0
  0
LINE
  5
16F
330
1F
100
AcDbEntity
  8
0
  6
Continuous
 62
     7
100
AcDbLine
 10
678.3415429830525
 20
393.8020142850038
 30
0.0
 11
678.3415429830516
 21
378.1505652205768
 31
0.0
  0
LINE
  5
170
330
1F
100
AcDbEntity
  8
0
  6
Continuous
 62
     7
100
AcDbLine
 10
678.3415429830536
 20
428.0312098706311
 30
0.0
 11
678.3415429830525
 21
393.8020142850038
 31
0.0
  0
LINE
  5
171
330
1F
100
AcDbEntity
  8
0
  6
Continuous
 62
     7
100
AcDbLine
 10
678.3415429830516
 20
378.1505652205768
 30
0.0
 11
678.3415429830436
 21
-9.98990443161767
 31
0.0
  0
LINE
  5
172
330
1F
100
AcDbEntity
  8
0
  6
Continuous
 62
     7
100
AcDbLine
 10
678.3415429830536
 20
428.1108445032943
 30
0.0
 11
678.3415429830536
 21
428.0312098706311
 31
0.0
  0
LINE
  5
173
330
1F
100
AcDbEntity
  8
0
  6
Continuous
 62
     7
100
AcDbLine
 10
635.3415429830521
 20
377.4650545487524
 30
0.0
 11
635.3415429830518
 21
377.0810226895901
 31
0.0
  0
LINE
  5
174
330
1F
100
AcDbEntity
  8
0
  6
Continuous
 62
     7
100
AcDbLine
 10
635.3415429830521
 20
379.1887150043307
 30
0.0
 11
635.3415429830521
 21
378.1505652205777
 31
0.0
  0
LINE
  5
175
330
1F
100
AcDbEntity
  8
0
  6
Continuous
 62
     7
100
AcDbLine
 10
635.3415429830521
 20
378.1505652205777
 30
0.0
 11
635.3415429830521
 21
377.4650545487524
 31
0.0
  0
LINE
  5
176
330
1F
100
AcDbEntity
  8
0
  6
Continuous
 62
     7
100
AcDbLine
 10
635.3415429830525
 20
393.8020142850047
 30
0.0
 11
635.3415429830526
 21
396.2189293866065
 31
0.0
  0
LINE
  5
177
330
1F
100
AcDbEntity
  8
0
  6
Continuous
 62
     7
100
AcDbLine
 10
635.3415429830525
 20
392.5363594254368
 30
0.0
 11
635.3415429830525
 21
393.8020142850047
 31
0.0
  0
LINE
  5
178
330
1F
100
AcDbEntity
  8
0
  6
Continuous
 62
     7
100
AcDbLine
 10
635.3415429830526
 20
396.2189293866065
 30
0.0
 11
635.3415429830521
 21
396.3207292975146
 31
0.0
  0
LINE
  5
179
330
1F
100
AcDbEntity
  8
0
  6
Continuous
 62
     7
100
AcDbLine
 10
635.3415429830525
 20
389.4592053339379
 30
0.0
 11
635.3415429830525
 21
392.5363594254368
 31
0.0
  0
LINE
  5
17A
330
1F
100
AcDbEntity
  8
0
  6
Continuous
 62
     7
100
AcDbLine
 10
635.3415429830521
 20
379.1887150043307
 30
0.0
 11
635.3415429830525
 21
389.4592053339379
 31
0.0
  0
LINE
  5
17B
330
1F
100
AcDbEntity
  8
0
  6
Continuous
 62
     7
100
AcDbLine
 10
658.3415429830436
 20
-9.98990443161779
 30
0.0
 11
635.3415429830518
 21
377.0810226895901
 31
0.0
  0
LINE
  5
17C
330
1F
100
AcDbEntity
  8
0
  6
Continuous
 62
     7
100
AcDbLine
 10
658.3415429830436
 20
-9.98990443161779
 30
0.0
 11
678.3415429830436
 21
-9.98990443161767
 31
0.0
  0
LINE
  5
17D
330
1F
100
AcDbEntity
  8
0
  6
Continuous
 62
     7
100
AcDbLine
 10
635.3415429830526
 20
396.2189293866065
 30
0.0
 11
635.3415429830521
 21
396.3207292975146
 31
0.0
  0
LINE
  5
17E
330
1F
100
AcDbEntity
  8
0
  6
Continuous
 62
     7
100
AcDbLine
 10
630.3415429830526
 20
396.2189293866067
 30
0.0
 11
560.3415429830526
 21
396.2189293866082
 31
0.0
  0
LINE
  5
17F
330
1F
100
AcDbEntity
  8
0
  6
Continuous
 62
     7
100
AcDbLine
 10
635.3415429830526
 20
396.2189293866065
 30
0.0
 11
633.9756811898117
 21
396.2189293866065
 31
0.0
  0
LINE
  5
180
330
1F
100
AcDbEntity
  8
0
  6
Continuous
 62
     7
100
AcDbLine
 10
633.9756811898117
 20
396.2189293866065
 30
0.0
 11
630.3415429830526
 21
396.2189293866067
 31
0.0
  0
LINE
  5
181
330
1F
100
AcDbEntity
  8
0
  6
Continuous
 62
     7
100
AcDbLine
 10
242.7074047762933
 20
396.2189293866147
 30
0.0
 11
241.3415429830516
 21
396.2189293866148
 31
0.0
  0
LINE
  5
182
330
1F
100
AcDbEntity
  8
0
  6
Continuous
 62
     7
100
AcDbLine
 10
246.2821733655544
 20
396.218929386615
 30
0.0
 11
242.7074047762933
 21
396.2189293866147
 31
0.0
  0
LINE
  5
183
330
1F
100
AcDbEntity
  8
0
  6
Continuous
 62
     7
100
AcDbLine
 10
316.2821733655543
 20
396.2189293866134
 30
0.0
 11
246.2821733655544
 21
396.218929386615
 31
0.0
  0
LINE
  5
184
330
1F
100
AcDbEntity
  8
0
  6
Continuous
 62
     7
100
AcDbLine
 10
-549.5169831155376
 20
377.0810236170125
 30
0.0
 11
-549.5168713928879
 21
377.0830646173402
 31
0.0
  0
LINE
  5
185
330
1F
100
AcDbEntity
  8
0
  6
Continuous
 62
     7
100
AcDbLine
 10
-549.5168713928879
 20
377.0830646173402
 30
0.0
 11
-546.7236534280769
 21
428.1108445032957
 31
0.0
  0
LINE
  5
186
330
1F
100
AcDbEntity
  8
0
  6
Continuous
 62
     7
100
AcDbLine
 10
-570.7049217697061
 20
-9.98990443161802
 30
0.0
 11
-550.704921769706
 21
-9.98990443161756
 31
0.0
  0
LINE
  5
187
330
1F
100
AcDbEntity
  8
0
  6
Continuous
 62
     7
100
AcDbLine
 10
-546.7236534280769
 20
428.1108445032957
 30
0.0
 11
-539.1674120025064
 21
419.4087833362178
 31
0.0
  0
LINE
  5
188
330
1F
100
AcDbEntity
  8
0
  6
Continuous
 62
     7
100
AcDbLine
 10
-570.7049217697061
 20
-9.98990443161802
 30
0.0
 11
-549.5169831155376
 21
377.0810236170125
 31
0.0
  0
LINE
  5
189
330
1F
100
AcDbEntity
  8
0
  6
Continuous
 62
     7
100
AcDbLine
 10
-503.3417551971858
 20
378.1505652205779
 30
0.0
 11
-504.0941550793032
 21
379.0170581537086
 31
0.0
  0
LINE
  5
18A
330
1F
100
AcDbEntity
  8
0
  6
Continuous
 62
     7
100
AcDbLine
 10
-503.4722670221868
 20
377.0810226895901
 30
0.0
 11
-503.3417551971858
 21
378.1505652205779
 31
0.0
  0
LINE
  5
18B
330
1F
100
AcDbEntity
  8
0
  6
Continuous
 62
     7
100
AcDbLine
 10
-539.1674120025064
 20
419.4087833362178
 30
0.0
 11
-539.1672607491149
 21
419.4086091469369
 31
0.0
  0
LINE
  5
18C
330
1F
100
AcDbEntity
  8
0
  6
Continuous
 62
     7
100
AcDbLine
 10
-539.1672607491149
 20
419.4086091469369
 30
0.0
 11
-504.0941550793032
 21
379.0170581537086
 31
0.0
  0
LINE
  5
18D
330
1F
100
AcDbEntity
  8
0
  6
Continuous
 62
     7
100
AcDbLine
 10
-550.704921769706
 20
-9.98990443161756
 30
0.0
 11
-503.4722670221868
 21
377.0810226895901
 31
0.0
  0
LINE
  5
18E
330
1F
100
AcDbEntity
  8
0
  6
Continuous
 62
     7
100
AcDbLine
 10
-549.5169831155376
 20
377.0810236170125
 30
0.0
 11
-549.5168713928879
 21
377.0830646173402
 31
0.0
  0
LINE
  5
18F
330
1F
100
AcDbEntity
  8
0
  6
Continuous
 62
     7
100
AcDbLine
 10
-549.5168713928879
 20
377.0830646173402
 30
0.0
 11
-546.7236534280769
 21
428.1108445032957
 31
0.0
  0
LINE
  5
190
330
1F
100
AcDbEntity
  8
0
  6
Continuous
 62
     7
100
AcDbLine
 10
-570.7049217697061
 20
-9.98990443161802
 30
0.0
 11
-550.704921769706
 21
-9.98990443161756
 31
0.0
  0
LINE
  5
191
330
1F
100
AcDbEntity
  8
0
  6
Continuous
 62
     7
100
AcDbLine
 10
-546.7236534280769
 20
428.1108445032957
 30
0.0
 11
-539.1674120025064
 21
419.4087833362178
 31
0.0
  0
LINE
  5
192
330
1F
100
AcDbEntity
  8
0
  6
Continuous
 62
     7
100
AcDbLine
 10
-570.7049217697061
 20
-9.98990443161802
 30
0.0
 11
-549.5169831155376
 21
377.0810236170125
 31
0.0
  0
LINE
  5
193
330
1F
100
AcDbEntity
  8
0
  6
Continuous
 62
     7
100
AcDbLine
 10
-503.3417551971858
 20
378.1505652205779
 30
0.0
 11
-504.0941550793032
 21
379.0170581537086
 31
0.0
  0
LINE
  5
194
330
1F
100
AcDbEntity
  8
0
  6
Continuous
 62
     7
100
AcDbLine
 10
-503.4722670221868
 20
377.0810226895901
 30
0.0
 11
-503.3417551971858
 21
378.1505652205779
 31
0.0
  0
LINE
  5
195
330
1F
100
AcDbEntity
  8
0
  6
Continuous
 62
     7
100
AcDbLine
 10
-539.1674120025064
 20
419.4087833362178
 30
0.0
 11
-539.1672607491149
 21
419.4086091469369
 31
0.0
  0
LINE
  5
196
330
1F
100
AcDbEntity
  8
0
  6
Continuous
 62
     7
100
AcDbLine
 10
-539.1672607491149
 20
419.4086091469369
 30
0.0
 11
-504.0941550793032
 21
379.0170581537086
 31
0.0
  0
LINE
  5
197
330
1F
100
AcDbEntity
  8
0
  6
Continuous
 62
     7
100
AcDbLine
 10
-550.704921769706
 20
-9.98990443161756
 30
0.0
 11
-503.4722670221868
 21
377.0810226895901
 31
0.0
  0
LINE
  5
198
330
1F
100
AcDbEntity
  8
0
  6
Continuous
 62
     7
100
AcDbLine
 10
-546.7236534280769
 20
428.1108445032957
 30
0.0
 11
-539.1674120025064
 21
419.4087833362178
 31
0.0
  0
LINE
  5
199
330
1F
100
AcDbEntity
  8
0
  6
Continuous
 62
     7
100
AcDbLine
 10
-503.3417551971858
 20
378.1505652205779
 30
0.0
 11
-504.0941550793032
 21
379.0170581537086
 31
0.0
  0
LINE
  5
19A
330
1F
100
AcDbEntity
  8
0
  6
Continuous
 62
     7
100
AcDbLine
 10
-105.4209497911045
 20
393.8020142850034
 30
0.0
 11
-503.3417551971858
 21
378.1505652205779
 31
0.0
  0
LINE
  5
19B
330
1F
100
AcDbEntity
  8
0
  6
Continuous
 62
     7
100
AcDbLine
 10
-103.2998706131896
 20
396.3207292975146
 30
0.0
 11
-103.3855991177051
 21
396.2189293866148
 31
0.0
  0
LINE
  5
19C
330
1F
100
AcDbEntity
  8
0
  6
Continuous
 62
     7
100
AcDbLine
 10
-105.4209497911045
 20
393.8020142850034
 30
0.0
 11
-103.3855991177051
 21
396.2189293866148
 31
0.0
  0
LINE
  5
19D
330
1F
100
AcDbEntity
  8
0
  6
Continuous
 62
     7
100
AcDbLine
 10
-78.12177410322585
 20
426.2189293866148
 30
0.0
 11
-103.2998706131896
 21
396.3207292975146
 31
0.0
  0
LINE
  5
19E
330
1F
100
AcDbEntity
  8
0
  6
Continuous
 62
     7
100
AcDbLine
 10
-539.1674120025064
 20
419.4087833362178
 30
0.0
 11
-539.1672607491149
 21
419.4086091469369
 31
0.0
  0
LINE
  5
19F
330
1F
100
AcDbEntity
  8
0
  6
Continuous
 62
     7
100
AcDbLine
 10
-539.1672607491149
 20
419.4086091469369
 30
0.0
 11
-504.0941550793032
 21
379.0170581537086
 31
0.0
  0
LINE
  5
1A0
330
1F
100
AcDbEntity
  8
0
  6
Continuous
 62
     7
100
AcDbLine
 10
-68.25881279630261
 20
437.930886662988
 30
0.0
 11
-78.12177410322585
 21
426.2189293866148
 31
0.0
  0
LINE
  5
1A1
330
1F
100
AcDbEntity
  8
0
  6
Continuous
 62
     7
100
AcDbLine
 10
-544.7943413892406
 20
428.1867302594001
 30
0.0
 11
-546.7236534280769
 21
428.1108445032957
 31
0.0
  0
LINE
  5
1A2
330
1F
100
AcDbEntity
  8
0
  6
Continuous
 62
     7
100
AcDbLine
 10
-490.4975909246895
 20
430.3223884623266
 30
0.0
 11
-490.5069100865385
 21
430.3220219110529
 31
0.0
  0
LINE
  5
1A3
330
1F
100
AcDbEntity
  8
0
  6
Continuous
 62
     7
100
AcDbLine
 10
-490.5069100865385
 20
430.3220219110529
 30
0.0
 11
-544.7943413892406
 21
428.1867302594001
 31
0.0
  0
LINE
  5
1A4
330
1F
100
AcDbEntity
  8
0
  6
Continuous
 62
     7
100
AcDbLine
 10
-68.25881279630261
 20
437.930886662988
 30
0.0
 11
-60.42049493879222
 21
447.2386433304946
 31
0.0
  0
LINE
  5
1A5
330
1F
100
AcDbEntity
  8
0
  6
Continuous
 62
     7
100
AcDbLine
 10
-185.7340821117531
 20
442.3096745505972
 30
0.0
 11
-490.4975909246895
 21
430.3223884623266
 31
0.0
  0
LINE
  5
1A6
330
1F
100
AcDbEntity
  8
0
  6
Continuous
 62
     7
100
AcDbLine
 10
-60.42049493879222
 20
447.2386433304946
 30
0.0
 11
-169.0681407837477
 21
442.9651972783929
 31
0.0
  0
LINE
  5
1A7
330
1F
100
AcDbEntity
  8
0
  6
Continuous
 62
     7
100
AcDbLine
 10
-546.7236534280769
 20
428.1108445032957
 30
0.0
 11
-539.1674120025064
 21
419.4087833362178
 31
0.0
  0
LINE
  5
1A8
330
1F
100
AcDbEntity
  8
0
  6
Continuous
 62
     7
100
AcDbLine
 10
-503.3417551971858
 20
378.1505652205779
 30
0.0
 11
-504.0941550793032
 21
379.0170581537086
 31
0.0
  0
LINE
  5
1A9
330
1F
100
AcDbEntity
  8
0
  6
Continuous
 62
     7
100
AcDbLine
 10
-105.4209497911045
 20
393.8020142850034
 30
0.0
 11
-503.3417551971858
 21
378.1505652205779
 31
0.0
  0
LINE
  5
1AA
330
1F
100
AcDbEntity
  8
0
  6
Continuous
 62
     7
100
AcDbLine
 10
-103.2998706131896
 20
396.3207292975146
 30
0.0
 11
-103.3855991177051
 21
396.2189293866148
 31
0.0
  0
LINE
  5
1AB
330
1F
100
AcDbEntity
  8
0
  6
Continuous
 62
     7
100
AcDbLine
 10
-105.4209497911045
 20
393.8020142850034
 30
0.0
 11
-103.3855991177051
 21
396.2189293866148
 31
0.0
  0
LINE
  5
1AC
330
1F
100
AcDbEntity
  8
0
  6
Continuous
 62
     7
100
AcDbLine
 10
-78.12177410322585
 20
426.2189293866148
 30
0.0
 11
-103.2998706131896
 21
396.3207292975146
 31
0.0
  0
LINE
  5
1AD
330
1F
100
AcDbEntity
  8
0
  6
Continuous
 62
     7
100
AcDbLine
 10
-539.1674120025064
 20
419.4087833362178
 30
0.0
 11
-539.1672607491149
 21
419.4086091469369
 31
0.0
  0
LINE
  5
1AE
330
1F
100
AcDbEntity
  8
0
  6
Continuous
 62
     7
100
AcDbLine
 10
-539.1672607491149
 20
419.4086091469369
 30
0.0
 11
-504.0941550793032
 21
379.0170581537086
 31
0.0
  0
LINE
  5
1AF
330
1F
100
AcDbEntity
  8
0
  6
Continuous
 62
     7
100
AcDbLine
 10
-68.25881279630261
 20
437.930886662988
 30
0.0
 11
-78.12177410322585
 21
426.2189293866148
 31
0.0
  0
LINE
  5
1B0
330
1F
100
AcDbEntity
  8
0
  6
Continuous
 62
     7
100
AcDbLine
 10
-544.7943413892406
 20
428.1867302594001
 30
0.0
 11
-546.7236534280769
 21
428.1108445032957
 31
0.0
  0
LINE
  5
1B1
330
1F
100
AcDbEntity
  8
0
  6
Continuous
 62
     7
100
AcDbLine
 10
-490.4975909246895
 20
430.3223884623266
 30
0.0
 11
-490.5069100865385
 21
430.3220219110529
 31
0.0
  0
LINE
  5
1B2
330
1F
100
AcDbEntity
  8
0
  6
Continuous
 62
     7
100
AcDbLine
 10
-490.5069100865385
 20
430.3220219110529
 30
0.0
 11
-544.7943413892406
 21
428.1867302594001
 31
0.0
  0
LINE
  5
1B3
330
1F
100
AcDbEntity
  8
0
  6
Continuous
 62
     7
100
AcDbLine
 10
-68.25881279630261
 20
437.930886662988
 30
0.0
 11
-60.42049493879222
 21
447.2386433304946
 31
0.0
  0
LINE
  5
1B4
330
1F
100
AcDbEntity
  8
0
  6
Continuous
 62
     7
100
AcDbLine
 10
-185.7340821117531
 20
442.3096745505972
 30
0.0
 11
-490.4975909246895
 21
430.3223884623266
 31
0.0
  0
LINE
  5
1B5
330
1F
100
AcDbEntity
  8
0
  6
Continuous
 62
     7
100
AcDbLine
 10
-60.42049493879222
 20
447.2386433304946
 30
0.0
 11
-169.0681407837477
 21
442.9651972783929
 31
0.0
  0
LINE
  5
1B6
330
1F
100
AcDbEntity
  8
0
  6
Continuous
 62
     7
100
AcDbLine
 10
-103.2998706131896
 20
396.3207292975146
 30
0.0
 11
-103.3855991177051
 21
396.2189293866148
 31
0.0
  0
LINE
  5
1B7
330
1F
100
AcDbEntity
  8
0
  6
Continuous
 62
     7
100
AcDbLine
 10
-105.4209497911045
 20
393.8020142850034
 30
0.0
 11
-103.3855991177051
 21
396.2189293866148
 31
0.0
  0
LINE
  5
1B8
330
1F
100
AcDbEntity
  8
0
  6
Continuous
 62
     7
100
AcDbLine
 10
-78.12177410322585
 20
426.2189293866148
 30
0.0
 11
-103.2998706131896
 21
396.3207292975146
 31
0.0
  0
LINE
  5
1B9
330
1F
100
AcDbEntity
  8
0
  6
Continuous
 62
     7
100
AcDbLine
 10
-105.4209497911045
 20
393.8020142850034
 30
0.0
 11
-80.42049493879262
 21
-9.98990443161779
 31
0.0
  0
LINE
  5
1BA
330
1F
100
AcDbEntity
  8
0
  6
Continuous
 62
     7
100
AcDbLine
 10
-60.42049493878903
 20
396.3207292975147
 30
0.0
 11
-60.42049493879222
 21
-9.9899044316179
 31
0.0
  0
LINE
  5
1BB
330
1F
100
AcDbEntity
  8
0
  6
Continuous
 62
     7
100
AcDbLine
 10
-68.25881279630261
 20
437.930886662988
 30
0.0
 11
-78.12177410322585
 21
426.2189293866148
 31
0.0
  0
LINE
  5
1BC
330
1F
100
AcDbEntity
  8
0
  6
Continuous
 62
     7
100
AcDbLine
 10
-68.25881279630261
 20
437.930886662988
 30
0.0
 11
-60.42049493879222
 21
447.2386433304946
 31
0.0
  0
LINE
  5
1BD
330
1F
100
AcDbEntity
  8
0
  6
Continuous
 62
     7
100
AcDbLine
 10
-80.42049493879262
 20
-9.98990443161779
 30
0.0
 11
-60.42049493879222
 21
-9.9899044316179
 31
0.0
  0
LINE
  5
1BE
330
1F
100
AcDbEntity
  8
0
  6
Continuous
 62
     7
100
AcDbLine
 10
-60.42049493878903
 20
396.3207292975147
 30
0.0
 11
-60.42049493879222
 21
447.2386433304946
 31
0.0
  0
LINE
  5
1BF
330
1F
100
AcDbEntity
  8
0
  6
Continuous
 62
     7
100
AcDbLine
 10
-103.2998706131896
 20
396.3207292975146
 30
0.0
 11
-103.3855991177051
 21
396.2189293866148
 31
0.0
  0
LINE
  5
1C0
330
1F
100
AcDbEntity
  8
0
  6
Continuous
 62
     7
100
AcDbLine
 10
-105.4209497911045
 20
393.8020142850034
 30
0.0
 11
-103.3855991177051
 21
396.2189293866148
 31
0.0
  0
LINE
  5
1C1
330
1F
100
AcDbEntity
  8
0
  6
Continuous
 62
     7
100
AcDbLine
 10
-78.12177410322585
 20
426.2189293866148
 30
0.0
 11
-103.2998706131896
 21
396.3207292975146
 31
0.0
  0
LINE
  5
1C2
330
1F
100
AcDbEntity
  8
0
  6
Continuous
 62
     7
100
AcDbLine
 10
-105.4209497911045
 20
393.8020142850034
 30
0.0
 11
-80.42049493879262
 21
-9.98990443161779
 31
0.0
  0
LINE
  5
1C3
330
1F
100
AcDbEntity
  8
0
  6
Continuous
 62
     7
100
AcDbLine
 10
-60.42049493878903
 20
396.3207292975147
 30
0.0
 11
-60.42049493879222
 21
-9.9899044316179
 31
0.0
  0
LINE
  5
1C4
330
1F
100
AcDbEntity
  8
0
  6
Continuous
 62
     7
100
AcDbLine
 10
-68.25881279630261
 20
437.930886662988
 30
0.0
 11
-78.12177410322585
 21
426.2189293866148
 31
0.0
  0
LINE
  5
1C5
330
1F
100
AcDbEntity
  8
0
  6
Continuous
 62
     7
100
AcDbLine
 10
-68.25881279630261
 20
437.930886662988
 30
0.0
 11
-60.42049493879222
 21
447.2386433304946
 31
0.0
  0
LINE
  5
1C6
330
1F
100
AcDbEntity
  8
0
  6
Continuous
 62
     7
100
AcDbLine
 10
-80.42049493879262
 20
-9.98990443161779
 30
0.0
 11
-60.42049493879222
 21
-9.9899044316179
 31
0.0
  0
LINE
  5
1C7
330
1F
100
AcDbEntity
  8
0
  6
Continuous
 62
     7
100
AcDbLine
 10
-60.42049493878903
 20
396.3207292975147
 30
0.0
 11
-60.42049493879222
 21
447.2386433304946
 31
0.0
  0
LINE
  5
1C8
330
1F
100
AcDbEntity
  8
0
  6
Continuous
 62
     7
100
AcDbLine
 10
-214.371840913728
 20
628.564580315749
 30
0.0
 11
-535.837770861058
 21
625.3341383229969
 31
0.0
  0
LINE
  5
1C9
330
1F
100
AcDbEntity
  8
0
  6
Continuous
 62
     7
100
AcDbLine
 10
-535.4804860157309
 20
607.1627051427954
 30
0.0
 11
-214.5196524845541
 21
616.559902816504
 31
0.0
  0
LINE
  5
1CA
330
1F
100
AcDbEntity
  8
0
  6
Continuous
 62
     7
100
AcDbLine
 10
-184.1451941569045
 20
400.5590021697334
 30
0.0
 11
-168.1720214306255
 21
401.1872761778433
 31
0.0
  0
LINE
  5
1CB
330
1F
100
AcDbEntity
  8
0
  6
Continuous
 62
     7
100
AcDbLine
 10
-214.371840913728
 20
628.564580315749
 30
0.0
 11
-535.837770861058
 21
625.3341383229969
 31
0.0
  0
LINE
  5
1CC
330
1F
100
AcDbEntity
  8
0
  6
Continuous
 62
     7
100
AcDbLine
 10
-535.4804860157309
 20
607.1627051427954
 30
0.0
 11
-214.5196524845541
 21
616.559902816504
 31
0.0
  0
LINE
  5
1CD
330
1F
100
AcDbEntity
  8
0
  6
Continuous
 62
     7
100
AcDbLine
 10
-184.1451941569045
 20
400.5590021697334
 30
0.0
 11
-168.1720214306255
 21
401.1872761778433
 31
0.0
  0
LINE
  5
1CE
330
1F
100
AcDbEntity
  8
0
  6
Continuous
 62
     7
100
AcDbLine
 10
-450.6085328689721
 20
378.4871198052088
 30
0.0
 11
-450.6085251827738
 21
378.4871183562386
 31
0.0
  0
LINE
  5
1CF
330
1F
100
AcDbEntity
  8
0
  6
Continuous
 62
     3
100
AcDbLine
 10
-450.6085251827738
 20
378.4871183562386
 30
0.0
 11
-453.6817375726445
 21
380.1038464409347
 31
0.0
  0
LINE
  5
1D0
330
1F
100
AcDbEntity
  8
0
  6
Continuous
 62
     7
100
AcDbLine
 10
-450.6085328689721
 20
378.4871198052088
 30
0.0
 11
-453.6817421615808
 21
380.1038462604377
 31
0.0
  0
LINE
  5
1D1
330
1F
100
AcDbEntity
  8
0
  6
Continuous
 62
     7
100
AcDbLine
 10
-450.2362084415167
 20
378.5279619235676
 30
0.0
 11
-450.2362007553185
 21
378.5279604745973
 31
0.0
  0
LINE
  5
1D2
330
1F
100
AcDbEntity
  8
0
  6
Continuous
 62
     3
100
AcDbLine
 10
-450.2362007553185
 20
378.5279604745973
 30
0.0
 11
-453.2630791123409
 21
380.120313565744
 31
0.0
  0
LINE
  5
1D3
330
1F
100
AcDbEntity
  8
0
  6
Continuous
 62
     7
100
AcDbLine
 10
-450.2362084415167
 20
378.5279619235676
 30
0.0
 11
-453.2630837012771
 21
380.1203133852471
 31
0.0
  0
LINE
  5
1D4
330
1F
100
AcDbEntity
  8
0
  6
Continuous
 62
     7
100
AcDbLine
 10
-450.1650261075993
 20
378.6093541043157
 30
0.0
 11
-450.1650184214009
 21
378.6093526553455
 31
0.0
  0
LINE
  5
1D5
330
1F
100
AcDbEntity
  8
0
  6
Continuous
 62
     3
100
AcDbLine
 10
-450.1650184214009
 20
378.6093526553455
 30
0.0
 11
-453.0528946799522
 21
380.1285807658828
 31
0.0
  0
LINE
  5
1D6
330
1F
100
AcDbEntity
  8
0
  6
Continuous
 62
     7
100
AcDbLine
 10
-450.1650261075993
 20
378.6093541043157
 30
0.0
 11
-453.0528992688883
 21
380.1285805853858
 31
0.0
  0
LINE
  5
1D7
330
1F
100
AcDbEntity
  8
0
  6
Continuous
 62
     3
100
AcDbLine
 10
-450.018530822749
 20
378.6151144631559
 30
0.0
 11
-452.9064070812306
 21
380.1343425736566
 31
0.0
  0
LINE
  5
1D8
330
1F
100
AcDbEntity
  8
0
  6
Continuous
 62
     7
100
AcDbLine
 10
-450.0185385089472
 20
378.6151159121262
 30
0.0
 11
-450.018530822749
 21
378.6151144631559
 31
0.0
  0
LINE
  5
1D9
330
1F
100
AcDbEntity
  8
0
  6
Continuous
 62
     7
100
AcDbLine
 10
-450.0185385089472
 20
378.6151159121262
 30
0.0
 11
-452.9064116701667
 21
380.1343423931597
 31
0.0
  0
LINE
  5
1DA
330
1F
100
AcDbEntity
  8
0
  6
Continuous
 62
     7
100
AcDbLine
 10
-449.8919369251443
 20
378.6200955417547
 30
0.0
 11
-449.8919292389459
 21
378.6200940928718
 31
0.0
  0
LINE
  5
1DB
330
1F
100
AcDbEntity
  8
0
  6
Continuous
 62
     7
100
AcDbLine
 10
-449.8919369251443
 20
378.6200955417547
 30
0.0
 11
-449.9879457610613
 21
378.6706030113685
 31
0.0
  0
LINE
  5
1DC
330
1F
100
AcDbEntity
  8
0
  6
Continuous
 62
     3
100
AcDbLine
 10
-449.8919292389459
 20
378.6200940928718
 30
0.0
 11
-449.9879446721446
 21
378.6706050331243
 31
0.0
  0
ARC
  5
1DD
330
1F
100
AcDbEntity
  8
0
  6
Continuous
 62
     7
100
AcDbCircle
 10
949.5459861331874
 20
1262.010517134106
 30
0.0
 40
1612.345831251806
100
AcDbArc
 50
-171.2871354580593
 51
-165.8609566923959
  0
ARC
  5
1DE
330
1F
100
AcDbEntity
  8
0
  6
Continuous
 62
     7
100
AcDbCircle
 10
-1147.293270125649
 20
733.8016313284435
 30
0.0
 40
549.9999999306551
100
AcDbArc
 50
10.6947581299759
 51
14.13904330811959
  0
ARC
  5
1DF
330
1F
100
AcDbEntity
  8
0
  6
Continuous
 62
     7
100
AcDbCircle
 10
-896.8834557317059
 20
485.6016520562473
 30
0.0
 40
349.9999968436132
100
AcDbArc
 50
-2.08597805782483
 51
10.6947581859143
  0
ARC
  5
1E0
330
1F
100
AcDbEntity
  8
0
  6
Continuous
 62
     7
100
AcDbCircle
 10
-191.0993368556415
 20
-1792.587448555094
 30
0.0
 40
2247.96699966949
100
AcDbArc
 50
92.27196879783266
 51
97.65690144335923
  0
ARC
  5
1E1
330
1F
100
AcDbEntity
  8
0
  6
Continuous
 62
     7
100
AcDbCircle
 10
-191.0993368555562
 20
-1792.587448555097
 30
0.0
 40
2247.96699966949
100
AcDbArc
 50
86.64187100630961
 51
89.46152715928535
  0
ARC
  5
1E2
330
1F
100
AcDbEntity
  8
0
  6
Continuous
 62
     7
100
AcDbCircle
 10
-191.0993368556806
 20
-1792.587448555094
 30
0.0
 40
2247.966999669488
100
AcDbArc
 50
89.87122755396649
 51
92.27196879783166
  0
ARC
  5
1E3
330
1F
100
AcDbEntity
  8
0
  6
Continuous
 62
     7
100
AcDbCircle
 10
-214.1099314170145
 20
602.5658995062709
 30
0.0
 40
14.00000000000001
100
AcDbArc
 50
9.19115871408243
 51
91.67704573459615
  0
ARC
  5
1E4
330
1F
100
AcDbEntity
  8
0
  6
Continuous
 62
     7
100
AcDbCircle
 10
-214.1105776089846
 20
602.5658930126256
 30
0.0
 40
25.99999999999999
100
AcDbArc
 50
9.50465722280078
 51
90.57575140897343
  0
ARC
  5
1E5
330
1F
100
AcDbEntity
  8
0
  6
Continuous
 62
     7
100
AcDbCircle
 10
-1882.181187420311
 20
323.2872189769504
 30
0.0
 40
1717.288306909102
100
AcDbArc
 50
4.40817724376448
 51
9.50465722280042
  0
ARC
  5
1E6
330
1F
100
AcDbEntity
  8
0
  6
Continuous
 62
     7
100
AcDbCircle
 10
-1334.153875358751
 20
421.3357279525438
 30
0.0
 40
1148.611304122233
100
AcDbArc
 50
1.69816163014118
 51
9.19115871408182
  0
ARC
  5
1E7
330
1F
100
AcDbEntity
  8
0
  6
Continuous
 62
     7
100
AcDbCircle
 10
-535.7464503693175
 20
616.2467048180952
 30
0.0
 40
9.087892337512677
100
AcDbArc
 50
90.57575140897387
 51
-88.32295426540311
  0
ARC
  5
1E8
330
1F
100
AcDbEntity
  8
0
  6
Continuous
 62
     7
100
AcDbCircle
 10
-1882.18118742031
 20
323.2872189769357
 30
0.0
 40
1717.288306909101
100
AcDbArc
 50
2.6523359239232
 51
3.99618726747245
  0
ARC
  5
1E9
330
1F
100
AcDbEntity
  8
0
  6
Continuous
 62
     7
100
AcDbCircle
 10
-1334.153875358751
 20
421.3357279525312
 30
0.0
 40
1148.611304122233
100
AcDbArc
 50
-0.96042283768403
 51
1.04629425853151
  0
LINE
  5
1EA
330
1F
100
AcDbEntity
  8
0
  6
Continuous
 62
     7
100
AcDbLine
 10
-185.7340821117531
 20
442.3096745505972
 30
0.0
 11
-185.7342191572522
 21
442.3171770780579
 31
0.0
  0
LINE
  5
1EB
330
1F
100
AcDbEntity
  8
0
  6
Continuous
 62
     7
100
AcDbLine
 10
-169.0681407837477
 20
442.9651972783929
 30
0.0
 11
-169.0686638655708
 21
442.9726846218575
 31
0.0
  0
ARC
  5
1EC
330
1F
100
AcDbEntity
  8
0
  6
Continuous
 62
     7
100
AcDbCircle
 10
-168.2309754578163
 20
402.6861172043294
 30
0.0
 40
1.499999999999977
100
AcDbArc
 50
-87.74754188804837
 51
2.6523359239343
  0
ARC
  5
1ED
330
1F
100
AcDbEntity
  8
0
  6
Continuous
 62
     7
100
AcDbCircle
 10
-184.2041481840954
 20
402.0578431962196
 30
0.0
 40
1.499999999999947
100
AcDbArc
 50
179.0395771623138
 51
-87.7475418880442
  0
ARC
  5
1EE
330
1F
100
AcDbEntity
  8
0
  6
Continuous
 62
     7
100
AcDbCircle
 10
-214.1099314170145
 20
602.5658995062709
 30
0.0
 40
14.00000000000001
100
AcDbArc
 50
9.19115871408243
 51
91.67704573459615
  0
ARC
  5
1EF
330
1F
100
AcDbEntity
  8
0
  6
Continuous
 62
     7
100
AcDbCircle
 10
-214.1105776089846
 20
602.5658930126256
 30
0.0
 40
25.99999999999999
100
AcDbArc
 50
9.50465722280078
 51
90.57575140897343
  0
ARC
  5
1F0
330
1F
100
AcDbEntity
  8
0
  6
Continuous
 62
     7
100
AcDbCircle
 10
-1882.181187420311
 20
323.2872189769504
 30
0.0
 40
1717.288306909102
100
AcDbArc
 50
4.40817724376448
 51
9.50465722280042
  0
ARC
  5
1F1
330
1F
100
AcDbEntity
  8
0
  6
Continuous
 62
     7
100
AcDbCircle
 10
-1334.153875358751
 20
421.3357279525438
 30
0.0
 40
1148.611304122233
100
AcDbArc
 50
1.69816163014118
 51
9.19115871408182
  0
ARC
  5
1F2
330
1F
100
AcDbEntity
  8
0
  6
Continuous
 62
     7
100
AcDbCircle
 10
-535.7464503693175
 20
616.2467048180952
 30
0.0
 40
9.087892337512677
100
AcDbArc
 50
90.57575140897387
 51
-88.32295426540311
  0
ARC
  5
1F3
330
1F
100
AcDbEntity
  8
0
  6
Continuous
 62
     7
100
AcDbCircle
 10
-1882.18118742031
 20
323.2872189769357
 30
0.0
 40
1717.288306909101
100
AcDbArc
 50
2.6523359239232
 51
3.99618726747245
  0
ARC
  5
1F4
330
1F
100
AcDbEntity
  8
0
  6
Continuous
 62
     7
100
AcDbCircle
 10
-1334.153875358751
 20
421.3357279525312
 30
0.0
 40
1148.611304122233
100
AcDbArc
 50
-0.96042283768403
 51
1.04629425853151
  0
ARC
  5
1F5
330
1F
100
AcDbEntity
  8
0
  6
Continuous
 62
     7
100
AcDbCircle
 10
-1334.153875358752
 20
421.3357279525571
 30
0.0
 40
1148.611304122233
100
AcDbArc
 50
1.04666856693848
 51
1.69816163014052
  0
ARC
  5
1F6
330
1F
100
AcDbEntity
  8
0
  6
Continuous
 62
     7
100
AcDbCircle
 10
-1882.181187420311
 20
323.2872189769457
 30
0.0
 40
1717.288306909102
100
AcDbArc
 50
3.99643768483168
 51
4.40817724376464
  0
LINE
  5
1F7
330
1F
100
AcDbEntity
  8
0
  6
Continuous
 62
     7
100
AcDbLine
 10
-185.7340821117531
 20
442.3096745505972
 30
0.0
 11
-185.7342191572522
 21
442.3171770780579
 31
0.0
  0
LINE
  5
1F8
330
1F
100
AcDbEntity
  8
0
  6
Continuous
 62
     7
100
AcDbLine
 10
-169.0681407837477
 20
442.9651972783929
 30
0.0
 11
-169.0686638655708
 21
442.9726846218575
 31
0.0
  0
ARC
  5
1F9
330
1F
100
AcDbEntity
  8
0
  6
Continuous
 62
     7
100
AcDbCircle
 10
-168.2309754578163
 20
402.6861172043294
 30
0.0
 40
1.499999999999977
100
AcDbArc
 50
-87.74754188804837
 51
2.6523359239343
  0
ARC
  5
1FA
330
1F
100
AcDbEntity
  8
0
  6
Continuous
 62
     7
100
AcDbCircle
 10
-184.2041481840954
 20
402.0578431962196
 30
0.0
 40
1.499999999999947
100
AcDbArc
 50
179.0395771623138
 51
-87.7475418880442
  0
CIRCLE
  5
1FB
330
1F
100
AcDbEntity
  8
0
  6
Continuous
 62
     7
100
AcDbCircle
 10
-526.5642934386309
 20
616.4272432132669
 30
0.0
 40
6.00000000000307
  0
CIRCLE
  5
1FC
330
1F
100
AcDbEntity
  8
0
  6
Continuous
 62
     7
100
AcDbCircle
 10
-177.011071153031
 20
422.6698275619624
 30
0.0
 40
6.0
  0
SPLINE
  5
1FD
330
1F
100
AcDbEntity
  8
0
  6
Continuous
 62
     7
100
AcDbSpline
210
0.0
220
0.0
230
1.0
 70
     8
 71
     3
 72
    11
 73
     7
 74
     5
 42
0.0000000001
 43
0.0000000001
 44
0.00000001
 40
0.0
 40
0.0
 40
0.0
 40
0.0
 40
10.03362835900551
 40
20.06872101178486
 40
31.13548636471301
 40
42.20321497664045
 40
42.20321497664045
 40
42.20321497664045
 40
42.20321497664045
 10
198.3469506080455
 20
625.0442764265794
 30
0.0
 10
198.3876420144218
 20
628.3887652156047
 30
0.0
 10
198.4690307656218
 20
635.0782308836999
 30
0.0
 10
198.922515646376
 20
645.4481136549919
 30
0.0
 10
199.6274003029016
 20
656.1498716105954
 30
0.0
 10
200.3669217602308
 20
663.4913797755485
 30
0.0
 10
200.7366985803114
 20
667.1622936035745
 30
0.0
 11
198.3469506080455
 21
625.0442764265794
 31
0.0
 11
198.5217446151558
 21
635.0763821428145
 31
0.0
 11
198.942549339542
 21
645.1026480446246
 31
0.0
 11
199.6910039009551
 21
656.1440750876418
 31
0.0
 11
200.7366985803114
 21
667.1622936035745
 31
0.0
  0
SPLINE
  5
1FE
330
1F
100
AcDbEntity
  8
0
  6
Continuous
 62
     7
100
AcDbSpline
210
0.0
220
0.0
230
1.0
 70
     8
 71
     3
 72
   180
 73
   176
 74
   174
 42
0.0000000001
 43
0.0000000001
 44
0.00000001
 40
0.0
 40
0.0
 40
0.0
 40
0.0
 40
0.0023661328085656
 40
0.0051069233928811
 40
0.0096526411955633
 40
0.0158759261295261
 40
0.0216811279777814
 40
0.0300304494560231
 40
0.0414788988020368
 40
0.056584588101493
 40
0.0751816062234579
 40
0.0971525472096114
 40
0.1227396702942271
 40
0.1394677826594686
 40
0.1600746921740929
 40
0.1849665931645533
 40
0.2145500289836275
 40
0.2214520779748134
 40
0.2334999526911962
 40
0.2500177441694576
 40
0.2703296246448707
 40
0.3015806335991388
 40
0.333181107793604
 40
0.378672404880085
 40
0.4278805242193494
 40
0.4808650400814017
 40
0.515834631780232
 40
0.549288288861649
 40
0.5806370885906828
 40
0.6092920792917305
 40
0.634664287146621
 40
0.6561647211893068
 40
0.6762034998445008
 40
0.7018141382224423
 40
0.7328520926683189
 40
0.7691728324537575
 40
0.8106318406591804
 40
0.8570846149820234
 40
1.004580889749585
 40
1.153831185905361
 40
1.210011647332142
 40
1.264690035893245
 40
1.317025905178211
 40
1.402473871526943
 40
1.490640402041961
 40
1.560958623576449
 40
1.628948029735635
 40
1.694174494086314
 40
1.756203882063295
 40
1.814602052179269
 40
1.868934857035452
 40
1.895379859846467
 40
1.927182070381938
 40
1.964185851538847
 40
2.006235567539493
 40
2.053175584037581
 40
2.104850268216878
 40
2.161103988888095
 40
2.22178111659066
 40
2.286726023698938
 40
2.328167636698454
 40
2.375118401872624
 40
2.427496649093372
 40
2.485220709787678
 40
2.548208917017019
 40
2.616379605545458
 40
2.689651111901514
 40
2.767941774438474
 40
2.851169933395127
 40
2.939253930953811
 40
3.032112111304315
 40
3.129662820703939
 40
3.231824407544558
 40
3.296767391198653
 40
3.359211826847638
 40
3.418849900851257
 40
3.475373798774703
 40
3.528475705485147
 40
3.57784780523144
 40
3.623182281715414
 40
3.664171318153461
 40
3.700507097329599
 40
3.731881801646837
 40
3.757987613173787
 40
3.940238605917134
 40
4.127727000454772
 40
4.320311850549405
 40
4.418799172186269
 40
4.515611654556575
 40
4.610473582947854
 40
4.70310924163249
 40
4.793242913980732
 40
4.880598882553205
 40
4.964901429186841
 40
5.045874835065789
 40
5.12324338078764
 40
5.196731346418048
 40
5.266063011542613
 40
5.330962655311589
 40
5.391154556478935
 40
5.446362993440648
 40
5.496312244269433
 40
5.540726586747667
 40
5.643845639398894
 40
5.745088697341732
 40
5.844205475854295
 40
5.940945689641448
 40
6.035059052889229
 40
6.126295279317293
 40
6.214404082220371
 40
6.299135174509234
 40
6.380238268745479
 40
6.457463077170038
 40
6.530559311734867
 40
6.59927668412422
 40
6.663364905778952
 40
6.72257368791722
 40
6.776652741553429
 40
6.825351777517
 40
6.868420506468834
 40
6.939127758201098
 40
7.015062158629053
 40
7.095967516943888
 40
7.181587642625091
 40
7.271666345463806
 40
7.365947435590191
 40
7.464174723502782
 40
7.566092020101046
 40
7.718012139264277
 40
7.86619376591599
 40
8.010347103711997
 40
8.150182355198528
 40
8.285409721898944
 40
8.450974648484751
 40
8.613403246279693
 40
8.772498185818929
 40
8.928062136703552
 40
9.079897767659601
 40
9.227807746594772
 40
9.371594740647659
 40
9.511061416237638
 40
9.646010439106355
 40
9.776244474361436
 40
9.954424469346311
 40
10.12948187003479
 40
10.30126986150142
 40
10.46964162808088
 40
10.63445035340572
 40
10.79554922044258
 40
10.95279141152629
 40
11.10603010839021
 40
11.25511849219713
 40
11.39990974356617
 40
11.54025704260123
 40
11.67601356891336
 40
11.80703250164823
 40
11.93316701950552
 40
12.05427030076356
 40
12.17019552329874
 40
12.35560847243991
 40
12.53727552324838
 40
12.71506838680626
 40
12.88885877354559
 40
13.05851839327977
 40
13.22391895522764
 40
13.38493216804018
 40
13.54142973982351
 40
13.69328337816282
 40
13.84036479014347
 40
13.98254568237221
 40
14.11969776099736
 40
14.251692731729
 40
14.37840229985572
 40
14.49969817026537
 40
14.61545204746166
 40
14.61545204746166
 40
14.61545204746166
 40
14.61545204746166
 10
1315.31993902694
 20
1033.492189417558
 30
0.0
 10
1315.320695129092
 20
1033.49190942574
 30
0.0
 10
1315.322327055986
 20
1033.491305107689
 30
0.0
 10
1315.324229996403
 20
1033.488561593973
 30
0.0
 10
1315.326464374539
 20
1033.484707741361
 30
0.0
 10
1315.328694998495
 20
1033.479620091741
 30
0.0
 10
1315.331164143727
 20
1033.473299847963
 30
0.0
 10
1315.33397514031
 20
1033.46523634582
 30
0.0
 10
1315.337493150014
 20
1033.454146802515
 30
0.0
 10
1315.341703368054
 20
1033.43969544836
 30
0.0
 10
1315.346559746547
 20
1033.421783634845
 30
0.0
 10
1315.352015108899
 20
1033.400416660972
 30
0.0
 10
1315.3570704062
 20
1033.379592372723
 30
0.0
 10
1315.36186797271
 20
1033.359174308599
 30
0.0
 10
1315.366498577605
 20
1033.33895536206
 30
0.0
 10
1315.371949314134
 20
1033.314528591958
 30
0.0
 10
1315.37629702405
 20
1033.29453665442
 30
0.0
 10
1315.379691593682
 20
1033.278719016593
 30
0.0
 10
1315.382154258928
 20
1033.267155770388
 30
0.0
 10
1315.385517565195
 20
1033.251214170634
 30
0.0
 10
1315.390151970437
 20
1033.228998837542
 30
0.0
 10
1315.395727035974
 20
1033.201844045648
 30
0.0
 10
1315.402875418481
 20
1033.166444272296
 30
0.0
 10
1315.411070842339
 20
1033.125149600327
 30
0.0
 10
1315.420493971489
 20
1033.076831839955
 30
0.0
 10
1315.429112935023
 20
1033.03193077784
 30
0.0
 10
1315.436660530354
 20
1032.992171560734
 30
0.0
 10
1315.442819760082
 20
1032.959489520108
 30
0.0
 10
1315.448553749559
 20
1032.9288692834
 30
0.0
 10
1315.453764321397
 20
1032.900891688056
 30
0.0
 10
1315.458353085953
 20
1032.876137533337
 30
0.0
 10
1315.462403125473
 20
1032.854204520795
 30
0.0
 10
1315.466455357654
 20
1032.832191096478
 30
0.0
 10
1315.471067365779
 20
1032.807048131242
 30
0.0
 10
1315.476636699081
 20
1032.776562904987
 30
0.0
 10
1315.483127622967
 20
1032.740875829744
 30
0.0
 10
1315.490504412584
 20
1032.700127318849
 30
0.0
 10
1315.504415761878
 20
1032.622900931229
 30
0.0
 10
1315.524497574526
 20
1032.510277397696
 30
0.0
 10
1315.544896830783
 20
1032.394417098418
 30
0.0
 10
1315.559827742555
 20
1032.309009328609
 30
0.0
 10
1315.569162248335
 20
1032.255417949643
 30
0.0
 10
1315.580133608388
 20
1032.192208971043
 30
0.0
 10
1315.592957167418
 20
1032.117991879669
 30
0.0
 10
1315.606732240942
 20
1032.037856292388
 30
0.0
 10
1315.61946752781
 20
1031.963446867313
 30
0.0
 10
1315.630873373261
 20
1031.896567796314
 30
0.0
 10
1315.641780408709
 20
1031.832406503519
 30
0.0
 10
1315.652122150462
 20
1031.771392066372
 30
0.0
 10
1315.661832167881
 20
1031.713953571521
 30
0.0
 10
1315.669547314921
 20
1031.668207603598
 30
0.0
 10
1315.675778727919
 20
1031.631201919327
 30
0.0
 10
1315.681045073389
 20
1031.599891391212
 30
0.0
 10
1315.687166165634
 20
1031.56344999501
 30
0.0
 10
1315.694113129963
 20
1031.522030698654
 30
0.0
 10
1315.701857053831
 20
1031.475786463727
 30
0.0
 10
1315.710369032509
 20
1031.424870253112
 30
0.0
 10
1315.719620145973
 20
1031.369435027128
 30
0.0
 10
1315.72958151565
 20
1031.309633753007
 30
0.0
 10
1315.738714427058
 20
1031.254699880864
 30
0.0
 10
1315.747084291407
 20
1031.204277408311
 30
0.0
 10
1315.754758647053
 20
1031.157985691158
 30
0.0
 10
1315.763308709853
 20
1031.106337591185
 30
0.0
 10
1315.772717717988
 20
1031.049413116678
 30
0.0
 10
1315.782968866248
 20
1030.987292268743
 30
0.0
 10
1315.794045358881
 20
1030.920055050049
 30
0.0
 10
1315.805930394723
 20
1030.847781462368
 30
0.0
 10
1315.818607172436
 20
1030.770551507437
 30
0.0
 10
1315.832058890274
 20
1030.688445186923
 30
0.0
 10
1315.846268743171
 20
1030.601542501956
 30
0.0
 10
1315.86121993732
 20
1030.509923455469
 30
0.0
 10
1315.876895631574
 20
1030.413668042777
 30
0.0
 10
1315.891046894026
 20
1030.326592024943
 30
0.0
 10
1315.903300284618
 20
1030.25106319549
 30
0.0
 10
1315.913271008749
 20
1030.189523869699
 30
0.0
 10
1315.922781642797
 20
1030.130752958767
 30
0.0
 10
1315.9317848456
 20
1030.075054622516
 30
0.0
 10
1315.94023330647
 20
1030.02273302575
 30
0.0
 10
1315.948079706619
 20
1029.974092331959
 30
0.0
 10
1315.955276730061
 20
1029.929436705096
 30
0.0
 10
1315.961777054368
 20
1029.889070308082
 30
0.0
 10
1315.967533370149
 20
1029.853297305942
 30
0.0
 10
1315.972498315933
 20
1029.822421855318
 30
0.0
 10
1315.985178985171
 20
1029.743523888962
 30
0.0
 10
1316.006079724654
 20
1029.613241346325
 30
0.0
 10
1316.035679724819
 20
1029.428151839309
 30
0.0
 10
1316.060796909223
 20
1029.270621462427
 30
0.0
 10
1316.081111529108
 20
1029.142932450931
 30
0.0
 10
1316.096286992269
 20
1029.047409806625
 30
0.0
 10
1316.111137040747
 20
1028.953810482557
 30
0.0
 10
1316.125620419304
 20
1028.862407101361
 30
0.0
 10
1316.139695904124
 20
1028.773472290779
 30
0.0
 10
1316.153322263608
 20
1028.687278677291
 30
0.0
 10
1316.166458268434
 20
1028.604098887759
 30
0.0
 10
1316.179062688876
 20
1028.524205548983
 30
0.0
 10
1316.191094295368
 20
1028.447871287793
 30
0.0
 10
1316.202511858337
 20
1028.375368731023
 30
0.0
 10
1316.213274147692
 20
1028.306970505431
 30
0.0
 10
1316.223339934026
 20
1028.242949237883
 30
0.0
 10
1316.232667983526
 20
1028.18357755456
 30
0.0
 10
1316.241217073315
 20
1028.129128083359
 30
0.0
 10
1316.248945938613
 20
1028.079873445603
 30
0.0
 10
1316.259145526924
 20
1028.014840880182
 30
0.0
 10
1316.27198444715
 20
1027.932915315447
 30
0.0
 10
1316.287629640106
 20
1027.832972838456
 30
0.0
 10
1316.30293060837
 20
1027.735128651734
 30
0.0
 10
1316.317850132418
 20
1027.639630264366
 30
0.0
 10
1316.332351063252
 20
1027.546725196473
 30
0.0
 10
1316.346396233811
 20
1027.456660965349
 30
0.0
 10
1316.359948481842
 20
1027.369685089048
 30
0.0
 10
1316.372970643958
 20
1027.286045085449
 30
0.0
 10
1316.385425557111
 20
1027.205988472485
 30
0.0
 10
1316.39727605813
 20
1027.129762768074
 30
0.0
 10
1316.408484983812
 20
1027.057615490129
 30
0.0
 10
1316.419015170533
 20
1026.989794156502
 30
0.0
 10
1316.428829454999
 20
1026.926546285096
 30
0.0
 10
1316.437890670924
 20
1026.868119393351
 30
0.0
 10
1316.446161658723
 20
1026.81476099975
 30
0.0
 10
1316.453605231846
 20
1026.766718618595
 30
0.0
 10
1316.461894351925
 20
1026.713198377927
 30
0.0
 10
1316.471568514852
 20
1026.650705957096
 30
0.0
 10
1316.483164935018
 20
1026.575748673337
 30
0.0
 10
1316.495513334721
 20
1026.495877632146
 30
0.0
 10
1316.508573095834
 20
1026.411345788889
 30
0.0
 10
1316.522303639249
 20
1026.322406104963
 30
0.0
 10
1316.536664370954
 20
1026.229311539464
 30
0.0
 10
1316.551614714302
 20
1026.132315054151
 30
0.0
 10
1316.569476713594
 20
1026.016327460424
 30
0.0
 10
1316.589851195331
 20
1025.883879048205
 30
0.0
 10
1316.612338503087
 20
1025.73751137174
 30
0.0
 10
1316.634188382653
 20
1025.595121319674
 30
0.0
 10
1316.655359608287
 20
1025.456995759946
 30
0.0
 10
1316.677588487251
 20
1025.311811766631
 30
0.0
 10
1316.700930431476
 20
1025.159179317992
 30
0.0
 10
1316.725445047706
 20
1024.998677854988
 30
0.0
 10
1316.749428035055
 20
1024.841467514417
 30
0.0
 10
1316.772851916884
 20
1024.687743723008
 30
0.0
 10
1316.795689216339
 20
1024.537701907446
 30
0.0
 10
1316.817912456655
 20
1024.391537494435
 30
0.0
 10
1316.839494160891
 20
1024.249445910653
 30
0.0
 10
1316.860406852534
 20
1024.111622582851
 30
0.0
 10
1316.880623053263
 20
1023.97826293749
 30
0.0
 10
1316.90275373788
 20
1023.83214164347
 30
0.0
 10
1316.926861834239
 20
1023.672797911481
 30
0.0
 10
1316.953011765209
 20
1023.499754150216
 30
0.0
 10
1316.978644405997
 20
1023.329938749572
 30
0.0
 10
1317.003739814447
 20
1023.163497183018
 30
0.0
 10
1317.028278050544
 20
1023.000574924323
 30
0.0
 10
1317.052239173718
 20
1022.841317447182
 30
0.0
 10
1317.07560324353
 20
1022.685870225309
 30
0.0
 10
1317.09835031949
 20
1022.534378732409
 30
0.0
 10
1317.120460461082
 20
1022.386988442189
 30
0.0
 10
1317.141913727751
 20
1022.243844828348
 30
0.0
 10
1317.162690178859
 20
1022.105093364574
 30
0.0
 10
1317.182769873752
 20
1021.970879524557
 30
0.0
 10
1317.202132871434
 20
1021.841348781931
 30
0.0
 10
1317.220759231568
 20
1021.716646610438
 30
0.0
 10
1317.238629010798
 20
1021.596918483351
 30
0.0
 10
1317.259400887572
 20
1021.457645153394
 30
0.0
 10
1317.283129448333
 20
1021.298401578315
 30
0.0
 10
1317.309868251183
 20
1021.118756320572
 30
0.0
 10
1317.336008948468
 20
1020.942938908512
 30
0.0
 10
1317.361534617476
 20
1020.771076530226
 30
0.0
 10
1317.386428339471
 20
1020.603296374364
 30
0.0
 10
1317.410673194649
 20
1020.439725629429
 30
0.0
 10
1317.434252263502
 20
1020.280491483964
 30
0.0
 10
1317.457148626206
 20
1020.125721126467
 30
0.0
 10
1317.479345363648
 20
1019.975541745544
 30
0.0
 10
1317.500825553995
 20
1019.8300805294
 30
0.0
 10
1317.521572284737
 20
1019.68946466761
 30
0.0
 10
1317.541568609938
 20
1019.553821344841
 30
0.0
 10
1317.560797701146
 20
1019.423277763018
 30
0.0
 10
1317.57924231587
 20
1019.297961063239
 30
0.0
 10
1317.596886661768
 20
1019.177998599658
 30
0.0
 10
1317.608374872458
 20
1019.099821612373
 30
0.0
 10
1317.61398468619
 20
1019.061646969805
 30
0.0
 11
1315.31993902694
 21
1033.492189417558
 31
0.0
 11
1315.322073138646
 21
1033.491167580148
 31
0.0
 11
1315.323841434788
 21
1033.489073526237
 31
0.0
 11
1315.326127813085
 21
1033.485144655582
 31
0.0
 11
1315.3287080699
 21
1033.479481480665
 31
0.0
 11
1315.330828790684
 21
1033.474077508806
 31
0.0
 11
1315.333603193724
 21
1033.466202621066
 31
0.0
 11
1315.337087284495
 21
1033.4552972048
 31
0.0
 11
1315.341337068469
 21
1033.440801647364
 31
0.0
 11
1315.346224809005
 21
1033.422858429272
 31
0.0
 11
1315.351678073835
 21
1033.401575004959
 31
0.0
 11
1315.357730057245
 21
1033.376713903524
 31
0.0
 11
1315.36155850418
 21
1033.360429778206
 31
0.0
 11
1315.366162743773
 21
1033.340343820486
 31
0.0
 11
1315.371588691576
 21
1033.316050491662
 31
0.0
 11
1315.377882263142
 21
1033.287144253031
 31
0.0
 11
1315.379330399473
 21
1033.280395832368
 31
0.0
 11
1315.381840728403
 21
1033.26861238916
 31
0.0
 11
1315.385251018936
 21
1033.252450478574
 31
0.0
 11
1315.389399040074
 21
1033.232566655775
 31
0.0
 11
1315.395687165675
 21
1033.201954811056
 31
0.0
 11
1315.401944783243
 21
1033.170980108609
 31
0.0
 11
1315.410806006034
 21
1033.12636019331
 31
0.0
 11
1315.420230070298
 21
1033.078062926083
 31
0.0
 11
1315.430223553452
 21
1033.026029386749
 31
0.0
 11
1315.436747010039
 21
1032.991673646941
 31
0.0
 11
1315.442943153807
 21
1032.958798808926
 31
0.0
 11
1315.448713733159
 21
1032.927985700378
 31
0.0
 11
1315.453960496498
 21
1032.899815148972
 31
0.0
 11
1315.458585192227
 21
1032.874867982382
 31
0.0
 11
1315.46248956875
 21
1032.853725028284
 31
0.0
 11
1315.46611730798
 21
1032.83401736079
 31
0.0
 11
1315.470738240159
 21
1032.808827049479
 31
0.0
 11
1315.476316578864
 21
1032.778294497121
 31
0.0
 11
1315.48281653767
 21
1032.742560106486
 31
0.0
 11
1315.490202330154
 21
1032.701764280342
 31
0.0
 11
1315.49843816989
 21
1032.656047421459
 31
0.0
 11
1315.524342643766
 21
1032.510843739331
 31
0.0
 11
1315.550233160102
 21
1032.363856215825
 31
0.0
 11
1315.559908159807
 21
1032.308515104282
 31
0.0
 11
1315.569290836407
 21
1032.254647752802
 31
0.0
 11
1315.578241047096
 21
1032.2030828719
 31
0.0
 11
1315.59279097323
 21
1032.118882785186
 31
0.0
 11
1315.607728478469
 21
1032.031990852072
 31
0.0
 11
1315.619591553186
 21
1031.96268053727
 31
0.0
 11
1315.631022107649
 21
1031.895658885734
 31
0.0
 11
1315.64195369615
 21
1031.831354982085
 31
0.0
 11
1315.652319872982
 21
1031.770197910943
 31
0.0
 11
1315.662054192439
 21
1031.712616756928
 31
0.0
 11
1315.671090208811
 21
1031.659040604662
 31
0.0
 11
1315.67548145894
 21
1031.632962738646
 31
0.0
 11
1315.680756419027
 21
1031.601601051972
 31
0.0
 11
1315.686886172341
 21
1031.565108505552
 31
0.0
 11
1315.693841802154
 21
1031.523638060297
 31
0.0
 11
1315.701594391738
 21
1031.477342677119
 31
0.0
 11
1315.710115024363
 21
1031.426375316929
 31
0.0
 11
1315.719374783301
 21
1031.37088894064
 31
0.0
 11
1315.729344751822
 21
1031.311036509161
 31
0.0
 11
1315.739996013199
 21
1031.246970983405
 31
0.0
 11
1315.74678225645
 21
1031.206088784461
 31
0.0
 11
1315.754461068561
 21
1031.159770211566
 31
0.0
 11
1315.763015644667
 21
1031.1080952659
 31
0.0
 11
1315.772429179904
 21
1031.051143948642
 31
0.0
 11
1315.782684869407
 21
1030.988996260972
 31
0.0
 11
1315.793765908313
 21
1030.921732204068
 31
0.0
 11
1315.805655491758
 21
1030.849431779109
 31
0.0
 11
1315.818336814875
 21
1030.772174987275
 31
0.0
 11
1315.831793072803
 21
1030.690041829745
 31
0.0
 11
1315.846007460677
 21
1030.603112307698
 31
0.0
 11
1315.860963173632
 21
1030.511466422313
 31
0.0
 11
1315.876643406804
 21
1030.415184174769
 31
0.0
 11
1315.893031355329
 21
1030.314345566246
 31
0.0
 11
1315.903431400844
 21
1030.250240728837
 31
0.0
 11
1315.913418609845
 21
1030.188600131826
 31
0.0
 11
1315.922945670096
 21
1030.129727939801
 31
0.0
 11
1315.931965269361
 21
1030.073928317351
 31
0.0
 11
1315.940430095403
 21
1030.021505429064
 31
0.0
 11
1315.948292835986
 21
1029.972763439529
 31
0.0
 11
1315.955506178873
 21
1029.928006513333
 31
0.0
 11
1315.962022811827
 21
1029.887538815066
 31
0.0
 11
1315.967795422614
 21
1029.851664509316
 31
0.0
 11
1315.972776698995
 21
1029.820687760671
 31
0.0
 11
1315.976919328735
 21
1029.79491273372
 31
0.0
 11
1316.005788669704
 21
1029.614962780933
 31
0.0
 11
1316.035397228707
 21
1029.429827070385
 31
0.0
 11
1316.065721330698
 21
1029.239644596628
 31
0.0
 11
1316.081195628437
 21
1029.142380530125
 31
0.0
 11
1316.096385674352
 21
1029.046767145875
 31
0.0
 11
1316.111250241904
 21
1028.953077071216
 31
0.0
 11
1316.125748104552
 21
1028.861582933488
 31
0.0
 11
1316.139838035754
 21
1028.772557360029
 31
0.0
 11
1316.153478808971
 21
1028.686272978179
 31
0.0
 11
1316.166629197663
 21
1028.603002415276
 31
0.0
 11
1316.179247975288
 21
1028.52301829866
 31
0.0
 11
1316.191293915306
 21
1028.446593255668
 31
0.0
 11
1316.202725791177
 21
1028.373999913642
 31
0.0
 11
1316.21350237636
 21
1028.305510899919
 31
0.0
 11
1316.223582444314
 21
1028.241398841838
 31
0.0
 11
1316.232924768499
 21
1028.181936366739
 31
0.0
 11
1316.241488122374
 21
1028.127396101959
 31
0.0
 11
1316.2492312794
 21
1028.07805067484
 31
0.0
 11
1316.256113013034
 21
1028.034172712718
 31
0.0
 11
1316.272078379272
 21
1027.932297072349
 31
0.0
 11
1316.287736607893
 21
1027.832272192154
 31
0.0
 11
1316.303050537707
 21
1027.734345590373
 31
0.0
 11
1316.317983007521
 21
1027.638764785245
 31
0.0
 11
1316.332496856143
 21
1027.545777295012
 31
0.0
 11
1316.346554922382
 21
1027.455630637911
 31
0.0
 11
1316.360120045046
 21
1027.368572332183
 31
0.0
 11
1316.373155062943
 21
1027.284849896069
 31
0.0
 11
1316.385622814881
 21
1027.204710847807
 31
0.0
 11
1316.39748613967
 21
1027.128402705639
 31
0.0
 11
1316.408707876115
 21
1027.056172987803
 31
0.0
 11
1316.419250863026
 21
1026.988269212539
 31
0.0
 11
1316.429077939212
 21
1026.924938898088
 31
0.0
 11
1316.438151943479
 21
1026.866429562688
 31
0.0
 11
1316.446435714638
 21
1026.812988724581
 31
0.0
 11
1316.453892091495
 21
1026.764863902006
 31
0.0
 11
1316.460483912859
 21
1026.722302613202
 31
0.0
 11
1316.471300881154
 21
1026.652427663152
 31
0.0
 11
1316.48291038508
 21
1026.577385990817
 31
0.0
 11
1316.495271834094
 21
1026.49743055584
 31
0.0
 11
1316.508344637659
 21
1026.412814317867
 31
0.0
 11
1316.522088205233
 21
1026.323790236544
 31
0.0
 11
1316.536461946275
 21
1026.230611271515
 31
0.0
 11
1316.551425270246
 21
1026.133530382426
 31
0.0
 11
1316.566937586605
 21
1026.032800528921
 31
0.0
 11
1316.590035866107
 21
1025.882646634231
 31
0.0
 11
1316.61253793753
 21
1025.73618349464
 31
0.0
 11
1316.634402560854
 21
1025.593697975921
 31
0.0
 11
1316.655588496058
 21
1025.455476943846
 31
0.0
 11
1316.676054503121
 21
1025.321807264189
 31
0.0
 11
1316.701083320644
 21
1025.158145102378
 31
0.0
 11
1316.725607961098
 21
1024.997578632054
 31
0.0
 11
1316.749600949326
 21
1024.840303280193
 31
0.0
 11
1316.773034810173
 21
1024.686514473772
 31
0.0
 11
1316.795882068484
 21
1024.536407639765
 31
0.0
 11
1316.818115249102
 21
1024.390178205149
 31
0.0
 11
1316.839706876872
 21
1024.248021596899
 31
0.0
 11
1316.860629476638
 21
1024.110133241991
 31
0.0
 11
1316.880855573244
 21
1023.976708567402
 31
0.0
 11
1316.900357691535
 21
1023.847943000106
 31
0.0
 11
1316.927012365116
 21
1023.671767976368
 31
0.0
 11
1316.953169670574
 21
1023.498675836434
 31
0.0
 11
1316.978809668345
 21
1023.328812054166
 31
0.0
 11
1317.003912418868
 21
1023.162322103426
 31
0.0
 11
1317.028457982578
 21
1022.999351458077
 31
0.0
 11
1317.052426419913
 21
1022.840045591982
 31
0.0
 11
1317.075797791309
 21
1022.684549979003
 31
0.0
 11
1317.098552157203
 21
1022.533010093002
 31
0.0
 11
1317.120669578033
 21
1022.385571407841
 31
0.0
 11
1317.142130114235
 21
1022.242379397383
 31
0.0
 11
1317.162913826247
 21
1022.10357953549
 31
0.0
 11
1317.183000774504
 21
1021.969317296026
 31
0.0
 11
1317.202371019445
 21
1021.839738152851
 31
0.0
 11
1317.221004621506
 21
1021.714987579829
 31
0.0
 11
1317.238881641122
 21
1021.595211050821
 31
0.0
 11
1317.255982138733
 21
1021.480554039691
 31
0.0
 11
1317.283308466838
 21
1021.297165835322
 31
0.0
 11
1317.310053593811
 21
1021.117478285579
 31
0.0
 11
1317.336200600785
 21
1020.941618579113
 31
0.0
 11
1317.36173256889
 21
1020.769713904576
 31
0.0
 11
1317.386632579258
 21
1020.601891450619
 31
0.0
 11
1317.41088371302
 21
1020.438278405895
 31
0.0
 11
1317.434469051307
 21
1020.279001959055
 31
0.0
 11
1317.45737167525
 21
1020.12418929875
 31
0.0
 11
1317.479574665982
 21
1019.973967613633
 31
0.0
 11
1317.501061104633
 21
1019.828464092355
 31
0.0
 11
1317.521814072334
 21
1019.687805923568
 31
0.0
 11
1317.541816650217
 21
1019.552120295924
 31
0.0
 11
1317.561051919412
 21
1019.421534398073
 31
0.0
 11
1317.579502961053
 21
1019.296175418669
 31
0.0
 11
1317.597152856268
 21
1019.176170546362
 31
0.0
 11
1317.61398468619
 21
1019.061646969805
 31
0.0
  0
SPLINE
  5
1FF
330
1F
100
AcDbEntity
  8
0
  6
Continuous
 62
     7
100
AcDbSpline
210
0.0
220
0.0
230
1.0
 70
     8
 71
     3
 72
    11
 73
     7
 74
     5
 42
0.0000000001
 43
0.0000000001
 44
0.00000001
 40
0.0
 40
0.0
 40
0.0
 40
0.0
 40
8.491719227141577
 40
17.0379704837661
 40
25.59686832339133
 40
34.2097021609778
 40
34.2097021609778
 40
34.2097021609778
 40
34.2097021609778
 10
1338.632925613396
 20
865.2243743542118
 30
0.0
 10
1338.991553434461
 20
862.4166117590007
 30
0.0
 10
1339.711112108802
 20
856.7830557095117
 30
0.0
 10
1340.784363666772
 20
848.3185350287765
 30
0.0
 10
1341.857421013898
 20
839.8132965723828
 30
0.0
 10
1342.568549753751
 20
834.1337322113593
 30
0.0
 10
1342.925230942848
 20
831.285030343027
 30
0.0
 11
1338.632925613396
 21
865.2243743542118
 31
0.0
 11
1339.707524017289
 21
856.800922941462
 31
0.0
 11
1340.782958024846
 21
848.3226063493108
 31
0.0
 11
1341.853842782432
 21
839.8309670455537
 31
0.0
 11
1342.925230942848
 21
831.285030343027
 31
0.0
  0
SPLINE
  5
200
330
1F
100
AcDbEntity
  8
0
  6
Continuous
 62
     7
100
AcDbSpline
210
0.0
220
0.0
230
1.0
 70
     8
 71
     3
 72
    19
 73
    15
 74
    13
 42
0.0000000001
 43
0.0000000001
 44
0.00000001
 40
0.0
 40
0.0
 40
0.0
 40
0.0
 40
40.7832766530963
 40
80.70664120828283
 40
100.8151331617448
 40
121.3490351085049
 40
131.5676373622957
 40
141.7391762183461
 40
146.8508012829
 40
151.9499956281668
 40
154.1930010627659
 40
157.0591208708351
 40
159.6171225848519
 40
162.1703076828563
 40
162.1703076828563
 40
162.1703076828563
 40
162.1703076828563
 10
1342.925230942848
 20
831.285030343027
 30
0.0
 10
1344.595720665027
 20
817.7936126687671
 30
0.0
 10
1347.901477968364
 20
791.0952427734461
 30
0.0
 10
1351.861625442697
 20
757.724208704509
 30
0.0
 10
1354.95539390366
 20
731.0477504926482
 30
0.0
 10
1356.874046097998
 20
714.2029867940628
 30
0.0
 10
1358.397610967374
 20
700.6469861047165
 30
0.0
 10
1359.338561226496
 20
692.1986341932436
 30
0.0
 10
1360.08557005506
 20
685.4457059903583
 30
0.0
 10
1360.539934988676
 20
681.3193713118244
 30
0.0
 10
1360.911162496283
 20
677.9369083480381
 30
0.0
 10
1361.189333080409
 20
675.3963828705564
 30
0.0
 10
1361.478093883957
 20
672.7530058695115
 30
0.0
 10
1361.662558812693
 20
671.0592924893266
 30
0.0
 10
1361.754704360189
 20
670.213233849402
 30
0.0
 11
1342.925230942848
 21
831.285030343027
 31
0.0
 11
1347.902100134292
 21
790.806561651459
 31
0.0
 11
1352.616594869643
 21
751.1625384348798
 31
0.0
 11
1354.932321569069
 21
731.1878329678145
 31
0.0
 11
1357.25639672316
 21
710.7858770851718
 31
0.0
 11
1358.397664760219
 21
700.6312062737292
 31
0.0
 11
1359.523582480253
 21
690.522175064565
 31
0.0
 11
1360.085601349823
 21
685.4415406956281
 31
0.0
 11
1360.643719461033
 21
680.3729820104849
 31
0.0
 11
1360.888419858073
 21
678.1433643088756
 31
0.0
 11
1361.200385952405
 21
675.294273241501
 31
0.0
 11
1361.478130802192
 21
672.7513948395065
 31
0.0
 11
1361.754704360189
 21
670.213233849402
 31
0.0
  0
SPLINE
  5
201
330
1F
100
AcDbEntity
  8
0
  6
Continuous
 62
     7
100
AcDbSpline
210
0.0
220
0.0
230
1.0
 70
     8
 71
     3
 72
    11
 73
     7
 74
     5
 42
0.0000000001
 43
0.0000000001
 44
0.00000001
 40
0.0
 40
0.0
 40
0.0
 40
0.0
 40
4.04225653625504
 40
8.089173845383897
 40
12.15928655998206
 40
16.18279442766292
 40
16.18279442766292
 40
16.18279442766292
 40
16.18279442766292
 10
1361.754704360189
 20
670.213233849402
 30
0.0
 10
1361.89671272015
 20
668.8733067369741
 30
0.0
 10
1362.180893177504
 20
666.1919075592232
 30
0.0
 10
1362.556788309259
 20
662.1561941430098
 30
0.0
 10
1362.897760368727
 20
658.1236507969156
 30
0.0
 10
1363.090814286919
 20
655.4326686123975
 30
0.0
 10
1363.18678542256
 20
654.094925153691
 30
0.0
 11
1361.754704360189
 21
670.213233849402
 31
0.0
 11
1362.172211819692
 21
666.1925964091251
 31
0.0
 11
1362.550363585126
 21
662.163385450485
 31
0.0
 11
1362.890405670373
 21
658.107502206382
 31
0.0
 11
1363.18678542256
 21
654.094925153691
 31
0.0
  0
SPLINE
  5
202
330
1F
100
AcDbEntity
  8
0
  6
Continuous
 62
     7
100
AcDbSpline
210
0.0
220
0.0
230
1.0
 70
     8
 71
     3
 72
    11
 73
     7
 74
     5
 42
0.0000000001
 43
0.0000000001
 44
0.00000001
 40
0.0
 40
0.0
 40
0.0
 40
0.0
 40
7.048623067011934
 40
13.98394683398591
 40
20.89810005685994
 40
27.98000244176126
 40
27.98000244176126
 40
27.98000244176126
 40
27.98000244176126
 10
1363.18678542256
 20
654.094925153691
 30
0.0
 10
1363.336750733735
 20
651.7501083338367
 30
0.0
 10
1363.634270819359
 20
647.0981651908228
 30
0.0
 10
1363.925142945278
 20
640.1377673613062
 30
0.0
 10
1364.114852386901
 20
633.1627792599186
 30
0.0
 10
1364.138097897889
 20
628.4973510646923
 30
0.0
 10
1364.149859957451
 20
626.1366783160069
 30
0.0
 11
1363.18678542256
 21
654.094925153691
 31
0.0
 11
1363.6105420735
 21
647.059051544707
 31
0.0
 11
1363.908575705868
 21
640.1301344787629
 31
0.0
 11
1364.088047592109
 21
633.2183109399688
 31
0.0
 11
1364.149859957451
 21
626.1366783160069
 31
0.0
  0
SPLINE
  5
203
330
1F
100
AcDbEntity
  8
0
  6
Continuous
 62
     7
100
AcDbSpline
210
0.0
220
0.0
230
1.0
 70
     8
 71
     3
 72
    11
 73
     7
 74
     5
 42
0.0000000001
 43
0.0000000001
 44
0.00000001
 40
0.0
 40
0.0
 40
0.0
 40
0.0
 40
40.08967675844513
 40
78.06237397253017
 40
117.2131581556706
 40
155.2683353964211
 40
155.2683353964211
 40
155.2683353964211
 40
155.2683353964211
 10
1317.61398468619
 20
1019.061646969805
 30
0.0
 10
1319.5199648603
 20
1005.835018230705
 30
0.0
 10
1323.231277825781
 20
980.08020745364
 30
0.0
 10
1328.587465862494
 20
941.3778782064205
 30
0.0
 10
1333.712002583229
 20
903.3283760296181
 30
0.0
 10
1337.008209770132
 20
877.8049765774682
 30
0.0
 10
1338.632925613396
 20
865.2243743542118
 30
0.0
 11
1317.61398468619
 21
1019.061646969805
 31
0.0
 11
1323.293902809943
 21
979.3763762424422
 31
0.0
 11
1328.511120258241
 21
941.7637935631079
 31
0.0
 11
1333.725044826584
 21
902.9617460301431
 31
0.0
 11
1338.632925613396
 21
865.2243743542118
 31
0.0
  0
SPLINE
  5
204
330
1F
100
AcDbEntity
  8
0
  6
Continuous
 62
     7
100
AcDbSpline
210
0.0
220
0.0
230
1.0
 70
     8
 71
     3
 72
    11
 73
     7
 74
     5
 42
0.0000000001
 43
0.0000000001
 44
0.00000001
 40
0.0
 40
0.0
 40
0.0
 40
0.0
 40
6.983845210684488
 40
13.99605568778724
 40
21.10627584355281
 40
27.98000239713772
 40
27.98000239713772
 40
27.98000239713772
 40
27.98000239713772
 10
884.1498599574416
 20
626.1366783159209
 30
0.0
 10
884.1613225789132
 20
628.4646635198305
 30
0.0
 10
884.1842943779157
 20
633.1300891659222
 30
0.0
 10
884.3747424173475
 20
640.1633900875769
 30
0.0
 10
884.6684376738742
 20
647.1564043395408
 30
0.0
 10
884.966448853908
 20
651.8083088968444
 30
0.0
 10
885.1129344923359
 20
654.0949251536769
 30
0.0
 11
884.1498599574416
 21
626.1366783159209
 31
0.0
 11
884.2099728981719
 21
633.1202648129264
 31
0.0
 11
884.3911442090249
 21
640.1301344787129
 31
0.0
 11
884.6982197546734
 21
647.2337205641151
 31
0.0
 11
885.1129344923359
 21
654.0949251536769
 31
0.0
  0
SPLINE
  5
205
330
1F
100
AcDbEntity
  8
0
  6
Continuous
 62
     7
100
AcDbSpline
210
0.0
220
0.0
230
1.0
 70
     8
 71
     3
 72
    35
 73
    31
 74
    29
 42
0.0000000001
 43
0.0000000001
 44
0.00000001
 40
0.0
 40
0.0
 40
0.0
 40
0.0
 40
6.196740860661392
 40
12.42618332015917
 40
18.14267682721042
 40
25.12300816295835
 40
37.31110271478904
 40
49.62127952934576
 40
59.784741467323
 40
70.04712202292282
 40
75.6976489402429
 40
81.3811538596302
 40
87.64643939604504
 40
94.24965485030883
 40
141.9168951366027
 40
191.1753361398663
 40
240.4335813180205
 40
288.1006302664389
 40
294.7037833232027
 40
300.9690012487326
 40
306.6527594186837
 40
312.3035363288061
 40
322.5656343938068
 40
332.7288192213817
 40
345.0389070234963
 40
357.2269142544956
 40
364.2072323685001
 40
369.9237989610465
 40
376.1533222247588
 40
382.3501430855658
 40
382.3501430855658
 40
382.3501430855658
 40
382.3501430855658
 10
932.9797808879594
 20
1033.49218941755
 30
0.0
 10
935.0452325646716
 20
1033.469139074075
 30
0.0
 10
939.1870357723367
 20
1033.422916745265
 30
0.0
 10
945.2342346597299
 20
1033.356920315381
 30
0.0
 10
951.542627831489
 20
1033.289278921332
 30
0.0
 10
959.8371445611739
 20
1033.202256811919
 30
0.0
 10
970.3294744900964
 20
1033.095995405965
 30
0.0
 10
981.8828525146653
 20
1032.984948103152
 30
0.0
 10
992.7944079384774
 20
1032.885693962516
 30
0.0
 10
1001.486210311009
 20
1032.81097102391
 30
0.0
 10
1008.684773436322
 20
1032.752053810115
 30
0.0
 10
1014.551030418602
 20
1032.705815761536
 30
0.0
 10
1020.734856182593
 20
1032.659108297586
 30
0.0
 10
1040.912915159555
 20
1032.514078283816
 30
0.0
 10
1075.422063536318
 20
1032.320825088514
 30
0.0
 10
1124.150059280725
 20
1032.216335690217
 30
0.0
 10
1172.87799124064
 20
1032.320826661925
 30
0.0
 10
1207.386989762654
 20
1032.514079506646
 30
0.0
 10
1227.564941626039
 20
1032.659108879676
 30
0.0
 10
1233.748808469463
 20
1032.705816669546
 30
0.0
 10
1239.615210657718
 20
1032.752055907326
 30
0.0
 10
1246.813847363617
 20
1032.810973871877
 30
0.0
 10
1255.505546535805
 20
1032.885696085232
 30
0.0
 10
1266.416885763626
 20
1032.984948305742
 30
0.0
 10
1277.970112647715
 20
1033.095994109713
 30
0.0
 10
1288.462379395627
 20
1033.202254800266
 30
0.0
 10
1296.756886974186
 20
1033.289276744176
 30
0.0
 10
1303.065327033038
 20
1033.356918597588
 30
0.0
 10
1309.112603879344
 20
1033.422915853763
 30
0.0
 10
1313.254460685157
 20
1033.469138777908
 30
0.0
 10
1315.31993902694
 20
1033.492189417558
 30
0.0
 11
932.9797808879594
 21
1033.49218941755
 31
0.0
 11
939.1761387262919
 21
1033.423292149644
 31
0.0
 11
945.4052096970793
 21
1033.355261295702
 31
0.0
 11
951.1213748731591
 21
1033.293993882409
 31
0.0
 11
958.1013222075419
 21
1033.220776629888
 31
0.0
 11
970.2887927963793
 21
1033.097450028588
 31
0.0
 11
982.5984019284011
 21
1032.979228953924
 31
0.0
 11
992.7614438945151
 21
1032.886835449181
 31
0.0
 11
1003.023445681319
 21
1032.798665184428
 31
0.0
 11
1008.673783419154
 21
1032.752427842876
 31
0.0
 11
1014.357111869087
 21
1032.707640580353
 31
0.0
 11
1020.62221878298
 21
1032.660330852998
 31
0.0
 11
1027.225263769135
 21
1032.612883553399
 31
0.0
 11
1074.891783546773
 21
1032.350798072423
 31
0.0
 11
1124.150124554917
 21
1032.251544874123
 31
0.0
 11
1173.408269734935
 21
1032.350799372435
 31
0.0
 11
1221.074598173491
 21
1032.612884546789
 31
0.0
 11
1227.677580763453
 21
1032.660331440294
 31
0.0
 11
1233.942620068267
 21
1032.70764067324
 31
0.0
 11
1239.626201760565
 21
1032.752429973946
 31
0.0
 11
1245.276789481885
 21
1032.79866947698
 31
0.0
 11
1255.53850878685
 21
1032.886837508657
 31
0.0
 11
1265.701273653593
 21
1032.979228540333
 31
0.0
 11
1278.010793777736
 21
1033.09744871242
 31
0.0
 11
1290.198177051084
 21
1033.220774344021
 31
0.0
 11
1297.178111165065
 21
1033.293991399319
 31
0.0
 11
1302.894349422867
 21
1033.355259556282
 31
0.0
 11
1309.123501193321
 21
1033.423291267868
 31
0.0
 11
1315.31993902694
 21
1033.492189417558
 31
0.0
  0
SPLINE
  5
206
330
1F
100
AcDbEntity
  8
0
  6
Continuous
 62
     7
100
AcDbSpline
210
0.0
220
0.0
230
1.0
 70
     8
 71
     3
 72
   185
 73
   181
 74
   179
 42
0.0000000001
 43
0.0000000001
 44
0.00000001
 40
0.0
 40
0.0
 40
0.0
 40
0.0
 40
0.11575385707489
 40
0.2370497034602401
 40
0.3637592438035033
 40
0.4957541831348022
 40
0.6329062268869594
 40
0.7750870809127484
 40
0.9221684515035814
 40
1.074022045409711
 40
1.230519569859575
 40
1.391532732581335
 40
1.556933241825095
 40
1.726592806384227
 40
1.90038313562103
 40
2.078175939492157
 40
2.259842928573031
 40
2.445255814088454
 40
2.561181032503819
 40
2.682284312544613
 40
2.808418831985041
 40
2.939437769000559
 40
3.075194302188597
 40
3.215541610592032
 40
3.360332873719838
 40
3.509421271573292
 40
3.662659984669067
 40
3.819902194067502
 40
3.981001081399673
 40
4.145809828897241
 40
4.314181619424863
 40
4.485969636513337
 40
4.661027064394073
 40
4.839207088038855
 40
4.969441106182335
 40
5.104390116998579
 40
5.243856785371674
 40
5.387643776821109
 40
5.535553757542095
 40
5.687389394451274
 40
5.842953355232126
 40
6.002048308388653
 40
6.164476923298459
 40
6.330041870273924
 40
6.465269814517233
 40
6.605105335606321
 40
6.74925865602919
 40
6.897439999294344
 40
7.049359590021127
 40
7.151276576743976
 40
7.249503628864917
 40
7.343784564834301
 40
7.433863202700104
 40
7.519483360142628
 40
7.600388854502522
 40
7.676323502809031
 40
7.74703112180378
 40
7.790099828435909
 40
7.838798846151438
 40
7.892877885412194
 40
7.952086656847171
 40
8.016174871270248
 40
8.08489223969997
 40
8.157988473377424
 40
8.235213283787028
 40
8.316316382679846
 40
8.401047482098115
 40
8.489156294402784
 40
8.580392532304392
 40
8.674505908898123
 40
8.771246137703454
 40
8.870362932707021
 40
8.97160600841285
 40
9.074725079899409
 40
9.119139411184934
 40
9.169088653197534
 40
9.224297083608919
 40
9.284488980380118
 40
9.349388621795418
 40
9.41872028649785
 40
9.492208253526343
 40
9.569576802354805
 40
9.650550212937613
 40
9.734852765760877
 40
9.822208741898145
 40
9.912342423073881
 40
10.00497809173826
 40
10.0998400311496
 40
10.19665252546935
 40
10.29513985987325
 40
10.41916341640372
 40
10.5374018414455
 40
10.64986091558064
 40
10.7565464176402
 40
10.85746412470886
 40
10.883569898532
 40
10.914944575267
 40
10.95128033627187
 40
10.99226936323866
 40
11.03760383824151
 40
11.086975943786
 40
11.14007786286356
 40
11.19660177901237
 40
11.25623987638919
 40
11.31868433984879
 40
11.38362735504061
 40
11.48578896037756
 40
11.58333968679481
 40
11.67619788240941
 40
11.76428189320505
 40
11.84751006309685
 40
11.92580073399373
 40
11.99907224585998
 40
12.06724293677507
 40
12.13023114299316
 40
12.18795519900417
 40
12.24033343759542
 40
12.28728418992078
 40
12.32872578557663
 40
12.39367066800029
 40
12.45434777663465
 40
12.51060148437637
 40
12.56227616228754
 40
12.6092161797001
 40
12.65126590432178
 40
12.6882697023273
 40
12.72007193846187
 40
12.74651697614481
 40
12.8008497746658
 40
12.85924794342758
 40
12.92127733443474
 40
12.98650380560412
 40
13.05449322177464
 40
13.12481145591606
 40
13.21293419937578
 40
13.29842596536884
 40
13.3341779309591
 40
13.36705040080104
 40
13.3966371453183
 40
13.42253193260367
 40
13.4443285287875
 40
13.46162069835123
 40
13.61087116834117
 40
13.75836729254599
 40
13.80482005014619
 40
13.84627904923268
 40
13.88259978846948
 40
13.91363775190242
 40
13.93924840976936
 40
13.95928721938107
 40
13.98078771687416
 40
14.00615995726868
 40
14.03481495521311
 40
14.06616374250641
 40
14.09961737308717
 40
14.13458692983555
 40
14.18757161400139
 40
14.23677973268506
 40
14.28227088831238
 40
14.31476495011397
 40
14.34512238298945
 40
14.36543428191772
 40
14.38195208473886
 40
14.39399995829055
 40
14.40090198821259
 40
14.43048543375529
 40
14.45537734048874
 40
14.47598425191753
 40
14.4927123625185
 40
14.5172434753561
 40
14.5393382233863
 40
14.55886744457459
 40
14.57397313533322
 40
14.58542158635547
 40
14.5937709096243
 40
14.59957611327683
 40
14.60573341407758
 40
14.61034507177093
 40
14.61308586247169
 40
14.61545199579795
 40
14.61545199579795
 40
14.61545199579795
 40
14.61545199579795
 10
930.6857352287077
 20
1019.061646969796
 30
0.0
 10
930.691345041465
 20
1019.099821605728
 30
0.0
 10
930.702833250015
 20
1019.177998578454
 30
0.0
 10
930.7204775924214
 20
1019.297961018314
 30
0.0
 10
930.7389222031006
 20
1019.423277690654
 30
0.0
 10
930.7581512897303
 20
1019.55382124146
 30
0.0
 10
930.7781476098378
 20
1019.68946452978
 30
0.0
 10
930.798894334991
 20
1019.830080353825
 30
0.0
 10
930.8203745192749
 20
1019.975541529075
 30
0.0
 10
930.8425712501961
 20
1020.125720866094
 30
0.0
 10
930.8654676059418
 20
1020.280491176819
 30
0.0
 10
930.8890466674186
 20
1020.439725272788
 30
0.0
 10
930.913291514821
 20
1020.603295965644
 30
0.0
 10
930.9381852286616
 20
1020.771076066985
 30
0.0
 10
930.9637108891538
 20
1020.94293838845
 30
0.0
 10
930.9898515775838
 20
1021.118755741532
 30
0.0
 10
931.0165903712552
 20
1021.298400938282
 30
0.0
 10
931.0403189255601
 20
1021.457644470689
 30
0.0
 10
931.0610907988535
 20
1021.596917777923
 30
0.0
 10
931.078960577823
 20
1021.716645903783
 30
0.0
 10
931.0975869381041
 20
1021.841348076822
 30
0.0
 10
931.1169499363309
 20
1021.970878823659
 30
0.0
 10
931.13702963215
 20
1022.105092670456
 30
0.0
 10
931.1578060845518
 20
1022.243844143474
 30
0.0
 10
931.179259352868
 20
1022.386987768924
 30
0.0
 10
931.2013694964476
 20
1022.534378073015
 30
0.0
 10
931.2241165747196
 20
1022.685869581947
 30
0.0
 10
931.2474806471555
 20
1022.841316821912
 30
0.0
 10
931.2714417732497
 20
1023.000574319102
 30
0.0
 10
931.2959800125504
 20
1023.163496599703
 30
0.0
 10
931.3210754244733
 20
1023.329938189918
 30
0.0
 10
931.3467080689884
 20
1023.499753615877
 30
0.0
 10
931.3728580039269
 20
1023.672797404008
 30
0.0
 10
931.3969661021388
 20
1023.832141148778
 30
0.0
 10
931.4190967866584
 20
1023.978262442642
 30
0.0
 10
931.4393129854987
 20
1024.111622076024
 30
0.0
 10
931.4602256759755
 20
1024.249445396629
 30
0.0
 10
931.481807379731
 20
1024.391536977775
 30
0.0
 10
931.5040306202234
 20
1024.53770139249
 30
0.0
 10
931.5268679204795
 20
1024.687743213877
 30
0.0
 10
931.5502918037018
 20
1024.841467015008
 30
0.0
 10
931.5742747930063
 20
1024.998677368981
 30
0.0
 10
931.5987894117218
 20
1025.159178848844
 30
0.0
 10
931.6221313868573
 20
1025.311811500155
 30
0.0
 10
931.6443603095581
 20
1025.456995779322
 30
0.0
 10
931.6655315771401
 20
1025.595121612441
 30
0.0
 10
931.6873814551966
 20
1025.737511654231
 30
0.0
 10
931.7098687210241
 20
1025.883879057496
 30
0.0
 10
931.7302431458854
 20
1026.016327100167
 30
0.0
 10
931.7481050905921
 20
1026.132314340045
 30
0.0
 10
931.7630553982959
 20
1026.229310594822
 30
0.0
 10
931.7774161067555
 20
1026.322405010473
 30
0.0
 10
931.7911466405089
 20
1026.411344632694
 30
0.0
 10
931.8042064067274
 20
1026.495876509848
 30
0.0
 10
931.8165548274893
 20
1026.57574768799
 30
0.0
 10
931.8281512858475
 20
1026.650705219215
 30
0.0
 10
931.8378254789561
 20
1026.713197835334
 30
0.0
 10
931.8461146156722
 20
1026.766718183622
 30
0.0
 10
931.8535581859628
 20
1026.814760546684
 30
0.0
 10
931.8618291715159
 20
1026.868118926018
 30
0.0
 10
931.8708903857536
 20
1026.926545807125
 30
0.0
 10
931.8807046690594
 20
1026.989793671326
 30
0.0
 10
931.8912348551177
 20
1027.057615000981
 30
0.0
 10
931.9024437806062
 20
1027.129762277991
 30
0.0
 10
931.9142942818673
 20
1027.205987984305
 30
0.0
 10
931.9267491956734
 20
1027.286044601813
 30
0.0
 10
931.9397713588193
 20
1027.3696846124
 30
0.0
 10
931.9533236082284
 20
1027.456660497933
 30
0.0
 10
931.967368780485
 20
1027.546724740337
 30
0.0
 10
931.9818697133036
 20
1027.639629821362
 30
0.0
 10
931.9967892395956
 20
1027.735128223511
 30
0.0
 10
932.0120902103317
 20
1027.83297242647
 30
0.0
 10
932.0277354059607
 20
1027.932914920955
 30
0.0
 10
932.0405743274459
 20
1028.014840494065
 30
0.0
 10
932.0507739156535
 20
1028.079873059105
 30
0.0
 10
932.0585027795459
 20
1028.129127688121
 30
0.0
 10
932.0670518682757
 20
1028.18357715282
 30
0.0
 10
932.0763799170442
 20
1028.242948831771
 30
0.0
 10
932.0864457029617
 20
1028.306970096963
 30
0.0
 10
932.0972079921945
 20
1028.37536832211
 30
0.0
 10
932.1086255553214
 20
1028.447870880232
 30
0.0
 10
932.1206571622341
 20
1028.524205144464
 30
0.0
 10
932.1332615833451
 20
1028.604098487859
 30
0.0
 10
932.1463975890636
 20
1028.687278283479
 30
0.0
 10
932.1600239496676
 20
1028.77347190441
 30
0.0
 10
932.1740994357559
 20
1028.862406723693
 30
0.0
 10
932.1885828159439
 20
1028.953810114694
 30
0.0
 10
932.2034328655066
 20
1029.04740944972
 30
0.0
 10
932.218608332627
 20
1029.142932105423
 30
0.0
 10
932.2353321952917
 20
1029.248051211306
 30
0.0
 10
932.2532074256034
 20
1029.360218935471
 30
0.0
 10
932.271849649298
 20
1029.476980438986
 30
0.0
 10
932.2896128930614
 20
1029.588029725958
 30
0.0
 10
932.3064942946023
 20
1029.693373097013
 30
0.0
 10
932.3188430358327
 20
1029.770291139698
 30
0.0
 10
932.3272215424147
 20
1029.822421512594
 30
0.0
 10
932.3321864856432
 20
1029.85329693545
 30
0.0
 10
932.337942797824
 20
1029.889069919525
 30
0.0
 10
932.3444431207431
 20
1029.929436306929
 30
0.0
 10
932.3516401437947
 20
1029.974091932115
 30
0.0
 10
932.35948654479
 20
1030.022732631403
 30
0.0
 10
932.3679350075253
 20
1030.075054240155
 30
0.0
 10
932.3769382131353
 20
1030.130752594174
 30
0.0
 10
932.3864488508136
 20
1030.189523527956
 30
0.0
 10
932.3964195792892
 20
1030.251062880977
 30
0.0
 10
932.4086729739595
 20
1030.326591736055
 30
0.0
 10
932.422824239917
 20
1030.413667775964
 30
0.0
 10
932.4384999368062
 20
1030.509923205376
 30
0.0
 10
932.4534511333229
 20
1030.601542266849
 30
0.0
 10
932.4676609882692
 20
1030.688444964802
 30
0.0
 10
932.4811127077948
 20
1030.770551296027
 30
0.0
 10
932.4937894867863
 20
1030.847781259128
 30
0.0
 10
932.5056745234499
 20
1030.920054852166
 30
0.0
 10
932.5167510164001
 20
1030.987292073133
 30
0.0
 10
932.527002164428
 20
1031.049412919989
 30
0.0
 10
932.536411171734
 20
1031.106337389794
 30
0.0
 10
932.5449612330613
 20
1031.157985481171
 30
0.0
 10
932.552635586545
 20
1031.204277185565
 30
0.0
 10
932.5610054478443
 20
1031.254699640083
 30
0.0
 10
932.5701383558431
 20
1031.309633492147
 30
0.0
 10
932.5800997223323
 20
1031.369434747644
 30
0.0
 10
932.5893508336129
 20
1031.424869961061
 30
0.0
 10
932.5978628112034
 20
1031.475786165679
 30
0.0
 10
932.6056067351726
 20
1031.522030401693
 30
0.0
 10
932.6125537008832
 20
1031.563449706735
 30
0.0
 10
932.6186747958848
 20
1031.599891119735
 30
0.0
 10
932.623941145573
 20
1031.631201673276
 30
0.0
 10
932.6301725615117
 20
1031.668207375352
 30
0.0
 10
932.637887709988
 20
1031.713953352221
 30
0.0
 10
932.6475977270718
 20
1031.771391845553
 30
0.0
 10
932.6579394691422
 20
1031.832406285519
 30
0.0
 10
932.6688465058066
 20
1031.896567584822
 30
0.0
 10
932.6802523519325
 20
1031.963446665658
 30
0.0
 10
932.6929851812821
 20
1032.037841711083
 30
0.0
 10
932.7067602232696
 20
1032.117977312238
 30
0.0
 10
932.7186426170221
 20
1032.186747147693
 30
0.0
 10
932.7274232992205
 20
1032.237363242168
 30
0.0
 10
932.7330311668586
 20
1032.269616412031
 30
0.0
 10
932.7380861090026
 20
1032.298630695718
 30
0.0
 10
932.7425151861484
 20
1032.324006446834
 30
0.0
 10
932.7462454246914
 20
1032.345344024984
 30
0.0
 10
932.7570709964
 20
1032.4071833601
 30
0.0
 10
932.7752222433388
 20
1032.510277311229
 30
0.0
 10
932.7953041412764
 20
1032.62290083107
 30
0.0
 10
932.8092154732642
 20
1032.700127162102
 30
0.0
 10
932.8165922620653
 20
1032.7408756642
 30
0.0
 10
932.823083185581
 20
1032.77656273928
 30
0.0
 10
932.8286525204758
 20
1032.807047974708
 30
0.0
 10
932.8332645320669
 20
1032.832190959449
 30
0.0
 10
932.837316771041
 20
1032.854204421119
 30
0.0
 10
932.8413668181975
 20
1032.876137475282
 30
0.0
 10
932.8459555890003
 20
1032.90089166384
 30
0.0
 10
932.8511661624955
 20
1032.928869268148
 30
0.0
 10
932.8569001500061
 20
1032.959489494477
 30
0.0
 10
932.8630593751567
 20
1032.992171510899
 30
0.0
 10
932.870606976924
 20
1033.031930763054
 30
0.0
 10
932.8792259493267
 20
1033.076831868416
 30
0.0
 10
932.8886490783953
 20
1033.125149638023
 30
0.0
 10
932.8969024829485
 20
1033.166736426299
 30
0.0
 10
932.9040522101363
 20
1033.202135888452
 30
0.0
 10
932.909628763492
 20
1033.229290381051
 30
0.0
 10
932.9142023438317
 20
1033.251214142021
 30
0.0
 10
932.9175656518614
 20
1033.267155751129
 30
0.0
 10
932.9200283164919
 20
1033.278718994437
 30
0.0
 10
932.9234228852944
 20
1033.294536628866
 30
0.0
 10
932.9277705954826
 20
1033.314528564996
 30
0.0
 10
932.9332213308554
 20
1033.338955341707
 30
0.0
 10
932.937851942477
 20
1033.359174287605
 30
0.0
 10
932.9425689708102
 20
1033.379249688009
 30
0.0
 10
932.94754728997
 20
1033.399772857449
 30
0.0
 10
932.9529902685424
 20
1033.42114295182
 30
0.0
 10
932.9579296739752
 20
1033.4393970668
 30
0.0
 10
932.9622267605664
 20
1033.454146788891
 30
0.0
 10
932.9657447544712
 20
1033.465236359817
 30
0.0
 10
932.9685558157576
 20
1033.473299797894
 30
0.0
 10
932.9710168009142
 20
1033.479599742739
 30
0.0
 10
932.9732467486565
 20
1033.484687121301
 30
0.0
 10
932.9754768769552
 20
1033.488543082401
 30
0.0
 10
932.9773928654081
 20
1033.491305069715
 30
0.0
 10
932.979024787815
 20
1033.491909413692
 30
0.0
 10
932.9797808879594
 20
1033.49218941755
 30
0.0
 11
930.6857352287077
 21
1019.061646969796
 31
0.0
 11
930.7025670557034
 21
1019.176170526446
 31
0.0
 11
930.72021694742
 21
1019.296175374984
 31
0.0
 11
930.7386679850083
 21
1019.421534326902
 31
0.0
 11
930.7579032496185
 21
1019.552120193689
 31
0.0
 11
930.7779058224015
 21
1019.687805786835
 31
0.0
 11
930.7986587845076
 21
1019.828463917831
 31
0.0
 11
930.8201452170873
 21
1019.973967398167
 31
0.0
 11
930.8423482012913
 21
1020.124189039333
 31
0.0
 11
930.8652508182698
 21
1020.27900165282
 31
0.0
 11
930.8888361491737
 21
1020.438278050116
 31
0.0
 11
930.9130872751535
 21
1020.601891042714
 31
0.0
 11
930.9379872773595
 21
1020.769713442103
 31
0.0
 11
930.9635192369424
 21
1020.941618059772
 31
0.0
 11
930.9896662350529
 21
1021.117477707213
 31
0.0
 11
931.0164113528412
 21
1021.297165195916
 31
0.0
 11
931.0437376714576
 21
1021.48055333737
 31
0.0
 11
931.0608381683876
 21
1021.595210344436
 31
0.0
 11
931.0787151877481
 21
1021.714986872251
 31
0.0
 11
931.0973487899616
 21
1021.839737446851
 31
0.0
 11
931.1167190354515
 21
1021.969316594272
 31
0.0
 11
931.1368059846402
 21
1022.10357884055
 31
0.0
 11
931.1575896979504
 21
1022.242378711721
 31
0.0
 11
931.1790502358051
 21
1022.385570733821
 31
0.0
 11
931.2011676586274
 21
1022.533009432887
 31
0.0
 11
931.2239220268393
 21
1022.684549334954
 31
0.0
 11
931.2472934008642
 21
1022.840044966059
 31
0.0
 11
931.2712618411248
 21
1022.999350852238
 31
0.0
 11
931.2958074080436
 21
1023.162321519526
 31
0.0
 11
931.3209101620437
 21
1023.32881149396
 31
0.0
 11
931.3465501635481
 21
1023.498675301577
 31
0.0
 11
931.3727074729791
 21
1023.671767468411
 31
0.0
 11
931.3993621507595
 21
1023.8479425205
 31
0.0
 11
931.4188642664238
 21
1023.976708070887
 31
0.0
 11
931.4390903611542
 21
1024.110132733571
 31
0.0
 11
931.4600129597636
 21
1024.248021081354
 31
0.0
 11
931.4816045870647
 21
1024.390177687042
 31
0.0
 11
931.5038377678702
 21
1024.536407123436
 31
0.0
 11
931.5266850269929
 21
1024.686513963341
 31
0.0
 11
931.550118889245
 21
1024.840302779559
 31
0.0
 11
931.5741118794399
 21
1024.997578144894
 31
0.0
 11
931.5986365223898
 21
1025.15814463215
 31
0.0
 11
931.6236653429078
 21
1025.32180681413
 31
0.0
 11
931.6441314373534
 21
1025.455477064681
 31
0.0
 11
931.6653174134467
 21
1025.59369836324
 31
0.0
 11
931.6871820342026
 21
1025.736183864776
 31
0.0
 11
931.7096840626348
 21
1025.882646724261
 31
0.0
 11
931.7327822617588
 21
1026.032800096663
 31
0.0
 11
931.7482945308756
 21
1026.133529643915
 31
0.0
 11
931.7632578188186
 21
1026.230610299981
 31
0.0
 11
931.7776315362316
 21
1026.323789112675
 31
0.0
 11
931.7913750937593
 21
1026.412813129806
 31
0.0
 11
931.804447902045
 21
1026.497429399188
 31
0.0
 11
931.8168093717331
 21
1026.57738496863
 31
0.0
 11
931.8284189134677
 21
1026.652426885943
 31
0.0
 11
931.8392359378925
 21
1026.722302198941
 31
0.0
 11
931.8458277558163
 21
1026.764863465692
 31
0.0
 11
931.8532841298505
 21
1026.812988270239
 31
0.0
 11
931.8615678987737
 21
1026.866429094145
 31
0.0
 11
931.8706419013639
 21
1026.924938418973
 31
0.0
 11
931.8804689763995
 21
1026.988268726285
 31
0.0
 11
931.8910119626587
 21
1027.056172497643
 31
0.0
 11
931.9022336989201
 21
1027.12840221461
 31
0.0
 11
931.9140970239619
 21
1027.204710358748
 31
0.0
 11
931.9265647765622
 21
1027.284849411619
 31
0.0
 11
931.9395997954993
 21
1027.368571854787
 31
0.0
 11
931.9531649195518
 21
1027.455630169813
 31
0.0
 11
931.9672229874982
 21
1027.545776838259
 31
0.0
 11
931.9817368381159
 21
1027.638764341689
 31
0.0
 11
931.996669310184
 21
1027.734345161665
 31
0.0
 11
932.0119832424807
 21
1027.832271779749
 31
0.0
 11
932.0276414737846
 21
1027.932296677504
 31
0.0
 11
932.043606842873
 21
1028.034172336491
 31
0.0
 11
932.0504885747448
 21
1028.07805028756
 31
0.0
 11
932.0582317303702
 21
1028.127395705975
 31
0.0
 11
932.0667950831917
 21
1028.181935964289
 31
0.0
 11
932.0761374066523
 21
1028.241398435052
 31
0.0
 11
932.0862174741943
 21
1028.305510490816
 31
0.0
 11
932.0969940592612
 21
1028.373999504129
 31
0.0
 11
932.1084259352958
 21
1028.446592847545
 31
0.0
 11
932.1204718757406
 21
1028.523017893614
 31
0.0
 11
932.1330906540381
 21
1028.603002014886
 31
0.0
 11
932.146241043632
 21
1028.686272583913
 31
0.0
 11
932.1598818179647
 21
1028.772556973246
 31
0.0
 11
932.1739717504788
 21
1028.861582555435
 31
0.0
 11
932.1884696146174
 21
1028.953076703031
 31
0.0
 11
932.203334183823
 21
1029.046766788585
 31
0.0
 11
932.2185242315389
 21
1029.142380184649
 31
0.0
 11
932.2339985312076
 21
1029.239644263772
 31
0.0
 11
932.2535170011784
 21
1029.362122310395
 31
0.0
 11
932.2721591671231
 21
1029.478881870197
 31
0.0
 11
932.2899222986121
 21
1029.589929222777
 31
0.0
 11
932.3068036652153
 21
1029.695270647731
 31
0.0
 11
932.3228005365033
 21
1029.794912424657
 31
0.0
 11
932.3269431602347
 21
1029.820687414386
 31
0.0
 11
932.3319244322023
 21
1029.851664135804
 31
0.0
 11
932.3376970400595
 21
1029.88753842362
 31
0.0
 11
932.34421367146
 21
1029.928006112545
 31
0.0
 11
932.3514270140576
 21
1029.972763037287
 31
0.0
 11
932.3592897555052
 21
1030.021505032556
 31
0.0
 11
932.3677545834563
 21
1030.073927933062
 31
0.0
 11
932.3767741855647
 21
1030.129727573514
 31
0.0
 11
932.3863012494837
 21
1030.188599788623
 31
0.0
 11
932.3962884628669
 21
1030.250240413097
 31
0.0
 11
932.406688513368
 21
1030.314345281647
 31
0.0
 11
932.4230764647665
 21
1030.415183908443
 31
0.0
 11
932.4387567005892
 21
1030.511466172796
 31
0.0
 11
932.4537124159256
 21
1030.603112073259
 31
0.0
 11
932.4679268058642
 21
1030.690041608381
 31
0.0
 11
932.4813830654941
 21
1030.772174776713
 31
0.0
 11
932.4940643899047
 21
1030.849431576806
 31
0.0
 11
932.5059539741848
 21
1030.921732007212
 31
0.0
 11
932.5170350134235
 21
1030.98899606648
 31
0.0
 11
932.5272907027096
 21
1031.051143753161
 31
0.0
 11
932.5367042371322
 21
1031.108095065807
 31
0.0
 11
932.5452588117803
 21
1031.159770002967
 31
0.0
 11
932.5529376217435
 21
1031.206088563194
 31
0.0
 11
932.5597238621101
 21
1031.246970745036
 31
0.0
 11
932.570375119359
 21
1031.311036246455
 31
0.0
 11
932.5803450846642
 21
1031.370888659138
 31
0.0
 11
932.5896048413894
 21
1031.426375022689
 31
0.0
 11
932.5981254728979
 21
1031.47734237671
 31
0.0
 11
932.6058780625531
 21
1031.523637760803
 31
0.0
 11
932.6128336937197
 21
1031.565108214573
 31
0.0
 11
932.6189634497599
 21
1031.601600777619
 31
0.0
 11
932.624238414038
 21
1031.632962489547
 31
0.0
 11
932.6286296699177
 21
1031.659040389958
 31
0.0
 11
932.6376656851577
 21
1031.712616535991
 31
0.0
 11
932.6474000042973
 21
1031.770197688685
 31
0.0
 11
932.6577661815345
 21
1031.831354762832
 31
0.0
 11
932.6686977710684
 21
1031.895658673222
 31
0.0
 11
932.6801283270969
 21
1031.962680334646
 31
0.0
 11
932.6919914038188
 21
1032.031990661896
 31
0.0
 11
932.7069214719074
 21
1032.118839444166
 31
0.0
 11
932.7214788370129
 21
1032.203082694185
 31
0.0
 11
932.7275896975352
 21
1032.238308543036
 31
0.0
 11
932.7332207246136
 21
1032.270695126794
 31
0.0
 11
932.7382989296098
 21
1032.299842807408
 31
0.0
 11
932.7427513238865
 21
1032.325351946824
 31
0.0
 11
932.7465049188048
 21
1032.346822906989
 31
0.0
 11
932.7494867257269
 21
1032.363856049849
 31
0.0
 11
932.7753772720648
 21
1032.510843744581
 31
0.0
 11
932.8012817193244
 21
1032.656047278517
 31
0.0
 11
932.8095175559622
 21
1032.701764120966
 31
0.0
 11
932.8169033466819
 21
1032.742559938163
 31
0.0
 11
932.8234033052552
 21
1032.778294328283
 31
0.0
 11
932.8289816454533
 21
1032.808826889503
 31
0.0
 11
932.833602581048
 21
1032.834017220001
 31
0.0
 11
932.8372303258111
 21
1032.853724917954
 31
0.0
 11
932.8411347138099
 21
1032.874867934456
 31
0.0
 11
932.845759415446
 21
1032.899815133045
 31
0.0
 11
932.8510061800979
 21
1032.927985691574
 31
0.0
 11
932.8567767571445
 21
1032.958798787902
 31
0.0
 11
932.8629728959637
 21
1032.991673599883
 31
0.0
 11
932.8694963459345
 21
1033.026029305372
 31
0.0
 11
932.8794898608423
 21
1033.078063009987
 31
0.0
 11
932.8889139252433
 21
1033.12636027652
 31
0.0
 11
932.8977751205198
 21
1033.170980053061
 31
0.0
 11
932.9042110775624
 21
1033.202830367177
 31
0.0
 11
932.9103208656271
 21
1033.232566611402
 31
0.0
 11
932.9144688904463
 21
1033.252450452283
 31
0.0
 11
932.9178791832744
 21
1033.268612373978
 31
0.0
 11
932.9203895119323
 21
1033.280395816053
 31
0.0
 11
932.9218376442398
 21
1033.287144218076
 31
0.0
 11
932.9281312177179
 21
1033.316050466242
 31
0.0
 11
932.9335571666493
 21
1033.340343800699
 31
0.0
 11
932.9381614065645
 21
1033.360429760309
 31
0.0
 11
932.9419898529937
 21
1033.376713883933
 31
0.0
 11
932.9477864483766
 21
1033.400550305204
 31
0.0
 11
932.9532575652967
 21
1033.421956957679
 31
0.0
 11
932.9583828439572
 21
1033.440801638596
 31
0.0
 11
932.9626326281681
 21
1033.455297197483
 31
0.0
 11
932.9661167192776
 21
1033.466202615401
 31
0.0
 11
932.9688911227597
 21
1033.474077504883
 31
0.0
 11
932.9710118440884
 21
1033.479481478467
 31
0.0
 11
932.9735621931491
 21
1033.485085769039
 31
0.0
 11
932.9758784797392
 21
1033.489073525691
 31
0.0
 11
932.9776467758518
 21
1033.491167579779
 31
0.0
 11
932.9797808879594
 21
1033.49218941755
 31
0.0
  0
SPLINE
  5
207
330
1F
100
AcDbEntity
  8
0
  6
Continuous
 62
     7
100
AcDbSpline
210
0.0
220
0.0
230
1.0
 70
     8
 71
     3
 72
    11
 73
     7
 74
     5
 42
0.0000000001
 43
0.0000000001
 44
0.00000001
 40
0.0
 40
0.0
 40
0.0
 40
0.0
 40
4.0490106439328
 40
8.093620585161252
 40
12.14053798365364
 40
16.18279443051974
 40
16.18279443051974
 40
16.18279443051974
 40
16.18279443051974
 10
885.1129344923359
 20
654.0949251536769
 30
0.0
 10
885.209534796981
 20
655.4411465019032
 30
0.0
 10
885.4026304153831
 20
658.132126045885
 30
0.0
 10
885.7437225746472
 20
662.1646583222707
 30
0.0
 10
886.1188260991246
 20
666.1919076681729
 30
0.0
 10
886.4030069841614
 20
668.8733067929853
 30
0.0
 10
886.5450155547002
 20
670.2132338493328
 30
0.0
 11
885.1129344923359
 21
654.0949251536769
 31
0.0
 11
885.4113190199931
 21
658.1329263756103
 31
0.0
 11
885.7493563297683
 21
662.1633854504408
 31
0.0
 11
886.1275081039928
 21
666.1925964980122
 31
0.0
 11
886.5450155547002
 21
670.2132338493328
 31
0.0
  0
SPLINE
  5
208
330
1F
100
AcDbEntity
  8
0
  6
Continuous
 62
     7
100
AcDbSpline
210
0.0
220
0.0
230
1.0
 70
     8
 71
     3
 72
    11
 73
     7
 74
     5
 42
0.0000000001
 43
0.0000000001
 44
0.00000001
 40
0.0
 40
0.0
 40
0.0
 40
0.0
 40
8.6128870399387
 40
17.17173167741924
 40
25.71795380124117
 40
34.20970216139493
 40
34.20970216139493
 40
34.20970216139493
 40
34.20970216139493
 10
905.3744889719937
 20
831.2850303426088
 30
0.0
 10
905.7311723675418
 20
834.1337498072646
 30
0.0
 10
906.4423011137733
 20
839.8133141675631
 30
0.0
 10
907.5153572638815
 20
848.3185429871213
 30
0.0
 10
908.588606580706
 20
856.7830460760508
 30
0.0
 10
909.3081652517318
 20
862.4166021260364
 30
0.0
 10
909.6667943015038
 20
865.2243743542068
 30
0.0
 11
905.3744889719937
 21
831.2850303426088
 31
0.0
 11
906.4458837698818
 21
839.8310198318255
 31
0.0
 11
907.5167618900288
 21
848.3226063490978
 31
0.0
 11
908.5921922212066
 21
856.8008940413436
 31
0.0
 11
909.6667943015038
 21
865.2243743542068
 31
0.0
  0
SPLINE
  5
209
330
1F
100
AcDbEntity
  8
0
  6
Continuous
 62
     7
100
AcDbSpline
210
0.0
220
0.0
230
1.0
 70
     8
 71
     3
 72
    19
 73
    15
 74
    13
 42
0.0000000001
 43
0.0000000001
 44
0.00000001
 40
0.0
 40
0.0
 40
0.0
 40
0.0
 40
2.553235866851163
 40
5.111186812007767
 40
7.977306639849941
 40
10.22031205466509
 40
15.32417182183817
 40
20.43113146446355
 40
30.60263874493003
 40
40.82127257426076
 40
61.3551834609154
 40
81.46366647439612
 40
121.3870332666013
 40
162.1703076825045
 40
162.1703076825045
 40
162.1703076825045
 40
162.1703076825045
 10
886.5450155547002
 20
670.2132338493328
 30
0.0
 10
886.6371629355366
 20
671.0593093126067
 30
0.0
 10
886.8216278664138
 20
672.7530226925544
 30
0.0
 10
887.1103886772085
 20
675.3963996994308
 30
0.0
 10
887.3885574193529
 20
677.936908354504
 30
0.0
 10
887.7599545857219
 20
681.3209171767121
 30
0.0
 10
888.2143204605242
 20
685.4472517454071
 30
0.0
 10
888.9613296735868
 20
692.2001693157627
 30
0.0
 10
889.9021077771392
 20
700.6469756446984
 30
0.0
 10
891.4256729585699
 20
714.2029792976299
 30
0.0
 10
893.3443263513786
 20
731.0477534529656
 30
0.0
 10
896.4380949094808
 20
757.7242124041775
 30
0.0
 10
900.398242035852
 20
791.0952435134568
 30
0.0
 10
903.7039993406893
 20
817.793613408527
 30
0.0
 10
905.3744889719937
 20
831.2850303426088
 30
0.0
 11
886.5450155547002
 21
670.2132338493328
 31
0.0
 11
886.8215946186716
 21
672.751445308835
 31
0.0
 11
887.0993339624873
 21
675.294273241418
 31
0.0
 11
887.4113000589732
 21
678.1433643284479
 31
0.0
 11
887.6560004538583
 21
680.372982010391
 31
0.0
 11
888.2146303647195
 21
685.4461779602493
 31
0.0
 11
888.776137434633
 21
690.5221750644488
 31
0.0
 11
889.9020516438427
 21
700.6311748938128
 31
0.0
 11
891.0433231917216
 21
710.785877085012
 31
0.0
 11
893.3673993665884
 21
731.1878418490853
 31
0.0
 11
895.6831250452301
 21
751.1625384346338
 31
0.0
 11
900.3976200491037
 21
790.8065638720614
 31
0.0
 11
905.3744889719937
 21
831.2850303426088
 31
0.0
  0
SPLINE
  5
20A
330
1F
100
AcDbEntity
  8
0
  6
Continuous
 62
     7
100
AcDbSpline
210
0.0
220
0.0
230
1.0
 70
     8
 71
     3
 72
    11
 73
     7
 74
     5
 42
0.0000000001
 43
0.0000000001
 44
0.00000001
 40
0.0
 40
0.0
 40
0.0
 40
0.0
 40
38.63053022769241
 40
77.20596146621725
 40
116.2686074626544
 40
155.268335589542
 40
155.268335589542
 40
155.268335589542
 40
155.268335589542
 10
909.6667943015038
 20
865.2243743542068
 30
0.0
 10
911.3162774000298
 20
877.9951561343816
 30
0.0
 10
914.6128909280699
 20
903.5185046414346
 30
0.0
 10
919.7870289878882
 20
941.9279197140376
 30
0.0
 10
925.119098818464
 20
980.4399818144594
 30
0.0
 10
928.8311870665987
 20
1006.194677968621
 30
0.0
 10
930.6857352287077
 20
1019.061646969796
 30
0.0
 11
909.6667943015038
 21
865.2243743542068
 31
0.0
 11
914.650086931987
 21
903.532136755992
 31
0.0
 11
919.788599656658
 21
941.7637935631009
 31
0.0
 11
925.1579042367603
 21
980.4556645513209
 31
0.0
 11
930.6857352287077
 21
1019.061646969796
 31
0.0
  0
SPLINE
  5
20B
330
1F
100
AcDbEntity
  8
0
  6
Continuous
 62
     7
100
AcDbSpline
210
0.0
220
0.0
230
1.0
 70
     8
 71
     3
 72
   180
 73
   176
 74
   174
 42
0.0000000001
 43
0.0000000001
 44
0.00000001
 40
0.0
 40
0.0
 40
0.0
 40
0.0
 40
0.554859734271443
 40
1.106673008503981
 40
1.655427148695788
 40
1.73754752301605
 40
1.816183752361449
 40
1.891214103725682
 40
1.962516844100398
 40
2.029970240475928
 40
2.093452559841698
 40
2.152842069186193
 40
2.208017035496583
 40
2.258855725758767
 40
2.305236406959123
 40
2.347037346081031
 40
2.384136810109042
 40
2.416413066027074
 40
2.443744380817915
 40
2.4660090214661
 40
2.483085254958552
 40
2.51964048740846
 40
2.561113167034
 40
2.607174502266475
 40
2.657495701557148
 40
2.711747973380942
 40
2.769602526238064
 40
2.830730568657033
 40
2.89480330920087
 40
2.995729938521959
 40
3.099402927004177
 40
3.116764592301127
 40
3.138181795412073
 40
3.163574355401012
 40
3.19286209134027
 40
3.225964822315861
 40
3.262802367430482
 40
3.303294545806233
 40
3.420858653257033
 40
3.535629179856718
 40
3.647496241419888
 40
3.756349953608271
 40
3.86208043193867
 40
3.964577791789896
 40
4.063732148410548
 40
4.159433616922491
 40
4.251572312330104
 40
4.340038349523638
 40
4.42472184328517
 40
4.505512908293877
 40
4.582301659130324
 40
4.654978210281247
 40
4.723432676144531
 40
4.787555171031947
 40
4.847235809175359
 40
4.902364704729567
 40
4.952831971777967
 40
4.998527724335032
 40
5.086146869229183
 40
5.178615952066219
 40
5.275733872829176
 40
5.37729953177388
 40
5.483111829448537
 40
5.592969666718399
 40
5.706671944786636
 40
5.824017565220411
 40
5.944805429978408
 40
6.068834441439824
 40
6.19590350243762
 40
6.325811516291609
 40
6.4583573868503
 40
6.593340018529586
 40
6.682114462010536
 40
6.767256056822919
 40
6.848611568248814
 40
6.92602776135381
 40
6.99935140100165
 40
7.068429251863476
 40
7.13310807843065
 40
7.193234645026091
 40
7.248655715812133
 40
7.29921805480341
 40
7.344768425874094
 40
7.398563849848149
 40
7.456965589091952
 40
7.519742975122513
 40
7.586665339652446
 40
7.657502014605638
 40
7.732022332139902
 40
7.809995624666749
 40
7.891191224877936
 40
7.975378465768601
 40
8.062326680670633
 40
8.196482841662094
 40
8.334640179653198
 40
8.476475819741568
 40
8.621666889173238
 40
8.769890517563717
 40
8.92082383714494
 40
9.074143983043417
 40
9.229528093595505
 40
9.386653310703398
 40
9.517017726618013
 40
9.642717594143603
 40
9.763819545945568
 40
9.8803902136613
 40
9.992496227860087
 40
10.10020421800852
 40
10.20358081243012
 40
10.30269263826531
 40
10.39760632143189
 40
10.48838848658254
 40
10.57510575706636
 40
10.6578247548841
 40
10.73661210065017
 40
10.81153441355445
 40
10.88265831132418
 40
10.95005041019411
 40
11.1167013602976
 40
11.28523190800309
 40
11.33669857403399
 40
11.38441175957451
 40
11.42817529545995
 40
11.46779301113826
 40
11.5030687347754
 40
11.5338062933568
 40
11.55980951277641
 40
11.58088221792597
 40
11.59682823279306
 40
11.71094587360737
 40
11.8228278225686
 40
11.93215826842458
 40
12.03862142682733
 40
12.14190154666096
 40
12.18328385138569
 40
12.22186665177785
 40
12.25746041221558
 40
12.28987559217608
 40
12.31892264668859
 40
12.3444120267399
 40
12.36615417964133
 40
12.38395954937301
 40
12.39763857693401
 40
12.45792064627788
 40
12.51525852143735
 40
12.56973538395464
 40
12.62143441591094
 40
12.66160319903941
 40
12.69760629128321
 40
12.72938106409336
 40
12.75686486638757
 40
12.77999502524934
 40
12.79870884669963
 40
12.81294361671937
 40
12.86951036085777
 40
12.92209669111091
 40
12.97072075619379
 40
12.99923236765746
 40
13.02995559273967
 40
13.06186497387318
 40
13.09393561380785
 40
13.11896633353379
 40
13.14217702036771
 40
13.15287387354047
 40
13.16631507115098
 40
13.18128300386797
 40
13.20243016368586
 40
13.21967239935294
 40
13.23301347174838
 40
13.23763053829651
 40
13.24049482089403
 40
13.2434776515313
 40
13.24594419379746
 40
13.2494834847082
 40
13.25161377862605
 40
13.25161377862605
 40
13.25161377862605
 40
13.25161377862605
 10
245.3885914619316
 20
1020.365022903395
 30
0.0
 10
245.415045089253
 20
1020.548074558308
 30
0.0
 10
245.4678071001278
 20
1020.913172822144
 30
0.0
 10
245.5467710020042
 20
1021.459302779083
 30
0.0
 10
245.6032055795538
 20
1021.849471781362
 30
0.0
 10
245.6370692895314
 20
1022.083538423815
 30
0.0
 10
245.6483236243738
 20
1022.161324132077
 30
0.0
 10
245.6590622099718
 20
1022.235541036743
 30
0.0
 10
245.6692675288998
 20
1022.306068671745
 30
0.0
 10
245.6789220662159
 20
1022.372786570656
 30
0.0
 10
245.6880083063897
 20
1022.435574267134
 30
0.0
 10
245.6965087340891
 20
1022.494311294806
 30
0.0
 10
245.7044058339829
 20
1022.548877187301
 30
0.0
 10
245.7116820909017
 20
1022.599151478227
 30
0.0
 10
245.718319989606
 20
1022.645013701198
 30
0.0
 10
245.7243020157495
 20
1022.6863433897
 30
0.0
 10
245.7296106532678
 20
1022.723020077468
 30
0.0
 10
245.7342283933321
 20
1022.75492329719
 30
0.0
 10
245.7381377090339
 20
1022.781932584172
 30
0.0
 10
245.7413211323852
 20
1022.80392746519
 30
0.0
 10
245.7449445237652
 20
1022.828965343851
 30
0.0
 10
245.7494840112306
 20
1022.860340025769
 30
0.0
 10
245.7554062155227
 20
1022.901276953904
 30
0.0
 10
245.7619841097099
 20
1022.946755449245
 30
0.0
 10
245.7691703316851
 20
1022.996450149179
 30
0.0
 10
245.7769174211882
 20
1023.050035705296
 30
0.0
 10
245.7851779445905
 20
1023.107186765333
 30
0.0
 10
245.7939044740394
 20
1023.167577976196
 30
0.0
 10
245.8046812345681
 20
1023.242179405658
 30
0.0
 10
245.8174809639382
 20
1023.33081745783
 30
0.0
 10
245.8280495389817
 20
1023.404045835953
 30
0.0
 10
245.8348313563742
 20
1023.45104299202
 30
0.0
 10
245.8378866619026
 20
1023.472214141666
 30
0.0
 10
245.8415094479311
 20
1023.497319935935
 30
0.0
 10
245.8456880288507
 20
1023.526281049647
 30
0.0
 10
245.8504106057866
 20
1023.559018173965
 30
0.0
 10
245.8556654135509
 20
1023.59545199519
 30
0.0
 10
245.8649372240058
 20
1023.659751560702
 30
0.0
 10
245.8779108499694
 20
1023.749763680315
 30
0.0
 10
245.8942678830034
 20
1023.863325623678
 30
0.0
 10
245.9102009047532
 20
1023.974015210801
 30
0.0
 10
245.925695063365
 20
1024.081723561708
 30
0.0
 10
245.9407355124998
 20
1024.186341795637
 30
0.0
 10
245.9553074043951
 20
1024.28776103203
 30
0.0
 10
245.9693958916433
 20
1024.385872390277
 30
0.0
 10
245.9829861267308
 20
1024.480566989781
 30
0.0
 10
245.9960632621466
 20
1024.571735949948
 30
0.0
 10
246.0086124503443
 20
1024.659270390187
 30
0.0
 10
246.0206188437367
 20
1024.743061429912
 30
0.0
 10
246.0320675946839
 20
1024.823000188547
 30
0.0
 10
246.0429438554507
 20
1024.898977785525
 30
0.0
 10
246.0532327782516
 20
1024.970885340291
 30
0.0
 10
246.0629195149418
 20
1025.038613972337
 30
0.0
 10
246.0719892178642
 20
1025.102054801087
 30
0.0
 10
246.0804270366544
 20
1025.161098946351
 30
0.0
 10
246.0882181284515
 20
1025.215637526869
 30
0.0
 10
246.095347623346
 20
1025.265561665243
 30
0.0
 10
246.1040057466638
 20
1025.326207463949
 30
0.0
 10
246.1146382195869
 20
1025.40071395923
 30
0.0
 10
246.1276842909255
 20
1025.492190397708
 30
0.0
 10
246.1413779317083
 20
1025.588270359186
 30
0.0
 10
246.1556893213525
 20
1025.688754960988
 30
0.0
 10
246.1705886853208
 20
1025.793445313871
 30
0.0
 10
246.1860462355661
 20
1025.902142530522
 30
0.0
 10
246.2020321877083
 20
1026.014647723103
 30
0.0
 10
246.2185167562069
 20
1026.130762003947
 30
0.0
 10
246.2354701557676
 20
1026.25028648535
 30
0.0
 10
246.2528626010439
 20
1026.373022279622
 30
0.0
 10
246.2706643065273
 20
1026.498770499091
 30
0.0
 10
246.2888454874877
 20
1026.627332255988
 30
0.0
 10
246.3073763563384
 20
1026.758508662925
 30
0.0
 10
246.3239709003409
 20
1026.876111280185
 30
0.0
 10
246.3383438751022
 20
1026.978069412668
 30
0.0
 10
246.3502127151318
 20
1027.062328101677
 30
0.0
 10
246.3615452914556
 20
1027.142838868532
 30
0.0
 10
246.3723213184102
 20
1027.219449822304
 30
0.0
 10
246.3825205120488
 20
1027.292009071816
 30
0.0
 10
246.3921225877804
 20
1027.36036472598
 30
0.0
 10
246.4011072610539
 20
1027.424364893701
 30
0.0
 10
246.4094542464236
 20
1027.483857684013
 30
0.0
 10
246.4171432596637
 20
1027.538691205775
 30
0.0
 10
246.4241540099658
 20
1027.588713568769
 30
0.0
 10
246.4310863681427
 20
1027.638199740089
 30
0.0
 10
246.4383777981394
 20
1027.690274259404
 30
0.0
 10
246.4464610235104
 20
1027.748036267448
 30
0.0
 10
246.4551454513797
 20
1027.810132426723
 30
0.0
 10
246.4643979930378
 20
1027.876334451139
 30
0.0
 10
246.4741855662633
 20
1027.946414053702
 30
0.0
 10
246.4844750864446
 20
1028.020142947751
 30
0.0
 10
246.4952334694715
 20
1028.097292846563
 30
0.0
 10
246.5064276307171
 20
1028.177635463478
 30
0.0
 10
246.5180244866089
 20
1028.260942511711
 30
0.0
 10
246.5320423871529
 20
1028.361736282431
 30
0.0
 10
246.5485182356427
 20
1028.480351392401
 30
0.0
 10
246.5674814052171
 20
1028.617092468108
 30
0.0
 10
246.5869170336748
 20
1028.757481524703
 30
0.0
 10
246.6067769328348
 20
1028.901199272965
 30
0.0
 10
246.6270129130037
 20
1029.047926423937
 30
0.0
 10
246.6475767847067
 20
1029.197343688638
 30
0.0
 10
246.6684203605004
 20
1029.349131777854
 30
0.0
 10
246.6894954465101
 20
1029.502971403214
 30
0.0
 10
246.7094821661134
 20
1029.649236740668
 30
0.0
 10
246.7280841686542
 20
1029.78570458714
 30
0.0
 10
246.7450259609862
 20
1029.910279934551
 30
0.0
 10
246.7613108215151
 20
1030.030304375806
 30
0.0
 10
246.7769502226938
 20
1030.145843584556
 30
0.0
 10
246.7919556422714
 20
1030.256963233702
 30
0.0
 10
246.8063385565582
 20
1030.363728996349
 30
0.0
 10
246.8201104421143
 20
1030.466206545561
 30
0.0
 10
246.8332827753118
 20
1030.564461554428
 30
0.0
 10
246.8458670324048
 20
1030.658559696052
 30
0.0
 10
246.8578746895604
 20
1030.748566643548
 30
0.0
 10
246.8693172225686
 20
1030.834548070077
 30
0.0
 10
246.8802061077628
 20
1030.916569648724
 30
0.0
 10
246.8905528186742
 20
1030.994697052957
 30
0.0
 10
246.9003688374691
 20
1031.068995955053
 30
0.0
 10
246.909665615163
 20
1031.139532031571
 30
0.0
 10
246.9229275921182
 20
1031.240386132471
 30
0.0
 10
246.9403526127766
 20
1031.373441197603
 30
0.0
 10
246.9569813138358
 20
1031.50124670262
 30
0.0
 10
246.9684404595768
 20
1031.589744694542
 30
0.0
 10
246.9745455055756
 20
1031.636999756955
 30
0.0
 10
246.9801326937302
 20
1031.680339245994
 30
0.0
 10
246.9851796511408
 20
1031.719568248944
 30
0.0
 10
246.9896640176769
 20
1031.754491851338
 30
0.0
 10
246.9935634200073
 20
1031.784915140418
 30
0.0
 10
246.9968555038404
 20
1031.810643200966
 30
0.0
 10
246.9995178345443
 20
1031.831481128075
 30
0.0
 10
247.0058951629879
 20
1031.881454639549
 30
0.0
 10
247.0160649175765
 20
1031.96145941695
 30
0.0
 10
247.0300508206379
 20
1032.072357679334
 30
0.0
 10
247.0436019385173
 20
1032.18073901166
 30
0.0
 10
247.0566730433851
 20
1032.286290687453
 30
0.0
 10
247.0668526196315
 20
1032.369377984297
 30
0.0
 10
247.074217182032
 20
1032.430014135035
 30
0.0
 10
247.0788385053793
 20
1032.468255536863
 30
0.0
 10
247.0830813753286
 20
1032.503531878972
 30
0.0
 10
247.0869275982064
 20
1032.535654432688
 30
0.0
 10
247.0903590344898
 20
1032.564434462535
 30
0.0
 10
247.0933575180158
 20
1032.589683236245
 30
0.0
 10
247.0959049099224
 20
1032.611212018249
 30
0.0
 10
247.0979829599326
 20
1032.628832086197
 30
0.0
 10
247.1015564792728
 20
1032.65921145429
 30
0.0
 10
247.1066394694602
 20
1032.702681621013
 30
0.0
 10
247.1132293267688
 20
1032.759667478321
 30
0.0
 10
247.1194186893263
 20
1032.813819522854
 30
0.0
 10
247.1248902143312
 20
1032.862293275043
 30
0.0
 10
247.129613662129
 20
1032.904654392515
 30
0.0
 10
247.1335574617634
 20
1032.940419836
 30
0.0
 10
247.1370004685974
 20
1032.971986521486
 30
0.0
 10
247.1399470793824
 20
1032.999290903905
 30
0.0
 10
247.1424017348966
 20
1033.022269432857
 30
0.0
 10
247.1443686953904
 20
1033.040858578212
 30
0.0
 10
247.1474834797629
 20
1033.070534004689
 30
0.0
 10
247.1517040364466
 20
1033.111446242944
 30
0.0
 10
247.1569194214447
 20
1033.163779501549
 30
0.0
 10
247.1610364789844
 20
1033.206823875419
 30
0.0
 10
247.164321956912
 20
1033.242626461733
 30
0.0
 10
247.1669930850463
 20
1033.272890298895
 30
0.0
 10
247.1696286040407
 20
1033.304347960818
 30
0.0
 10
247.1719385048122
 20
1033.333928388602
 30
0.0
 10
247.1738383938091
 20
1033.360631764771
 30
0.0
 10
247.1750792020287
 20
1033.380238925842
 30
0.0
 10
247.1759583819853
 20
1033.395997385866
 30
0.0
 10
247.1766033563164
 20
1033.409016895012
 30
0.0
 10
247.1772748464725
 20
1033.425522181929
 30
0.0
 10
247.177735994971
 20
1033.443303574788
 30
0.0
 10
247.1777137902461
 20
1033.460549784423
 30
0.0
 10
247.1772226381096
 20
1033.472278291451
 30
0.0
 10
247.1765271729911
 20
1033.479190003588
 30
0.0
 10
247.1760337749217
 20
1033.482637649766
 30
0.0
 10
247.1755359197942
 20
1033.48538436485
 30
0.0
 10
247.1747347809092
 20
1033.488210475864
 30
0.0
 10
247.17391168341
 20
1033.491073550791
 30
0.0
 10
247.1721324456499
 20
1033.491884653307
 30
0.0
 10
247.1714639135627
 20
1033.492189417555
 30
0.0
 11
245.3885914619316
 21
1020.365022903395
 31
0.0
 11
245.467958957559
 21
1020.91417691217
 31
0.0
 11
245.5469216835422
 21
1021.460311307282
 31
0.0
 11
245.6254773130258
 21
1022.003413617583
 31
0.0
 11
245.6372356946398
 21
1022.084687822226
 31
0.0
 11
245.6484958412876
 21
1022.162513689797
 31
0.0
 11
245.6592402374193
 21
1022.236770753956
 31
0.0
 11
245.669451367485
 21
1022.307338548365
 31
0.0
 11
245.6791117159351
 21
1022.374096606683
 31
0.0
 11
245.6882037672194
 21
1022.436924462571
 31
0.0
 11
245.6967100057883
 21
1022.49570164969
 31
0.0
 11
245.7046129160917
 21
1022.5503077017
 31
0.0
 11
245.71189498258
 21
1022.600622152261
 31
0.0
 11
245.7185386897035
 21
1022.646524535034
 31
0.0
 11
245.7245265219117
 21
1022.687894383679
 31
0.0
 11
245.7298409636555
 21
1022.724611231857
 31
0.0
 11
245.7344644993846
 21
1022.756554613228
 31
0.0
 11
245.7383796135492
 21
1022.783604061453
 31
0.0
 11
245.7415687905995
 21
1022.805639110192
 31
0.0
 11
245.7440145149857
 21
1022.822539293106
 31
0.0
 11
245.74924918344
 21
1022.858717784861
 31
0.0
 11
245.7551870355645
 21
1022.899763187374
 31
0.0
 11
245.761780632441
 21
1022.945350149146
 31
0.0
 11
245.768982535151
 21
1022.995153318678
 31
0.0
 11
245.7767453047764
 21
1023.04884734447
 31
0.0
 11
245.7850215023988
 21
1023.106106875024
 31
0.0
 11
245.7937636890997
 21
1023.166606558838
 31
0.0
 11
245.802924425961
 21
1023.230021044415
 31
0.0
 11
245.8173488228944
 21
1023.329911590911
 31
0.0
 11
245.8321586131915
 21
1023.432521330469
 31
0.0
 11
245.8346383109935
 21
1023.449705000644
 31
0.0
 11
245.8376973450741
 21
1023.470902616067
 31
0.0
 11
245.8413239398125
 21
1023.496034864541
 31
0.0
 11
245.8455063195877
 21
1023.525022433875
 31
0.0
 11
245.850232708779
 21
1023.557786011873
 31
0.0
 11
245.8554913317654
 21
1023.594246286342
 31
0.0
 11
245.8612704129262
 21
1023.634323945088
 31
0.0
 11
245.8780418505635
 21
1023.750685615067
 31
0.0
 11
245.8944041143882
 21
1023.864283810909
 31
0.0
 11
245.9103423572569
 21
1023.975009651962
 31
0.0
 11
245.9258417320265
 21
1024.082754257576
 31
0.0
 11
245.9408873915536
 21
1024.1874087471
 31
0.0
 11
245.9554644886952
 21
1024.288864239881
 31
0.0
 11
245.9695581763078
 21
1024.387011855268
 31
0.0
 11
245.9831536072483
 21
1024.481742712611
 31
0.0
 11
245.9962359343734
 21
1024.572947931258
 31
0.0
 11
246.0087903105398
 21
1024.660518630557
 31
0.0
 11
246.0208018886043
 21
1024.744345929858
 31
0.0
 11
246.0322558214237
 21
1024.824320948509
 31
0.0
 11
246.0431372618548
 21
1024.900334805859
 31
0.0
 11
246.0534313627541
 21
1024.972278621256
 31
0.0
 11
246.0631232769787
 21
1025.040043514049
 31
0.0
 11
246.072198157385
 21
1025.103520603587
 31
0.0
 11
246.08064115683
 21
1025.162601009218
 31
0.0
 11
246.0884374281704
 21
1025.217175850292
 31
0.0
 11
246.0955721242631
 21
1025.267136246157
 31
0.0
 11
246.1020303979645
 21
1025.312373316161
 31
0.0
 11
246.114408608254
 21
1025.399113701576
 31
0.0
 11
246.1274641422333
 21
1025.490656502021
 31
0.0
 11
246.141167213061
 21
1025.586802829997
 31
0.0
 11
246.1554880338956
 21
1025.687353798006
 31
0.0
 11
246.1703968178954
 21
1025.792110518548
 31
0.0
 11
246.1858637782191
 21
1025.900874104127
 31
0.0
 11
246.2018591280251
 21
1026.013445667243
 31
0.0
 11
246.2183530804718
 21
1026.129626320399
 31
0.0
 11
246.2353158487179
 21
1026.249217176096
 31
0.0
 11
246.2527176459217
 21
1026.372019346834
 31
0.0
 11
246.2705286852419
 21
1026.497833945118
 31
0.0
 11
246.2887191798366
 21
1026.626462083446
 31
0.0
 11
246.3072593428646
 21
1026.757704874323
 31
0.0
 11
246.3261193874843
 21
1026.891363430248
 31
0.0
 11
246.3385113344941
 21
1026.979268728522
 31
0.0
 11
246.350387291934
 21
1027.063577997301
 31
0.0
 11
246.361726976459
 21
1027.144139345318
 31
0.0
 11
246.3725101047238
 21
1027.220800881304
 31
0.0
 11
246.3827163933835
 21
1027.293410713992
 31
0.0
 11
246.3923255590928
 21
1027.361816952114
 31
0.0
 11
246.4013173185066
 21
1027.425867704403
 31
0.0
 11
246.4096713882798
 21
1027.485411079591
 31
0.0
 11
246.4173674850672
 21
1027.54029518641
 31
0.0
 11
246.4243853255238
 21
1027.590368133593
 31
0.0
 11
246.4307046263045
 21
1027.635478029872
 31
0.0
 11
246.4381642247865
 21
1027.688753746958
 31
0.0
 11
246.4462581029259
 21
1027.746591902905
 31
0.0
 11
246.4549531744887
 21
1027.80876421127
 31
0.0
 11
246.4642163532409
 21
1027.875042385608
 31
0.0
 11
246.4740145529485
 21
1027.945198139477
 31
0.0
 11
246.4843146873774
 21
1028.019003186433
 31
0.0
 11
246.4950836702937
 21
1028.096229240032
 31
0.0
 11
246.5062884154634
 21
1028.176648013831
 31
0.0
 11
246.5178958366524
 21
1028.260031221386
 31
0.0
 11
246.5298728476266
 21
1028.346150576253
 31
0.0
 11
246.5483299796309
 21
1028.479031010517
 31
0.0
 11
246.5673077215532
 21
1028.615878719129
 31
0.0
 11
246.5867578770716
 21
1028.756374413901
 31
0.0
 11
246.6066322498643
 21
1028.900198806647
 31
0.0
 11
246.6268826436094
 21
1029.047032609181
 31
0.0
 11
246.6474608619852
 21
1029.196556533314
 31
0.0
 11
246.6683187086697
 21
1029.34845129086
 31
0.0
 11
246.6894079873411
 21
1029.502397593632
 31
0.0
 11
246.7106805016776
 21
1029.658076153444
 31
0.0
 11
246.7282874075036
 21
1029.787246110493
 31
0.0
 11
246.7452259151289
 21
1029.911799487225
 31
0.0
 11
246.7615075020578
 21
1030.031801956605
 31
0.0
 11
246.7771436457949
 21
1030.147319191599
 31
0.0
 11
246.7921458238445
 21
1030.258416865172
 31
0.0
 11
246.8065255137109
 21
1030.36516065029
 31
0.0
 11
246.8202941928988
 21
1030.467616219917
 31
0.0
 11
246.8334633389123
 21
1030.565849247019
 31
0.0
 11
246.8460444292559
 21
1030.659925404562
 31
0.0
 11
246.8580489414341
 21
1030.74991036551
 31
0.0
 11
246.8694883529512
 21
1030.835869802829
 31
0.0
 11
246.8803741413118
 21
1030.917869389485
 31
0.0
 11
246.89071778402
 21
1030.995974798442
 31
0.0
 11
246.9005307585804
 21
1031.070251702667
 31
0.0
 11
246.9098245424974
 21
1031.140765775124
 31
0.0
 11
246.9186106132755
 21
1031.207582688779
 31
0.0
 11
246.9402483257273
 21
1031.372822964046
 31
0.0
 11
246.9619897018808
 21
1031.539945248834
 31
0.0
 11
246.9685985947456
 21
1031.590985823355
 31
0.0
 11
246.9747119542194
 21
1031.638305744217
 31
0.0
 11
246.9803074216528
 21
1031.681710096734
 31
0.0
 11
246.9853626383965
 21
1031.721003966221
 31
0.0
 11
246.9898552458009
 21
1031.755992437991
 31
0.0
 11
246.9937628852169
 21
1031.78648059736
 31
0.0
 11
246.997063197995
 21
1031.812273529643
 31
0.0
 11
246.9997338254858
 21
1031.833176320154
 31
0.0
 11
247.0017524090401
 21
1031.848994054207
 31
0.0
 11
247.0161401430319
 21
1031.962201072786
 31
0.0
 11
247.0301372870468
 21
1032.07320400276
 31
0.0
 11
247.0436989405484
 21
1032.181690075347
 31
0.0
 11
247.0567802030001
 21
1032.287346521766
 31
0.0
 11
247.0693361738654
 21
1032.389860573234
 31
0.0
 11
247.0743254404625
 21
1032.430941010953
 31
0.0
 11
247.0789543032996
 21
1032.469245137557
 31
0.0
 11
247.083204620396
 21
1032.504584217719
 31
0.0
 11
247.0870582497709
 21
1032.53676951611
 31
0.0
 11
247.0904970494441
 21
1032.565612297402
 31
0.0
 11
247.0935028774348
 21
1032.590923826267
 31
0.0
 11
247.0960575917625
 21
1032.612515367377
 31
0.0
 11
247.0981430504465
 21
1032.630198185403
 31
0.0
 11
247.0997411115064
 21
1032.643783545018
 31
0.0
 11
247.1067404250385
 21
1032.703657892567
 31
0.0
 11
247.113325961999
 21
1032.760616321538
 31
0.0
 11
247.119510858548
 21
1032.814740951831
 31
0.0
 11
247.1253082508456
 21
1032.86611390335
 31
0.0
 11
247.1297589713917
 21
1032.906035354033
 31
0.0
 11
247.1337044437324
 21
1032.941821606968
 31
0.0
 11
247.1371491170098
 21
1032.973409111035
 31
0.0
 11
247.1400974403657
 21
1033.000734315113
 31
0.0
 11
247.142553862942
 21
1033.023733668084
 31
0.0
 11
247.1445228338808
 21
1033.042343618829
 31
0.0
 11
247.1460088023237
 21
1033.056500616226
 31
0.0
 11
247.1518064704859
 21
1033.112769467168
 31
0.0
 11
247.1570143887102
 21
1033.165097277338
 31
0.0
 11
247.1616356678806
 21
1033.213501238788
 31
0.0
 11
247.1642387484235
 21
1033.241893772313
 31
0.0
 11
247.1669360577733
 21
1033.272498364807
 31
0.0
 11
247.1695942221528
 21
1033.304296835941
 31
0.0
 11
247.1720798677852
 21
1033.336271005384
 31
0.0
 11
247.1738476339908
 21
1033.361239223836
 31
0.0
 11
247.1753031771073
 21
1033.384404227128
 31
0.0
 11
247.1758975873454
 21
1033.395084552229
 31
0.0
 11
247.1765594605236
 21
1033.408509443927
 31
0.0
 11
247.1771606747002
 21
1033.423465297341
 31
0.0
 11
247.1776640644457
 21
1033.444606464932
 31
0.0
 11
247.1775806533683
 21
1033.461848498843
 31
0.0
 11
247.1769081734847
 21
1033.475172611702
 31
0.0
 11
247.1764294473905
 21
1033.479764792539
 31
0.0
 11
247.1760214990338
 21
1033.482599875066
 31
0.0
 11
247.1754572557559
 21
1033.485528852385
 31
0.0
 11
247.1748181981175
 21
1033.487911169762
 31
0.0
 11
247.1732992920315
 21
1033.491107965729
 31
0.0
 11
247.1714639135627
 21
1033.492189417555
 31
0.0
  0
SPLINE
  5
20C
330
1F
100
AcDbEntity
  8
0
  6
Continuous
 62
     7
100
AcDbSpline
210
0.0
220
0.0
230
1.0
 70
     8
 71
     3
 72
    15
 73
    11
 74
     9
 42
0.0000000001
 43
0.0000000001
 44
0.00000001
 40
0.0
 40
0.0
 40
0.0
 40
0.0
 40
22.35075390143457
 40
44.74093527706946
 40
66.12040139809577
 40
89.18507228650108
 40
110.2498895542505
 40
133.3030416906956
 40
154.3368649695726
 40
177.1195609263905
 40
177.1195609263905
 40
177.1195609263905
 40
177.1195609263905
 10
202.2072390898308
 20
680.630510158376
 30
0.0
 10
203.0243111843054
 20
688.0358245955232
 30
0.0
 10
204.6598967156391
 20
702.8595166910949
 30
0.0
 10
207.1379378706932
 20
724.759927621449
 30
0.0
 10
209.6863934461112
 20
746.8918031456026
 30
0.0
 10
212.2320440325947
 20
768.5792492169505
 30
0.0
 10
214.8897038767363
 20
790.8152188363014
 30
0.0
 10
217.5140563511887
 20
812.3733492730721
 30
0.0
 10
220.2515022665094
 20
834.4945307501548
 30
0.0
 10
222.0849356131438
 20
848.9845107933105
 30
0.0
 10
223.0382417000279
 20
856.5186740609994
 30
0.0
 11
202.2072390898308
 21
680.630510158376
 31
0.0
 11
204.6687377808181
 21
702.8453075726393
 31
0.0
 11
207.1832990462079
 21
725.0938401911386
 31
0.0
 11
209.6296286214738
 21
746.3328854434396
 31
0.0
 11
212.3181856908395
 21
769.2403231891854
 31
0.0
 11
214.8183081340125
 21
790.1562480860866
 31
0.0
 11
217.6033092433918
 21
813.0405569514826
 31
0.0
 11
220.1890606093077
 21
833.9148380552881
 31
0.0
 11
223.0382417000279
 21
856.5186740609994
 31
0.0
  0
SPLINE
  5
20D
330
1F
100
AcDbEntity
  8
0
  6
Continuous
 62
     7
100
AcDbSpline
210
0.0
220
0.0
230
1.0
 70
     8
 71
     3
 72
    13
 73
     9
 74
     7
 42
0.0000000001
 43
0.0000000001
 44
0.00000001
 40
0.0
 40
0.0
 40
0.0
 40
0.0
 40
40.28573536346582
 40
82.17505244315223
 40
102.9241620665665
 40
123.6580239520637
 40
145.0182894856962
 40
165.3659432614602
 40
165.3659432614602
 40
165.3659432614602
 40
165.3659432614602
 10
223.0382417000279
 20
856.5186740609994
 30
0.0
 10
224.7489593703651
 20
869.8378604176677
 30
0.0
 10
228.2384901684767
 20
897.0064059955128
 30
0.0
 10
232.8040283776269
 20
931.0095236879565
 30
0.0
 10
236.5883397241221
 20
958.5414322729248
 30
0.0
 10
239.4905561601235
 20
979.2871776421767
 30
0.0
 10
242.4186088674871
 20
999.8941483693595
 30
0.0
 10
244.4147518122862
 20
1013.652744750166
 30
0.0
 10
245.3885914619316
 20
1020.365022903395
 30
0.0
 11
223.0382417000279
 21
856.5186740609994
 31
0.0
 11
228.2077943744006
 21
896.471348551227
 31
0.0
 11
233.7706881412676
 21
937.9896469067842
 31
0.0
 11
236.5972444797511
 21
958.5453305351591
 31
0.0
 11
239.468885638497
 21
979.0793682711299
 31
0.0
 11
242.4766769343446
 21
1000.226806300071
 31
0.0
 11
245.3885914619316
 21
1020.365022903395
 31
0.0
  0
SPLINE
  5
20E
330
1F
100
AcDbEntity
  8
0
  6
Continuous
 62
     7
100
AcDbSpline
210
0.0
220
0.0
230
1.0
 70
     8
 71
     3
 72
    35
 73
    31
 74
    29
 42
0.0000000001
 43
0.0000000001
 44
0.00000001
 40
0.0
 40
0.0
 40
0.0
 40
0.0
 40
6.196820860732046
 40
12.42634412453101
 40
18.14291071512728
 40
25.12322883109258
 40
37.31123606079108
 40
49.62132386422498
 40
59.7845087524809
 40
70.04660675680519
 40
75.69738644623587
 40
81.38114183686703
 40
87.64635972950784
 40
94.2495128190964
 40
141.9165617699875
 40
191.17480694574
 40
240.4332479462356
 40
288.1004882352897
 40
294.7037035680067
 40
300.9689892258425
 40
306.652490756809
 40
312.3030210625702
 40
322.5654016205172
 40
332.7288635561984
 40
345.0390403263267
 40
357.2271349225416
 40
364.2074662560661
 40
369.9239597653184
 40
376.1534023783607
 40
382.3501430854742
 40
382.3501430854742
 40
382.3501430854742
 40
382.3501430854742
 10
247.1714639135627
 20
1033.492189417555
 30
0.0
 10
249.2369422553206
 20
1033.469138777905
 30
0.0
 10
253.3787990611373
 20
1033.422915853761
 30
0.0
 10
259.4260759067972
 20
1033.356918597594
 30
0.0
 10
265.7345159656817
 20
1033.28927674418
 30
0.0
 10
274.0290235438099
 20
1033.202254800276
 30
0.0
 10
284.521290292383
 20
1033.095994109715
 30
0.0
 10
296.0745171967034
 20
1032.984948305548
 30
0.0
 10
306.9858564249667
 20
1032.88569608505
 30
0.0
 10
315.6775565235574
 20
1032.810973863744
 30
0.0
 10
322.876193209232
 20
1032.752055899877
 30
0.0
 10
328.7425953865244
 20
1032.705816662633
 30
0.0
 10
334.9264613035124
 20
1032.659108879754
 30
0.0
 10
355.104413167702
 20
1032.514079506701
 30
0.0
 10
389.6134117006793
 20
1032.320826661917
 30
0.0
 10
438.3413436596959
 20
1032.21633569022
 30
0.0
 10
487.0693394032994
 20
1032.320825088506
 30
0.0
 10
521.5784877395458
 20
1032.514078283583
 30
0.0
 10
541.7565467173856
 20
1032.659108297285
 30
0.0
 10
547.9403713518933
 20
1032.705815752685
 30
0.0
 10
553.8066283746571
 20
1032.752053801034
 30
0.0
 10
561.0051915007643
 20
1032.810971014204
 30
0.0
 10
569.6969950027519
 20
1032.88569396252
 30
0.0
 10
580.6085504117717
 20
1032.984948103024
 30
0.0
 10
592.1619284355612
 20
1033.095995405814
 30
0.0
 10
602.6542583637274
 20
1033.202256811755
 30
0.0
 10
610.9487751081995
 20
1033.289278921321
 30
0.0
 10
617.257168331129
 20
1033.356920315919
 30
0.0
 10
623.3043672192549
 20
1033.422916745826
 30
0.0
 10
627.4461704269187
 20
1033.469139074641
 30
0.0
 10
629.5116220524515
 20
1033.492189417547
 30
0.0
 11
247.1714639135627
 21
1033.492189417555
 31
0.0
 11
253.3679017471065
 21
1033.423291267866
 31
0.0
 11
259.5970535176473
 21
1033.35525955628
 31
0.0
 11
265.3132917734993
 21
1033.293991399337
 31
0.0
 11
272.2932258894408
 21
1033.220774344019
 31
0.0
 11
284.480609161488
 21
1033.097448712431
 31
0.0
 11
296.7901292869503
 21
1032.97922854033
 31
0.0
 11
306.9528942143724
 21
1032.886837508117
 31
0.0
 11
317.2146134586628
 21
1032.798669476977
 31
0.0
 11
322.8652039592014
 21
1032.752429951616
 31
0.0
 11
328.5487828722694
 21
1032.707640673238
 31
0.0
 11
334.8138221441948
 21
1032.660331440534
 31
0.0
 11
341.416804766981
 21
1032.612884546787
 31
0.0
 11
389.0831332080097
 21
1032.350799372424
 31
0.0
 11
438.3412783856259
 21
1032.251544874121
 31
0.0
 11
487.5996193910022
 21
1032.35079807241
 31
0.0
 11
535.2661391714003
 21
1032.612883553397
 31
0.0
 11
541.8691840360119
 21
1032.660330852099
 31
0.0
 11
548.1342910713223
 21
1032.707640580351
 31
0.0
 11
553.8176161329436
 21
1032.752427815653
 31
0.0
 11
559.4679572591107
 21
1032.798665184425
 31
0.0
 11
569.7299590482617
 21
1032.886835449199
 31
0.0
 11
579.8930010120796
 21
1032.979228953922
 31
0.0
 11
592.2026100996752
 21
1033.097450028148
 31
0.0
 11
604.3900807328946
 21
1033.220776629886
 31
0.0
 11
611.3700280650542
 21
1033.293993882383
 31
0.0
 11
617.086193243335
 21
1033.355261295699
 31
0.0
 11
623.3152643676575
 21
1033.423292151333
 31
0.0
 11
629.5116220524515
 21
1033.492189417547
 31
0.0
  0
SPLINE
  5
20F
330
1F
100
AcDbEntity
  8
0
  6
Continuous
 62
     7
100
AcDbSpline
210
0.0
220
0.0
230
1.0
 70
     8
 71
     3
 72
    11
 73
     7
 74
     5
 42
0.0000000001
 43
0.0000000001
 44
0.00000001
 40
0.0
 40
0.0
 40
0.0
 40
0.0
 40
11.06772860049301
 40
22.13449396486241
 40
33.22032086359723
 40
44.30458598641515
 40
44.30458598641515
 40
44.30458598641515
 40
44.30458598641515
 10
675.9463873858026
 20
667.1622936035022
 30
0.0
 10
676.3161645608669
 20
663.4913752133086
 30
0.0
 10
677.0556867288966
 20
656.1498579168307
 30
0.0
 10
677.7835892412201
 20
645.0986239356175
 30
0.0
 10
678.2555421347647
 20
634.0279595748311
 30
0.0
 10
678.3128773799598
 20
626.6376392105847
 30
0.0
 10
678.3415429830616
 20
622.9427393346512
 30
0.0
 11
675.9463873858026
 21
667.1622936035022
 31
0.0
 11
676.9920820642315
 21
656.1440750989673
 31
0.0
 11
677.7405366265725
 21
645.1026480445455
 31
0.0
 11
678.191186974776
 21
634.0259846348189
 31
0.0
 11
678.3415429830616
 21
622.9427393346512
 31
0.0
  0
SPLINE
  5
210
330
1F
100
AcDbEntity
  8
0
  6
Continuous
 62
     7
100
AcDbSpline
210
0.0
220
0.0
230
1.0
 70
     8
 71
     3
 72
    11
 73
     7
 74
     5
 42
0.0000000001
 43
0.0000000001
 44
0.00000001
 40
0.0
 40
0.0
 40
0.0
 40
0.0
 40
3.383352456690421
 40
6.772396751736306
 40
10.15846410354654
 40
13.5482608929053
 40
13.5482608929053
 40
13.5482608929053
 40
13.5482608929053
 10
674.4758468762757
 20
680.6305101583657
 30
0.0
 10
674.5989127319999
 20
679.5094606871173
 30
0.0
 10
674.8452514780294
 20
677.2654757949716
 30
0.0
 10
675.2132808854414
 20
673.8993803427725
 30
0.0
 10
675.5805594065505
 20
670.5310420264484
 30
0.0
 10
675.8243999894099
 20
668.2856217044787
 30
0.0
 10
675.9463873858026
 20
667.1622936035022
 30
0.0
 11
674.4758468762757
 21
680.6305101583657
 31
0.0
 11
674.8447991954075
 21
677.2673348681972
 31
0.0
 11
675.2132245691437
 21
673.8983759818689
 31
0.0
 11
675.5801786821648
 21
670.5322510896624
 31
0.0
 11
675.9463873858026
 21
667.1622936035022
 31
0.0
  0
SPLINE
  5
211
330
1F
100
AcDbEntity
  8
0
  6
Continuous
 62
     3
100
AcDbSpline
210
0.0
220
0.0
230
1.0
 70
    24
 71
     3
 72
    15
 73
    11
 74
     9
 42
0.0000000001
 43
0.0000000001
 44
0.00000001
 40
0.0
 40
0.0
 40
0.0
 40
0.0
 40
0.0039799508000676
 40
0.0079599016001144
 40
0.0119398524002539
 40
0.0159198032005998
 40
0.0198997540010385
 40
0.0238797048014561
 40
0.027859655602194
 40
0.0318396064026835
 40
0.0318396064026835
 40
0.0318396064026835
 40
0.0318396064026835
 10
548.0360663052371
 20
507.6509033115332
 30
0.0
 10
548.0373929548985
 20
507.6509045788785
 30
0.0
 10
548.0400462542212
 20
507.6509071135689
 30
0.0
 10
548.044026203205
 20
507.6509109157279
 30
0.0
 10
548.048006152189
 20
507.6509147179769
 30
0.0
 10
548.0519861011729
 20
507.6509185203247
 30
0.0
 10
548.0559660501569
 20
507.650922322769
 30
0.0
 10
548.059945999141
 20
507.6509261253119
 30
0.0
 10
548.0639259481249
 20
507.6509299279452
 30
0.0
 10
548.0665792474476
 20
507.6509324631162
 30
0.0
 10
548.0679058971087
 20
507.6509337307015
 30
0.0
 11
548.0360663052371
 21
507.6509033115332
 31
0.0
 11
548.0400462542211
 21
507.6509071135894
 31
0.0
 11
548.044026203205
 21
507.6509109157428
 31
0.0
 11
548.0480061521889
 21
507.6509147179933
 31
0.0
 11
548.0519861011729
 21
507.6509185203408
 31
0.0
 11
548.0559660501569
 21
507.6509223227854
 31
0.0
 11
548.0599459991408
 21
507.650926125327
 31
0.0
 11
548.063925948125
 21
507.6509299279657
 31
0.0
 11
548.0679058971087
 21
507.6509337307015
 31
0.0
  0
SPLINE
  5
212
330
1F
100
AcDbEntity
  8
0
  6
Continuous
 62
     7
100
AcDbSpline
210
0.0
220
0.0
230
1.0
 70
     8
 71
     3
 72
   177
 73
   173
 74
   171
 42
0.0000000001
 43
0.0000000001
 44
0.00000001
 40
0.0
 40
0.0
 40
0.0
 40
0.0
 40
0.0021444813247542
 40
0.0056688995432051
 40
0.0081447445245056
 40
0.0111182702991384
 40
0.013982554225632
 40
0.0185996194460799
 40
0.0319407719920734
 40
0.0491830283424894
 40
0.0703300873123971
 40
0.0852980212202404
 40
0.0987392190855329
 40
0.1094360708158655
 40
0.1319272823414368
 40
0.157677478345436
 40
0.1897481218695382
 40
0.2216575048615542
 40
0.2523807290800204
 40
0.2808923359655297
 40
0.3306058839510185
 40
0.3832798083979674
 40
0.4386694747993639
 40
0.4529042488572257
 40
0.4716180727295891
 40
0.4947482325607127
 40
0.5222320345332676
 40
0.5540068058920776
 40
0.5900098957159043
 40
0.6301786756190568
 40
0.6997229101398153
 40
0.7742557593015633
 40
0.853974501744686
 40
0.8676535357086619
 40
0.8854589098292675
 40
0.9072010652835221
 40
0.932690446228075
 40
0.9617375001515073
 40
0.9941526782183064
 40
1.029746435634208
 40
1.068329232053697
 40
1.109711532031944
 40
1.212991658711234
 40
1.319454820865045
 40
1.428785267048157
 40
1.540667212584764
 40
1.654784845893864
 40
1.670730862795058
 40
1.691803569288825
 40
1.71780678943974
 40
1.748544348217924
 40
1.783820071595439
 40
1.823437786634523
 40
1.86720132157988
 40
1.914914505956967
 40
1.96638117067877
 40
2.073677731932906
 40
2.185375660241576
 40
2.301562674016073
 40
2.373579530956888
 40
2.449847398375732
 40
2.530447123888831
 40
2.615459557040194
 40
2.704965549257575
 40
2.79904595379996
 40
2.897781625704662
 40
3.001253421731184
 40
3.109542200303026
 40
3.222728821453706
 40
3.340894146765984
 40
3.464119039321648
 40
3.592484363643197
 40
3.726070985644158
 40
3.864959772576994
 40
4.022085002473546
 40
4.177469123358431
 40
4.330789276816184
 40
4.481722600866039
 40
4.629946230317835
 40
4.775137297086772
 40
4.916972930470585
 40
5.055130257398751
 40
5.189286402651147
 40
5.276234621854306
 40
5.360421866363256
 40
5.441617469407049
 40
5.519590763879709
 40
5.594111082370374
 40
5.664947757188536
 40
5.731870120389599
 40
5.794647503796583
 40
5.85304923901896
 40
5.906844657472059
 40
5.952395021679928
 40
6.002957355459498
 40
6.058378422592265
 40
6.118504986999424
 40
6.183183812751539
 40
6.252261664078306
 40
6.325585305379096
 40
6.40300150123237
 40
6.484357016409516
 40
6.569498615882803
 40
6.658273064842737
 40
6.793255689513981
 40
6.925801553786746
 40
7.055709562166095
 40
7.182778618589225
 40
7.306807626466105
 40
7.427595488717857
 40
7.544941107813613
 40
7.658643385800507
 40
7.768501224335786
 40
7.874313524711788
 40
7.97587918788201
 40
8.072997114484789
 40
8.165466204865266
 40
8.253085359094804
 40
8.301319285410751
 40
8.35483380042974
 40
8.413500738537938
 40
8.477191934203647
 40
8.54577922198488
 40
8.619134436535152
 40
8.697129412608271
 40
8.779635985064157
 40
8.866525988874834
 40
8.957671259129517
 40
9.052943631040785
 40
9.152214939951641
 40
9.255357021341082
 40
9.362241710831967
 40
9.47274084419796
 40
9.586726257372172
 40
9.70406978645471
 40
9.824643267722705
 40
9.948318537639251
 40
9.988810719074918
 40
10.02564826108357
 40
10.05875098587455
 40
10.08803871563771
 40
10.11343127254655
 40
10.13484847875979
 40
10.15221015642913
 40
10.25589006549593
 40
10.35680977422046
 40
10.42088242730925
 40
10.48201039942449
 40
10.53986490304626
 40
10.59411715062167
 40
10.64443835456768
 40
10.69049972727661
 40
10.73197248111666
 40
10.76852782843751
 40
10.7856040627367
 40
10.80786870367437
 40
10.83520001832508
 40
10.8674762737609
 40
10.90457573705282
 40
10.94637667527243
 40
10.99275735549087
 40
11.04359604478103
 40
11.09877101021554
 40
11.1581605188685
 40
11.22164283781521
 40
11.2890962341308
 40
11.36039897489308
 40
11.43542932718029
 40
11.51406555807139
 40
11.5961859346477
 40
12.42594469215763
 40
13.25161308296016
 40
13.25161308296016
 40
13.25161308296016
 40
13.25161308296016
 10
629.5116220524515
 20
1033.492189417547
 30
0.0
 10
629.5109496856726
 20
1033.491881109751
 30
0.0
 10
629.5091722956425
 20
1033.491066103388
 30
0.0
 10
629.5083489294115
 20
1033.488203030828
 30
0.0
 10
629.5075494334503
 20
1033.485381172744
 30
0.0
 10
629.5070517538768
 20
1033.482634614478
 30
0.0
 10
629.5065587924039
 20
1033.479189989621
 30
0.0
 10
629.5058633259952
 20
1033.472278277968
 30
0.0
 10
629.5053721741269
 20
1033.460549717444
 30
0.0
 10
629.5053499725593
 20
1033.443303516908
 30
0.0
 10
629.5058111212704
 20
1033.425522147464
 30
0.0
 10
629.5064826091239
 20
1033.409016894164
 30
0.0
 10
629.5071275863455
 20
1033.395997385137
 30
0.0
 10
629.5079933955542
 20
1033.380478378138
 30
0.0
 10
629.5092311904411
 20
1033.360871044869
 30
0.0
 10
629.5111288022024
 20
1033.33416748417
 30
0.0
 10
629.513457358794
 20
1033.304347958558
 30
0.0
 10
629.5160928826085
 20
1033.272890294191
 30
0.0
 10
629.5187640083252
 20
1033.242626458315
 30
0.0
 10
629.5220826783333
 20
1033.206462232412
 30
0.0
 10
629.5262394181137
 20
1033.163027497871
 30
0.0
 10
629.5314589461175
 20
1033.110694654159
 30
0.0
 10
629.535643444625
 20
1033.070143787809
 30
0.0
 10
629.5387172710144
 20
1033.04085857468
 30
0.0
 10
629.5406842318689
 20
1033.022269426891
 30
0.0
 10
629.5431388874758
 20
1032.999290896914
 30
0.0
 10
629.5460854981862
 20
1032.971986514754
 30
0.0
 10
629.549528505177
 20
1032.940419830715
 30
0.0
 10
629.5534723031858
 20
1032.904654389317
 30
0.0
 10
629.558854945422
 20
1032.856381510381
 30
0.0
 10
629.565759527918
 20
1032.795355537993
 30
0.0
 10
629.5742818585848
 20
1032.721245297044
 30
0.0
 10
629.5807725829709
 20
1032.665645977979
 30
0.0
 10
629.5851030082687
 20
1032.62883208064
 30
0.0
 10
629.5871810568607
 20
1032.611212008018
 30
0.0
 10
629.5897284497821
 20
1032.589683223515
 30
0.0
 10
629.5927269331872
 20
1032.564434448827
 30
0.0
 10
629.5961583694921
 20
1032.535654419517
 30
0.0
 10
629.6000045921342
 20
1032.503531867622
 30
0.0
 10
629.6042474617424
 20
1032.468255528456
 30
0.0
 10
629.6088687846223
 20
1032.430014130513
 30
0.0
 10
629.6162333469511
 20
1032.369377980395
 30
0.0
 10
629.6264129234373
 20
1032.286290681616
 30
0.0
 10
629.6394840287627
 20
1032.18073900221
 30
0.0
 10
629.6530351466811
 20
1032.07235766967
 30
0.0
 10
629.6670210493105
 20
1031.961459410794
 30
0.0
 10
629.6771908035278
 20
1031.881454636335
 30
0.0
 10
629.6835681317976
 20
1031.831481126225
 30
0.0
 10
629.6862304626757
 20
1031.810643197758
 30
0.0
 10
629.6895225466042
 20
1031.784915136459
 30
0.0
 10
629.6934219489685
 20
1031.754491847158
 30
0.0
 10
629.6979063154554
 20
1031.719568244994
 30
0.0
 10
629.7029532728781
 20
1031.680339242664
 30
0.0
 10
629.7085404605317
 20
1031.636999754476
 30
0.0
 10
629.7146455080181
 20
1031.589744693426
 30
0.0
 10
629.7234835689949
 20
1031.52148904069
 30
0.0
 10
629.7351001666259
 20
1031.432086867634
 30
0.0
 10
629.749559534243
 20
1031.3212992873
 30
0.0
 10
629.7625518007581
 20
1031.222179882508
 30
0.0
 10
629.7740461364596
 20
1031.134775188721
 30
0.0
 10
629.7840180464459
 20
1031.059134853789
 30
0.0
 10
629.7945824805147
 20
1030.97920329713
 30
0.0
 10
629.8057533407009
 20
1030.894900812439
 30
0.0
 10
629.8175445603799
 20
1030.80614769765
 30
0.0
 10
629.8299700643479
 20
1030.712864249537
 30
0.0
 10
629.8430437803224
 20
1030.61497076526
 30
0.0
 10
629.8567796355362
 20
1030.512387541914
 30
0.0
 10
629.8711915576755
 20
1030.405034876654
 30
0.0
 10
629.8862934745297
 20
1030.292833066641
 30
0.0
 10
629.9020993141691
 20
1030.175702409074
 30
0.0
 10
629.9186230044281
 20
1030.053563201118
 30
0.0
 10
629.9358784747285
 20
1029.926335740154
 30
0.0
 10
629.9538796488182
 20
1029.793940322767
 30
0.0
 10
629.9732190988833
 20
1029.652052030865
 30
0.0
 10
629.9935905212565
 20
1029.502971391361
 30
0.0
 10
630.014665608611
 20
1029.349131755852
 30
0.0
 10
630.0355091854401
 20
1029.197343659258
 30
0.0
 10
630.0560730577438
 20
1029.047926390234
 30
0.0
 10
630.0763090380539
 20
1028.901199238317
 30
0.0
 10
630.0961689368435
 20
1028.757481492799
 30
0.0
 10
630.1156045643753
 20
1028.617092442951
 30
0.0
 10
630.1345677324198
 20
1028.480351378307
 30
0.0
 10
630.1510435798796
 20
1028.361736275767
 30
0.0
 10
630.165061480065
 20
1028.260942507628
 30
0.0
 10
630.1766583364512
 20
1028.177635455846
 30
0.0
 10
630.1878524980848
 20
1028.097292836159
 30
0.0
 10
630.1986108813765
 20
1028.020142935454
 30
0.0
 10
630.2089004016872
 20
1027.946414040491
 30
0.0
 10
630.2186879748903
 20
1027.876334438096
 30
0.0
 10
630.2279405163615
 20
1027.810132415029
 30
0.0
 10
630.2366249438636
 20
1027.748036258387
 30
0.0
 10
630.2447081686726
 20
1027.690274254359
 30
0.0
 10
630.2519995979114
 20
1027.63819974046
 30
0.0
 10
630.2589319552745
 20
1027.588713574948
 30
0.0
 10
630.265942704848
 20
1027.538691217146
 30
0.0
 10
630.2736317175759
 20
1027.483857699033
 30
0.0
 10
630.2819787026356
 20
1027.424364910918
 30
0.0
 10
630.2909633757904
 20
1027.360364744034
 30
0.0
 10
630.3005654515805
 20
1027.29200908944
 30
0.0
 10
630.3107646454432
 20
1027.219449838322
 30
0.0
 10
630.3215406727752
 20
1027.142838881858
 30
0.0
 10
630.3328732496159
 20
1027.062328111319
 30
0.0
 10
630.3447420902908
 20
1026.978069417726
 30
0.0
 10
630.3591150651977
 20
1026.876111284208
 30
0.0
 10
630.3757096088356
 20
1026.758508669528
 30
0.0
 10
630.3942404768093
 20
1026.627332268785
 30
0.0
 10
630.4124216570052
 20
1026.49877051728
 30
0.0
 10
630.4302233618482
 20
1026.37302230231
 30
0.0
 10
630.4476158066227
 20
1026.250286511558
 30
0.0
 10
630.4645692058316
 20
1026.130762032605
 30
0.0
 10
630.4810537741423
 20
1026.014647753056
 30
0.0
 10
630.4970397262756
 20
1025.902142560526
 30
0.0
 10
630.5124972766949
 20
1025.793445342592
 30
0.0
 10
630.5273966410611
 20
1025.688754987007
 30
0.0
 10
630.5417080312466
 20
1025.588270380984
 30
0.0
 10
630.5554016730521
 20
1025.492190413723
 30
0.0
 10
630.5684477447783
 20
1025.40071396765
 30
0.0
 10
630.5791997465635
 20
1025.325369894686
 30
0.0
 10
630.5881210695145
 20
1025.262880983459
 30
0.0
 10
630.5956806873088
 20
1025.209946260985
 30
0.0
 10
630.6039716449301
 20
1025.151911282244
 30
0.0
 10
630.6129766001028
 20
1025.08890303667
 30
0.0
 10
630.622678240344
 20
1025.021048517952
 30
0.0
 10
630.6330592449683
 20
1024.948474718609
 30
0.0
 10
630.6441022963272
 20
1024.871308631592
 30
0.0
 10
630.6557900762498
 20
1024.789677249776
 30
0.0
 10
630.6681052669815
 20
1024.7037075661
 30
0.0
 10
630.6810305508291
 20
1024.613526573505
 30
0.0
 10
630.6945486102113
 20
1024.519261264952
 30
0.0
 10
630.7086421276044
 20
1024.421038633411
 30
0.0
 10
630.7232937855397
 20
1024.318985671854
 30
0.0
 10
630.7384862665554
 20
1024.21322937326
 30
0.0
 10
630.7542022533078
 20
1024.10389673062
 30
0.0
 10
630.7704244280845
 20
1023.991114736875
 30
0.0
 10
630.7871354746807
 20
1023.875010385178
 30
0.0
 10
630.8043180710405
 20
1023.755710667852
 30
0.0
 10
630.8178580119195
 20
1023.661767760235
 30
0.0
 10
630.8274205527371
 20
1023.595451993983
 30
0.0
 10
630.8326753601934
 20
1023.559018174812
 30
0.0
 10
630.8373979363958
 20
1023.526281055597
 30
0.0
 10
630.8415765165802
 20
1023.497319946979
 30
0.0
 10
630.8451993023156
 20
1023.47221415474
 30
0.0
 10
630.8482546084347
 20
1023.451043001006
 30
0.0
 10
630.8550367560346
 20
1023.40404355662
 30
0.0
 10
630.8656053318254
 20
1023.330815174443
 30
0.0
 10
630.8784050572194
 20
1023.242177151154
 30
0.0
 10
630.8891814804065
 20
1023.167578056904
 30
0.0
 10
630.8979079999825
 20
1023.107186914329
 30
0.0
 10
630.9061685165217
 20
1023.050035901728
 30
0.0
 10
630.9139156027347
 20
1022.996450368316
 30
0.0
 10
630.9211018255564
 20
1022.946755662482
 30
0.0
 10
630.927679725289
 20
1022.901277128756
 30
0.0
 10
630.9336019403902
 20
1022.860340125878
 30
0.0
 10
630.9381414369182
 20
1022.828965381315
 30
0.0
 10
630.9417648338344
 20
1022.803927464397
 30
0.0
 10
630.9449482572315
 20
1022.781932583064
 30
0.0
 10
630.9488575729172
 20
1022.754923296192
 30
0.0
 10
630.9534753129171
 20
1022.723020076918
 30
0.0
 10
630.9587839503339
 20
1022.686343389849
 30
0.0
 10
630.9647659763526
 20
1022.645013702212
 30
0.0
 10
630.9714038749207
 20
1022.599151480184
 30
0.0
 10
630.9786801317039
 20
1022.548877190191
 30
0.0
 10
630.9865772314782
 20
1022.494311298533
 30
0.0
 10
630.995077659077
 20
1022.435574271515
 30
0.0
 10
631.0041638992173
 20
1022.372786575428
 30
0.0
 10
631.013818436438
 20
1022.306068676534
 30
0.0
 10
631.0240237557954
 20
1022.235541041172
 30
0.0
 10
631.0347623400401
 20
1022.161324135348
 30
0.0
 10
631.0460166810718
 20
1022.083538426389
 30
0.0
 10
631.0932921558404
 20
1021.756768722651
 30
0.0
 10
631.1761987763593
 20
1021.183550726037
 30
0.0
 10
631.2551276028664
 20
1020.63741569903
 30
0.0
 10
631.2944945041743
 20
1020.365022903388
 30
0.0
 11
629.5116220524515
 21
1033.492189417547
 31
0.0
 11
629.5097772919801
 21
1033.491095955634
 31
0.0
 11
629.5082677679898
 21
1033.487911169754
 31
0.0
 11
629.5076266521869
 21
1033.485519772903
 31
0.0
 11
629.5070644670734
 21
1033.482599875057
 31
0.0
 11
629.5066565185491
 21
1033.479764791211
 31
0.0
 11
629.5061777926225
 21
1033.475172611692
 31
0.0
 11
629.5055053107589
 21
1033.461848418681
 31
0.0
 11
629.5054219027667
 21
1033.444606364071
 31
0.0
 11
629.5059252914061
 21
1033.42346529733
 31
0.0
 11
629.5065265056375
 21
1033.408509442727
 31
0.0
 11
629.5071883788381
 21
1033.395084550775
 31
0.0
 11
629.507782789
 21
1033.384404227114
 31
0.0
 11
629.5091902872081
 21
1033.361957099354
 31
0.0
 11
629.5110060983212
 21
1033.336271005368
 31
0.0
 11
629.5134917442434
 21
1033.304296832347
 31
0.0
 11
629.5161499088006
 21
1033.272498359363
 31
0.0
 11
629.5188472180948
 21
1033.241893767731
 31
0.0
 11
629.5214502982276
 21
1033.213501238766
 31
0.0
 11
629.5261774259481
 21
1033.164012946041
 31
0.0
 11
629.5313982163557
 21
1033.111598390199
 31
0.0
 11
629.5370771637854
 21
1033.056500616195
 31
0.0
 11
629.5385631326517
 21
1033.042343614782
 31
0.0
 11
629.5405321038502
 21
1033.023733661629
 31
0.0
 11
629.5429885265361
 21
1033.000734307695
 31
0.0
 11
629.5459368498649
 21
1032.973409103937
 31
0.0
 11
629.5493815229924
 21
1032.941821601314
 31
0.0
 11
629.553326995074
 21
1032.906035350785
 31
0.0
 11
629.5577777152653
 21
1032.866113903308
 31
0.0
 11
629.5655929226906
 21
1032.79701019076
 31
0.0
 11
629.5741049174313
 21
1032.72296499139
 31
0.0
 11
629.5833448546043
 21
1032.643783544966
 31
0.0
 11
629.5849429164136
 21
1032.630198178992
 31
0.0
 11
629.5870283756153
 21
1032.612515356607
 31
0.0
 11
629.5895830902481
 21
1032.590923812963
 31
0.0
 11
629.5925889183501
 21
1032.565612283212
 31
0.0
 11
629.5960277179601
 21
1032.536769502505
 31
0.0
 11
629.5998813471165
 21
1032.504584205996
 31
0.0
 11
629.6041316638576
 21
1032.469245128835
 31
0.0
 11
629.6087605262222
 21
1032.430941006175
 31
0.0
 11
629.613749792249
 21
1032.389860573168
 31
0.0
 11
629.6263057639507
 21
1032.287346514905
 31
0.0
 11
629.639387026873
 21
1032.181690064766
 31
0.0
 11
629.6529486804272
 21
1032.073203991855
 31
0.0
 11
629.666945824024
 21
1031.96220106528
 31
0.0
 11
629.6813335570733
 21
1031.848994054147
 31
0.0
 11
629.6833521408853
 21
1031.833176318076
 31
0.0
 11
629.6860227685469
 21
1031.812273526232
 31
0.0
 11
629.6893230814184
 21
1031.786480593224
 31
0.0
 11
629.6932307208601
 21
1031.75599243366
 31
0.0
 11
629.6977233282323
 21
1031.721003962147
 31
0.0
 11
629.7027785448955
 21
1031.681710093294
 31
0.0
 11
629.7083740122095
 21
1031.63830574171
 31
0.0
 11
629.7144873715348
 21
1031.590985822002
 31
0.0
 11
629.7210962642319
 21
1031.539945248779
 31
0.0
 11
629.7349209980669
 21
1031.433543045835
 31
0.0
 11
629.74937588897
 21
1031.322784374313
 31
0.0
 11
629.7644753528352
 21
1031.207582688731
 31
0.0
 11
629.7738650870161
 21
1031.136180583891
 31
0.0
 11
629.7838333564752
 21
1031.060566952814
 31
0.0
 11
629.7943940906512
 21
1030.980662092846
 31
0.0
 11
629.8055612189831
 21
1030.896386301333
 31
0.0
 11
629.8173486709098
 21
1030.80765987562
 31
0.0
 11
629.8297703758698
 21
1030.714403113051
 31
0.0
 11
629.8428402633024
 21
1030.616536310973
 31
0.0
 11
629.856572262646
 21
1030.513979766731
 31
0.0
 11
629.8709803033398
 21
1030.40665377767
 31
0.0
 11
629.8860783148224
 21
1030.294478641134
 31
0.0
 11
629.9018802265331
 21
1030.177374654471
 31
0.0
 11
629.9183999679099
 21
1030.055262115024
 31
0.0
 11
629.9356514683923
 21
1029.928061320139
 31
0.0
 11
629.953648657419
 21
1029.795692567162
 31
0.0
 11
629.9724054644287
 21
1029.658076153437
 31
0.0
 11
629.9936779804987
 21
1029.502397580955
 31
0.0
 11
630.0147672605784
 21
1029.348451267946
 31
0.0
 11
630.0356251082995
 21
1029.196556502912
 31
0.0
 11
630.056203327294
 21
1029.047032574353
 31
0.0
 11
630.076453721194
 21
1028.90019877077
 31
0.0
 11
630.0963280936311
 21
1028.756374380663
 31
0.0
 11
630.1157782482377
 21
1028.615878692532
 31
0.0
 11
630.1347559886451
 21
1028.479030994879
 31
0.0
 11
630.1532131184858
 21
1028.346150576205
 31
0.0
 11
630.1651901300529
 21
1028.260031217078
 31
0.0
 11
630.1767975517414
 21
1028.176648005939
 31
0.0
 11
630.1880022973032
 21
1028.096229229335
 31
0.0
 11
630.1987712804895
 21
1028.019003173809
 31
0.0
 11
630.2090714150521
 21
1027.945198125906
 31
0.0
 11
630.2188696147424
 21
1027.875042372171
 31
0.0
 11
630.2281327933121
 21
1027.808764199149
 31
0.0
 11
630.2368278645124
 21
1027.746591893383
 31
0.0
 11
630.2449217420949
 21
1027.688753741418
 31
0.0
 11
630.2523813398116
 21
1027.6354780298
 31
0.0
 11
630.25870063964
 21
1027.590368140317
 31
0.0
 11
630.2657184793725
 21
1027.540295198295
 31
0.0
 11
630.2734145756516
 21
1027.485411095094
 31
0.0
 11
630.2817686451194
 21
1027.425867722073
 31
0.0
 11
630.2907604044185
 21
1027.361816970591
 31
0.0
 11
630.3003695701908
 21
1027.293410732008
 31
0.0
 11
630.3105758590789
 21
1027.220800897683
 31
0.0
 11
630.3213589877253
 21
1027.144139358976
 31
0.0
 11
630.3326986727717
 21
1027.063578007244
 31
0.0
 11
630.344574630861
 21
1026.97926873385
 31
0.0
 11
630.3569665786354
 21
1026.89136343015
 31
0.0
 11
630.3758266222753
 21
1026.757704881164
 31
0.0
 11
630.3943667844225
 21
1026.626462096511
 31
0.0
 11
630.4125572782482
 21
1026.497833963603
 31
0.0
 11
630.4303683169239
 21
1026.372019369849
 31
0.0
 11
630.4477701136216
 21
1026.249217202659
 31
0.0
 11
630.464732881512
 21
1026.129626349443
 31
0.0
 11
630.481226833767
 21
1026.013445697612
 31
0.0
 11
630.4972221835581
 21
1025.900874134575
 31
0.0
 11
630.5126891440566
 21
1025.792110547743
 31
0.0
 11
630.527597928434
 21
1025.687353824526
 31
0.0
 11
630.5419187498618
 21
1025.586802852333
 31
0.0
 11
630.5556218215116
 21
1025.490656518576
 31
0.0
 11
630.5686773565545
 21
1025.399113710663
 31
0.0
 11
630.5810555681624
 21
1025.312373316006
 31
0.0
 11
630.5878726180617
 21
1025.264623557069
 31
0.0
 11
630.5954383006517
 21
1025.211646545407
 31
0.0
 11
630.6037352989526
 21
1025.153569274068
 31
0.0
 11
630.6127462959848
 21
1025.090518736102
 31
0.0
 11
630.6224539747692
 21
1025.022621924558
 31
0.0
 11
630.632841018326
 21
1024.950005832486
 31
0.0
 11
630.6438901096759
 21
1024.872797452934
 31
0.0
 11
630.6555839318396
 21
1024.791123778953
 31
0.0
 11
630.6679051678372
 21
1024.70511180359
 31
0.0
 11
630.6808365006897
 21
1024.614888519897
 31
0.0
 11
630.6943606134172
 21
1024.520580920921
 31
0.0
 11
630.7084601890406
 21
1024.422315999713
 31
0.0
 11
630.7231179105802
 21
1024.320220749321
 31
0.0
 11
630.7383164610567
 21
1024.214422162794
 31
0.0
 11
630.7540385234904
 21
1024.105047233183
 31
0.0
 11
630.7702667809022
 21
1023.992222953536
 31
0.0
 11
630.7869839163122
 21
1023.876076316903
 31
0.0
 11
630.8041726127412
 21
1023.756734316332
 31
0.0
 11
630.8218155532098
 21
1023.634323944874
 31
0.0
 11
630.8275946348072
 21
1023.5942462831
 31
0.0
 11
630.8328532573497
 21
1023.557786011705
 31
0.0
 11
630.8375796456579
 21
1023.525022439828
 31
0.0
 11
630.8417620245514
 21
1023.496034876607
 31
0.0
 11
630.8453886188497
 21
1023.470902631181
 31
0.0
 11
630.8484476533737
 21
1023.449705012688
 31
0.0
 11
630.8509273529428
 21
1023.432521330267
 31
0.0
 11
630.8657381320952
 21
1023.329904741136
 31
0.0
 11
630.8801615401721
 21
1023.230021044225
 31
0.0
 11
630.8893222645276
 21
1023.166606645205
 31
0.0
 11
630.898064441169
 21
1023.10610703097
 31
0.0
 11
630.9063406317414
 21
1023.048847549145
 31
0.0
 11
630.9141033978899
 21
1022.99515354735
 31
0.0
 11
630.9213053012593
 21
1022.94535037321
 31
0.0
 11
630.9278989034945
 21
1022.899763374347
 31
0.0
 11
630.9338367662409
 21
1022.858717898383
 31
0.0
 11
630.939071451143
 21
1022.822539292941
 31
0.0
 11
630.9415171756448
 21
1022.805639109229
 31
0.0
 11
630.9447063527366
 21
1022.783604060203
 31
0.0
 11
630.9486214668813
 21
1022.756554612117
 31
0.0
 11
630.9532450025414
 21
1022.724611231223
 31
0.0
 11
630.9585594441797
 21
1022.687894383773
 31
0.0
 11
630.9645472762589
 21
1022.646524536021
 31
0.0
 11
630.9711909832417
 21
1022.60062215422
 31
0.0
 11
630.9784730495909
 21
1022.550307704621
 31
0.0
 11
630.986375959769
 21
1022.495701653478
 31
0.0
 11
630.9948821982388
 21
1022.436924467044
 31
0.0
 11
631.003974249463
 21
1022.37409661157
 31
0.0
 11
631.0136345979046
 21
1022.307338553312
 31
0.0
 11
631.0238457280258
 21
1022.236770758519
 31
0.0
 11
631.0345901242896
 21
1022.162513693446
 31
0.0
 11
631.0458502711587
 21
1022.084687824346
 31
0.0
 11
631.0576086530957
 21
1022.00341361747
 31
0.0
 11
631.1763790131053
 21
1021.182199152639
 31
0.0
 11
631.2944945041743
 21
1020.365022903388
 31
0.0
  0
SPLINE
  5
213
330
1F
100
AcDbEntity
  8
0
  6
Continuous
 62
     7
100
AcDbSpline
210
0.0
220
0.0
230
1.0
 70
     8
 71
     3
 72
    15
 73
    11
 74
     9
 42
0.0000000001
 43
0.0000000001
 44
0.00000001
 40
0.0
 40
0.0
 40
0.0
 40
0.0
 40
22.78269568082651
 40
43.81651923569427
 40
66.86967157726983
 40
87.93448863988881
 40
110.99915924099
 40
132.3786256493205
 40
154.7688070252256
 40
177.1195609263911
 40
177.1195609263911
 40
177.1195609263911
 40
177.1195609263911
 10
653.6448442660786
 20
856.5186740609897
 30
0.0
 10
654.598150341464
 20
848.9845108845764
 30
0.0
 10
656.431583688194
 20
834.4945308414335
 30
0.0
 10
659.1690296122058
 20
812.3733492965275
 30
0.0
 10
661.7933820975616
 20
790.8152187684078
 30
0.0
 10
664.4510419301172
 20
768.5792492441223
 30
0.0
 10
666.9966925089254
 20
746.8918032407198
 30
0.0
 10
669.5451480846634
 20
724.7599277165127
 30
0.0
 10
672.0231892504767
 20
702.8595166909955
 30
0.0
 10
673.6587747818107
 20
688.0358245954238
 30
0.0
 10
674.4758468762757
 20
680.6305101583657
 30
0.0
 11
653.6448442660786
 21
856.5186740609897
 31
0.0
 11
656.494025322589
 21
833.9148383291416
 31
0.0
 11
659.0797767227166
 21
813.0405569514738
 31
0.0
 11
661.8647778566495
 21
790.1562478824221
 31
0.0
 11
664.3649002752666
 21
769.2403231891763
 31
0.0
 11
667.0534573114602
 21
746.3328857288134
 31
0.0
 11
669.4997869199005
 21
725.0938401911297
 31
0.0
 11
672.0143481853191
 21
702.8453075723618
 31
0.0
 11
674.4758468762757
 21
680.6305101583657
 31
0.0
  0
SPLINE
  5
214
330
1F
100
AcDbEntity
  8
0
  6
Continuous
 62
     7
100
AcDbSpline
210
0.0
220
0.0
230
1.0
 70
     8
 71
     3
 72
    13
 73
     9
 74
     7
 42
0.0000000001
 43
0.0000000001
 44
0.00000001
 40
0.0
 40
0.0
 40
0.0
 40
0.0
 40
20.34765284506605
 40
41.70791930939806
 40
62.71068708474218
 40
83.19089081345288
 40
124.2413677201188
 40
165.3659433516725
 40
165.3659433516725
 40
165.3659433516725
 40
165.3659433516725
 10
631.2944945041743
 20
1020.365022903388
 30
0.0
 10
632.2683339026675
 20
1013.652745022916
 30
0.0
 10
634.2644764239662
 20
999.8941485718813
 30
0.0
 10
637.2051420898658
 20
979.1984343510239
 30
0.0
 10
640.1070609725398
 20
958.4526464783554
 30
0.0
 10
643.8528930575043
 20
931.1976917704191
 30
0.0
 10
648.4080487281731
 20
897.2836261984337
 30
0.0
 10
651.898196710345
 20
870.115157539307
 30
0.0
 10
653.6448442660786
 20
856.5186740609897
 30
0.0
 11
631.2944945041743
 21
1020.365022903388
 31
0.0
 11
634.2064088996175
 21
1000.226807221334
 31
0.0
 11
637.2142003276109
 21
979.0793682711214
 31
0.0
 11
640.1227751091686
 21
958.2789729151403
 31
0.0
 11
642.9123978248396
 21
937.9896469067755
 31
0.0
 11
648.3657729210403
 21
897.3030108412952
 31
0.0
 11
653.6448442660786
 21
856.5186740609897
 31
0.0
  0
SPLINE
  5
215
330
1F
100
AcDbEntity
  8
0
  6
Continuous
 62
     3
100
AcDbSpline
210
0.0
220
0.0
230
1.0
 70
    24
 71
     3
 72
    15
 73
    11
 74
     9
 42
0.0000000001
 43
0.0000000001
 44
0.00000001
 40
0.0
 40
0.0
 40
0.0
 40
0.0
 40
0.0039799510079681
 40
0.0079599020157866
 40
0.011939853023626
 40
0.015919804031259
 40
0.019899755038856
 40
0.0238797060463036
 40
0.027859657053772
 40
0.0318396080610341
 40
0.0318396080610341
 40
0.0318396080610341
 40
0.0318396080610341
 10
328.6151800675074
 20
507.6509337307075
 30
0.0
 10
328.6165067172379
 20
507.650932463122
 30
0.0
 10
328.6191600166987
 20
507.650929927951
 30
0.0
 10
328.6231399658899
 20
507.6509261253177
 30
0.0
 10
328.6271199150812
 20
507.6509223227743
 30
0.0
 10
328.6310998642724
 20
507.65091852033
 30
0.0
 10
328.6350798134636
 20
507.6509147179818
 30
0.0
 10
328.6390597626549
 20
507.6509109157328
 30
0.0
 10
328.6430397118461
 20
507.6509071135736
 30
0.0
 10
328.645693011307
 20
507.650904578883
 30
0.0
 10
328.6470196610374
 20
507.6509033115377
 30
0.0
 11
328.6151800675074
 21
507.6509337307075
 31
0.0
 11
328.6191600166987
 21
507.6509299279715
 31
0.0
 11
328.6231399658899
 21
507.6509261253326
 31
0.0
 11
328.6271199150812
 21
507.6509223227908
 31
0.0
 11
328.6310998642724
 21
507.650918520346
 31
0.0
 11
328.6350798134637
 21
507.6509147179984
 31
0.0
 11
328.6390597626549
 21
507.6509109157477
 31
0.0
 11
328.6430397118462
 21
507.6509071135942
 31
0.0
 11
328.6470196610374
 21
507.6509033115377
 31
0.0
  0
SPLINE
  5
216
330
1F
100
AcDbEntity
  8
0
  6
Continuous
 62
     7
100
AcDbSpline
210
0.0
220
0.0
230
1.0
 70
     8
 71
     3
 72
    11
 73
     7
 74
     5
 42
0.0000000001
 43
0.0000000001
 44
0.00000001
 40
0.0
 40
0.0
 40
0.0
 40
0.0
 40
3.383241958963003
 40
6.775864141137628
 40
10.15612422405707
 40
13.54826089284252
 40
13.54826089284252
 40
13.54826089284252
 40
13.54826089284252
 10
200.7366985803114
 20
667.1622936035745
 30
0.0
 10
200.858449904643
 20
668.2834495516311
 30
0.0
 10
201.1022901155062
 20
670.528869913877
 30
0.0
 10
201.4692502241504
 20
673.8942975238905
 30
0.0
 10
201.8375157133891
 20
677.2625651279329
 30
0.0
 10
202.083853965236
 20
679.506550074464
 30
0.0
 10
202.2072390898308
 20
680.630510158376
 30
0.0
 11
200.7366985803114
 21
667.1622936035745
 31
0.0
 11
201.1021980381931
 21
670.5257347431184
 31
0.0
 11
201.4698613969655
 21
673.8983759819103
 31
0.0
 11
201.8373303479219
 21
677.2586028787524
 31
0.0
 11
202.2072390898308
 21
680.630510158376
 31
0.0
  0
SPLINE
  5
217
330
1F
100
AcDbEntity
  8
0
  6
Continuous
 62
     7
100
AcDbSpline
210
0.0
220
0.0
230
1.0
 70
     8
 71
     3
 72
     9
 73
     5
 74
     3
 42
0.0000000001
 43
0.0000000001
 44
0.00000001
 40
0.0
 40
0.0
 40
0.0
 40
0.0
 40
7.927589633322786
 40
15.85517503506278
 40
15.85517503506278
 40
15.85517503506278
 40
15.85517503506278
 10
678.3415429830536
 20
449.9344729616755
 30
0.0
 10
675.7129323224488
 20
450.2053891674994
 30
0.0
 10
670.4557124043363
 20
450.7472214345376
 30
0.0
 10
665.1957863715473
 20
451.2621210388494
 30
0.0
 10
662.5658240570626
 20
451.5195707722947
 30
0.0
 11
678.3415429830536
 21
449.9344729616755
 31
0.0
 11
670.4550344722082
 21
450.7404884098714
 31
0.0
 11
662.5658240570626
 21
451.5195707722947
 31
0.0
  0
SPLINE
  5
218
330
1F
100
AcDbEntity
  8
0
  6
Continuous
 62
     7
100
AcDbSpline
210
0.0
220
0.0
230
1.0
 70
     8
 71
     3
 72
     9
 73
     5
 74
     3
 42
0.0000000001
 43
0.0000000001
 44
0.00000001
 40
0.0
 40
0.0
 40
0.0
 40
0.0
 40
7.927585401739787
 40
15.85517503506312
 40
15.85517503506312
 40
15.85517503506312
 40
15.85517503506312
 10
214.117261909044
 20
451.5195707723048
 30
0.0
 10
211.4872995945595
 20
451.2621210388595
 30
0.0
 10
206.2273735617702
 20
450.7472214345476
 30
0.0
 10
200.9701536436579
 20
450.2053891675101
 30
0.0
 10
198.3415429830526
 20
449.9344729616865
 30
0.0
 11
214.117261909044
 21
451.5195707723048
 31
0.0
 11
206.2280514938986
 21
450.7404884098816
 31
0.0
 11
198.3415429830526
 21
449.9344729616865
 31
0.0
  0
SPLINE
  5
219
330
1F
100
AcDbEntity
  8
0
  6
Continuous
 62
     7
100
AcDbSpline
210
0.0
220
0.0
230
1.0
 70
     8
 71
     3
 72
    11
 73
     7
 74
     5
 42
0.0000000001
 43
0.0000000001
 44
0.00000001
 40
0.0
 40
0.0
 40
0.0
 40
0.0
 40
33.43783431888853
 40
66.85683217615808
 40
100.2853097659452
 40
133.6950049513988
 40
133.6950049513988
 40
133.6950049513988
 40
133.6950049513988
 10
347.7390648369262
 20
455.379551114396
 30
0.0
 10
336.5929953717513
 20
455.3336548902638
 30
0.0
 10
314.3071353321836
 20
455.241888296618
 30
0.0
 10
280.8857805926441
 20
454.4840901480319
 30
0.0
 10
247.4857430747935
 20
453.3125459745208
 30
0.0
 10
225.238004995434
 20
452.1171171959813
 30
0.0
 10
214.117261909044
 20
451.5195707723048
 30
0.0
 11
347.7390648369262
 21
455.379551114396
 31
0.0
 11
314.302099777715
 21
455.1384462274108
 31
0.0
 11
280.8909294646205
 21
454.4151785773807
 31
0.0
 11
247.4842318180766
 21
453.208668600919
 31
0.0
 11
214.117261909044
 21
451.5195707723048
 31
0.0
  0
SPLINE
  5
21A
330
1F
100
AcDbEntity
  8
0
  6
Continuous
 62
     7
100
AcDbSpline
210
0.0
220
0.0
230
1.0
 70
     8
 71
     3
 72
    11
 73
     7
 74
     5
 42
0.0000000001
 43
0.0000000001
 44
0.00000001
 40
0.0
 40
0.0
 40
0.0
 40
0.0
 40
33.40969536908145
 40
66.83817277516269
 40
100.257170755449
 40
133.6950049513953
 40
133.6950049513953
 40
133.6950049513953
 40
133.6950049513953
 10
662.5658240570626
 20
451.5195707722947
 30
0.0
 10
651.4450809095356
 20
452.1171171990358
 30
0.0
 10
629.1973428301733
 20
453.3125459771341
 30
0.0
 10
595.7973052713381
 20
454.4840901508392
 30
0.0
 10
562.3759505929666
 20
455.2418882972265
 30
0.0
 10
540.0900905533767
 20
455.3336548905773
 30
0.0
 10
528.9440211291841
 20
455.3795511143931
 30
0.0
 11
662.5658240570626
 21
451.5195707722947
 31
0.0
 11
629.1988539645698
 21
453.2086686088668
 31
0.0
 11
595.7921565015643
 21
454.4151785773717
 31
0.0
 11
562.3809860654627
 21
455.1384462291791
 31
0.0
 11
528.9440211291841
 21
455.3795511143931
 31
0.0
  0
SPLINE
  5
21B
330
1F
100
AcDbEntity
  8
0
  6
Continuous
 62
     7
100
AcDbSpline
210
0.0
220
0.0
230
1.0
 70
    24
 71
     3
 72
    11
 73
     7
 74
     5
 42
0.0000000001
 43
0.0000000001
 44
0.00000001
 40
0.0
 40
0.0
 40
0.0
 40
0.0
 40
10.09185014354318
 40
18.46776699418284
 40
22.34886373989548
 40
26.22996048560795
 40
26.22996048560795
 40
26.22996048560795
 40
26.22996048560795
 10
-617.995176161636
 20
1019.061646969803
 30
0.0
 10
-621.3550319509204
 20
1018.895728316162
 30
0.0
 10
-627.5034619184684
 20
1018.592102420826
 30
0.0
 10
-634.9440162422425
 20
1018.224667973288
 30
0.0
 10
-640.3168391329575
 20
1017.959343627189
 30
0.0
 10
-642.9010878454099
 20
1017.831726522784
 30
0.0
 10
-644.1932122016358
 20
1017.767917970582
 30
0.0
 11
-617.995176161636
 21
1019.061646969803
 31
0.0
 11
-628.0747435294895
 21
1018.56389100888
 31
0.0
 11
-636.4404660642795
 21
1018.150769283795
 31
0.0
 11
-640.3168391329577
 21
1017.959343627189
 31
0.0
 11
-644.1932122016358
 21
1017.767917970582
 31
0.0
  0
SPLINE
  5
21C
330
1F
100
AcDbEntity
  8
0
  6
Continuous
 62
     7
100
AcDbSpline
210
0.0
220
0.0
230
1.0
 70
     8
 71
     3
 72
    25
 73
    21
 74
    19
 42
0.0000000001
 43
0.0000000001
 44
0.00000001
 40
0.0
 40
0.0
 40
0.0
 40
0.0
 40
1.993076618797294
 40
3.98462850702838
 40
4.909442786894185
 40
5.736803695666167
 40
6.612556023400724
 40
7.488448824947297
 40
9.238281408374155
 40
10.99017060414669
 40
11.8211391255775
 40
12.74189260710361
 40
13.57530610102013
 40
14.49362954025725
 40
16.24601843915229
 40
17.99554786468406
 40
18.93179818615158
 40
19.98900613292845
 40
21.04478265780374
 40
21.98259787154969
 40
21.98259787154969
 40
21.98259787154969
 40
21.98259787154969
 10
-644.1932122016358
 20
1017.767917970582
 30
0.0
 10
-644.1749606150735
 20
1018.433061656328
 30
0.0
 10
-644.1384714046592
 20
1019.762840183906
 30
0.0
 10
-643.803641641419
 20
1021.373698806272
 30
0.0
 10
-643.4381343877218
 20
1022.567076092395
 30
0.0
 10
-643.1293051084142
 20
1023.387454562528
 30
0.0
 10
-642.7791713797906
 20
1024.173166710805
 30
0.0
 10
-642.2393572644451
 20
1025.208693502816
 30
0.0
 10
-641.4469818443265
 20
1026.438628066576
 30
0.0
 10
-640.5197195881167
 20
1027.550931516472
 30
0.0
 10
-639.6936849809538
 20
1028.377255170962
 30
0.0
 10
-639.0478426016277
 20
1028.948687216129
 30
0.0
 10
-638.3453378031533
 20
1029.497282994811
 30
0.0
 10
-637.3819036776625
 20
1030.158904982567
 30
0.0
 10
-636.0914062220415
 20
1030.878060141474
 30
0.0
 10
-634.7171017625325
 20
1031.436081322164
 30
0.0
 10
-633.5215087048637
 20
1031.795623137321
 30
0.0
 10
-632.5290893075085
 20
1032.018742533755
 30
0.0
 10
-631.5225831989023
 20
1032.173154170728
 30
0.0
 10
-630.8592182636794
 20
1032.216265940168
 30
0.0
 10
-630.5471615288597
 20
1032.236546357913
 30
0.0
 11
-644.1932122016358
 21
1017.767917970582
 31
0.0
 11
-644.0795956372525
 21
1019.75775356296
 31
0.0
 11
-643.6908628616282
 21
1021.710998491962
 31
0.0
 11
-643.4189128319729
 21
1022.594924186585
 31
0.0
 11
-643.127658889078
 21
1023.369325383712
 31
0.0
 11
-642.7711322214999
 21
1024.169219673502
 31
0.0
 11
-642.3662486200217
 21
1024.945916183765
 31
0.0
 11
-641.4184908254958
 21
1026.416857798153
 31
0.0
 11
-640.2967821747279
 21
1027.762549240147
 31
0.0
 11
-639.7093099681515
 21
1028.350243965416
 31
0.0
 11
-639.0197222321267
 21
1028.96037159802
 31
0.0
 11
-638.3628688231207
 21
1029.473325446743
 31
0.0
 11
-637.6058531128167
 21
1029.993176534464
 31
0.0
 11
-636.0750466043194
 21
1030.846111635461
 31
0.0
 11
-634.4541349557153
 21
1031.504517770169
 31
0.0
 11
-633.5574880379846
 21
1031.773941171848
 31
0.0
 11
-632.5262693170215
 21
1032.006914544282
 31
0.0
 11
-631.4820818606839
 21
1032.162916552298
 31
0.0
 11
-630.5471615288597
 21
1032.236546357913
 31
0.0
  0
SPLINE
  5
21D
330
1F
100
AcDbEntity
  8
0
  6
Continuous
 62
     7
100
AcDbSpline
210
0.0
220
0.0
230
1.0
 70
     8
 71
     3
 72
   151
 73
   147
 74
   145
 42
0.0000000001
 43
0.0000000001
 44
0.00000001
 40
0.0
 40
0.0
 40
0.0
 40
0.0
 40
0.0645143022437041
 40
0.1297913195028622
 40
0.2019808462368491
 40
0.2595819152413627
 40
0.3899267805595599
 40
0.519196250503903
 40
0.7810946445106739
 40
1.038406782820897
 40
1.102907451785802
 40
1.191074970205037
 40
1.297927829787622
 40
1.427143555820125
 40
1.557438064851971
 40
1.688357052933907
 40
1.816933336431676
 40
1.881797302044728
 40
1.946661216254664
 40
1.988481748025786
 40
2.011518344503078
 40
2.044086636248282
 40
2.076377681729087
 40
2.333837504784511
 40
2.59528997745591
 40
2.723987789565035
 40
2.854686612750518
 40
2.890850491924922
 40
2.948167816085343
 40
3.023572068777557
 40
3.113999063716458
 40
3.373599707680563
 40
3.632577994997515
 40
3.697287193644265
 40
3.762187431470296
 40
3.837874734338028
 40
3.891779701045206
 40
4.021281113835594
 40
4.150970652327989
 40
4.363186188569054
 40
4.570777762979453
 40
4.666585331975296
 40
4.780608813065583
 40
4.886563477639799
 40
4.990417209862572
 40
5.096335397458701
 40
5.200195874316227
 40
5.255705526594745
 40
5.326200943293708
 40
5.409960606100722
 40
5.621821265011465
 40
5.829515550683796
 40
6.037710650585949
 40
6.248938823504669
 40
6.363561214794893
 40
6.458539965042393
 40
6.562666427726001
 40
6.668099448187578
 40
6.784350751610806
 40
6.87762296402412
 40
6.982047130422656
 40
7.087131815365682
 40
7.299959243671272
 40
7.506121533791831
 40
7.702526552801855
 40
7.924924208492031
 40
8.009342558822285
 40
8.080040419821756
 40
8.134259421322247
 40
8.238684926944087
 40
8.343590385757651
 40
8.551957982062655
 40
8.762142573552097
 40
8.80371430232962
 40
8.866743025299487
 40
8.919092191937143
 40
8.971334993812913
 40
9.076498971093262
 40
9.180500967040244
 40
9.23270116656122
 40
9.285068815793313
 40
9.325518195391046
 40
9.389622770883351
 40
9.494859538176316
 40
9.598743722452298
 40
9.807307288297
 40
10.01701818390973
 40
10.22560032549343
 40
10.4351627035478
 40
10.53953209754893
 40
10.6441166134631
 40
10.76151437124927
 40
10.85297434554396
 40
11.25864852398513
 40
11.68851618305099
 40
11.90017896414909
 40
12.10616324609388
 40
12.21014315541606
 40
12.31487011776335
 40
12.36694094858078
 40
12.41918372864418
 40
12.4798652493128
 40
12.52347754304971
 40
12.6831653278621
 40
12.8231147873049
 40
12.94070222535602
 40
13.14982012787369
 40
13.35797416095003
 40
13.56364811078464
 40
13.77511898623036
 40
13.8882545277947
 40
14.02869863843083
 40
14.19198437166336
 40
14.23390118346785
 40
14.29616628517405
 40
14.34807677178109
 40
14.40035802988056
 40
14.50582869480057
 40
14.60879090779553
 40
14.82200700554241
 40
15.02578155413363
 40
15.45950390361763
 40
15.85961767182095
 40
16.14680033031602
 40
16.45795579024121
 40
16.79202241569393
 40
17.14801052635641
 40
17.52500837763493
 40
17.78730752960585
 40
18.03889991026463
 40
18.28624526733532
 40
18.55273073420088
 40
18.81195818173926
 40
19.06658705021559
 40
19.19914850544294
 40
19.32343326628549
 40
19.45104784402805
 40
19.58027075691638
 40
19.84278287406017
 40
20.09391239816966
 40
20.28111539729943
 40
20.45276935449989
 40
20.60757964424168
 40
20.93453093672405
 40
21.27723134892564
 40
21.63525925428374
 40
21.63525925428374
 40
21.63525925428374
 40
21.63525925428374
 10
-604.9148976494946
 20
1033.47360486915
 30
0.0
 10
-604.9363732091781
 20
1033.472483726545
 30
0.0
 10
-604.9795782215776
 20
1033.470228186719
 30
0.0
 10
-605.0467926431126
 20
1033.466331309078
 30
0.0
 10
-605.1116891237521
 20
1033.462280660646
 30
0.0
 10
-605.1982076542467
 20
1033.456491572618
 30
0.0
 10
-605.3036647210879
 20
1033.448760798321
 30
0.0
 10
-605.4769201035665
 20
1033.434523438466
 30
0.0
 10
-605.6921122628053
 20
1033.413963968791
 30
0.0
 10
-605.8854560370551
 20
1033.392054029191
 30
0.0
 10
-606.0210720150702
 20
1033.375191385899
 30
0.0
 10
-606.1068620361807
 20
1033.364072387476
 30
0.0
 10
-606.2139514827559
 20
1033.349475694385
 30
0.0
 10
-606.3348125704133
 20
1033.331966362367
 30
0.0
 10
-606.463436502002
 20
1033.312127514871
 30
0.0
 10
-606.5916611757718
 20
1033.291134789172
 30
0.0
 10
-606.6981971062435
 20
1033.272686883944
 30
0.0
 10
-606.782933678566
 20
1033.257415837984
 30
0.0
 10
-606.8391628382437
 20
1033.247014893431
 30
0.0
 10
-606.8816522606758
 20
1033.23899105084
 30
0.0
 10
-606.9135487827807
 20
1033.232887980266
 30
0.0
 10
-606.9423128431207
 20
1033.227316432332
 30
0.0
 10
-607.0477388020646
 20
1033.206612421163
 30
0.0
 10
-607.2276209105743
 20
1033.169113988756
 30
0.0
 10
-607.4380093774023
 20
1033.120703050421
 30
0.0
 10
-607.6065839711488
 20
1033.079156659
 30
0.0
 10
-607.7019944602522
 20
1033.054591031828
 30
0.0
 10
-607.7742383019906
 20
1033.03548839072
 30
0.0
 10
-607.8286058101063
 20
1033.020882162994
 30
0.0
 10
-607.9003461768289
 20
1033.001230512648
 30
0.0
 10
-608.0368953707648
 20
1032.962958173862
 30
0.0
 10
-608.2316729187464
 20
1032.905716058013
 30
0.0
 10
-608.4171717707462
 20
1032.847425612907
 30
0.0
 10
-608.5402826217819
 20
1032.807156451077
 30
0.0
 10
-608.6052241351833
 20
1032.785578465139
 30
0.0
 10
-608.6666430966506
 20
1032.764822937595
 30
0.0
 10
-608.7483389904058
 20
1032.736811511268
 30
0.0
 10
-608.8468485083602
 20
1032.702339482134
 30
0.0
 10
-608.9946988219499
 20
1032.649119043539
 30
0.0
 10
-609.1663044386086
 20
1032.585059400316
 30
0.0
 10
-609.3264436752859
 20
1032.522630087369
 30
0.0
 10
-609.4555468632507
 20
1032.47073816791
 30
0.0
 10
-609.5529295923308
 20
1032.430776813889
 30
0.0
 10
-609.6524915036014
 20
1032.38906938144
 30
0.0
 10
-609.7492729448086
 20
1032.34772384185
 30
0.0
 10
-609.8451209911686
 20
1032.305976877705
 30
0.0
 10
-609.9259433684115
 20
1032.270093081265
 30
0.0
 10
-609.995805168197
 20
1032.238624673539
 30
0.0
 10
-610.0594223164582
 20
1032.209608532585
 30
0.0
 10
-610.1701668908794
 20
1032.158332890095
 30
0.0
 10
-610.3216383673644
 20
1032.086178590834
 30
0.0
 10
-610.5091394809836
 20
1031.993268749811
 30
0.0
 10
-610.6950045767236
 20
1031.8975873087
 30
0.0
 10
-610.8520055557947
 20
1031.813665421986
 30
0.0
 10
-610.974914983979
 20
1031.746055035555
 30
0.0
 10
-611.066150383362
 20
1031.694943496055
 30
0.0
 10
-611.1543543940911
 20
1031.644693244448
 30
0.0
 10
-611.2483083355394
 20
1031.590217387391
 30
0.0
 10
-611.3387071234789
 20
1031.536829211279
 30
0.0
 10
-611.4284052606222
 20
1031.482923219553
 30
0.0
 10
-611.5145496371756
 20
1031.430334222812
 30
0.0
 10
-611.6341742372697
 20
1031.35611228921
 30
0.0
 10
-611.7815923346784
 20
1031.262370823079
 30
0.0
 10
-611.9530672889266
 20
1031.14977326724
 30
0.0
 10
-612.1255741200939
 20
1031.03297474797
 30
0.0
 10
-612.2630748687255
 20
1030.936886143012
 30
0.0
 10
-612.3654310622566
 20
1030.863684188379
 30
0.0
 10
-612.4219708090711
 20
1030.822790086067
 30
0.0
 10
-612.4837178448452
 20
1030.777717504391
 30
0.0
 10
-612.5543881437354
 20
1030.725530481749
 30
0.0
 10
-612.6657820577564
 20
1030.641999210521
 30
0.0
 10
-612.8042199017893
 20
1030.535779639498
 30
0.0
 10
-612.9245036085645
 20
1030.440608163172
 30
0.0
 10
-613.0061965502107
 20
1030.374758111988
 30
0.0
 10
-613.0468054122844
 20
1030.341773819172
 30
0.0
 10
-613.0900213691795
 20
1030.306358395623
 30
0.0
 10
-613.1439237944035
 20
1030.261825623439
 30
0.0
 10
-613.2107675300176
 20
1030.205925581793
 30
0.0
 10
-613.2771544687448
 20
1030.149505770923
 30
0.0
 10
-613.3298629228434
 20
1030.10417006424
 30
0.0
 10
-613.3663855522028
 20
1030.072503404141
 30
0.0
 10
-613.4057851252532
 20
1030.038098108362
 30
0.0
 10
-613.4582784858681
 20
1029.991895047785
 30
0.0
 10
-613.5262317066237
 20
1029.931254540567
 30
0.0
 10
-613.6293301063802
 20
1029.837683377031
 30
0.0
 10
-613.756751407466
 20
1029.719103231017
 30
0.0
 10
-613.9073440880928
 20
1029.574235105853
 30
0.0
 10
-614.0557725502113
 20
1029.426678054775
 30
0.0
 10
-614.1772761413353
 20
1029.301876382392
 30
0.0
 10
-614.2733646067816
 20
1029.200737224849
 30
0.0
 10
-614.347648813235
 20
1029.121263688377
 30
0.0
 10
-614.4183379308835
 20
1029.044324540371
 30
0.0
 10
-614.5556656678187
 20
1028.892329584612
 30
0.0
 10
-614.7586070651767
 20
1028.659247463463
 30
0.0
 10
-614.9796815848372
 20
1028.389029028749
 30
0.0
 10
-615.1533677941094
 20
1028.166212194347
 30
0.0
 10
-615.2581528286094
 20
1028.027448125996
 30
0.0
 10
-615.3401924500984
 20
1027.916194251645
 30
0.0
 10
-615.3912454225442
 20
1027.845838885278
 30
0.0
 10
-615.4318442768923
 20
1027.789207790959
 30
0.0
 10
-615.4637168631577
 20
1027.744386205942
 30
0.0
 10
-615.4937815028443
 20
1027.701739160096
 30
0.0
 10
-615.5442201092394
 20
1027.62963591138
 30
0.0
 10
-615.6091397917611
 20
1027.535417101256
 30
0.0
 10
-615.6868686434329
 20
1027.420088709303
 30
0.0
 10
-615.7726559216455
 20
1027.29033010119
 30
0.0
 10
-615.8693027740204
 20
1027.140504096025
 30
0.0
 10
-615.979331730168
 20
1026.964394608449
 30
0.0
 10
-616.0872158670463
 20
1026.786045997272
 30
0.0
 10
-616.1764807330127
 20
1026.633473203097
 30
0.0
 10
-616.2532175863983
 20
1026.498780544114
 30
0.0
 10
-616.3209060192492
 20
1026.377423889027
 30
0.0
 10
-616.3759280620428
 20
1026.276191811101
 30
0.0
 10
-616.4179014669386
 20
1026.19753422811
 30
0.0
 10
-616.4422206383605
 20
1026.15153634785
 30
0.0
 10
-616.4679370717108
 20
1026.102369944307
 30
0.0
 10
-616.5000775131442
 20
1026.040311330378
 30
0.0
 10
-616.5395726123131
 20
1025.962898413063
 30
0.0
 10
-616.6024405802208
 20
1025.837191892597
 30
0.0
 10
-616.6780863168733
 20
1025.681243848562
 30
0.0
 10
-616.7977980680803
 20
1025.424170959803
 30
0.0
 10
-616.9362667776554
 20
1025.107155162014
 30
0.0
 10
-617.0751834426114
 20
1024.760205093847
 30
0.0
 10
-617.1910537020196
 20
1024.448184594523
 30
0.0
 10
-617.2928586787485
 20
1024.154500785006
 30
0.0
 10
-617.3947575733248
 20
1023.836666579517
 30
0.0
 10
-617.4948905176716
 20
1023.495328251325
 30
0.0
 10
-617.5798802715777
 20
1023.174593072243
 30
0.0
 10
-617.6493635819171
 20
1022.885856733018
 30
0.0
 10
-617.7041997385401
 20
1022.638092878594
 30
0.0
 10
-617.754889549495
 20
1022.38802463493
 30
0.0
 10
-617.8014379709705
 20
1022.134561448948
 30
0.0
 10
-617.8436191949376
 20
1021.877875880909
 30
0.0
 10
-617.8746633701941
 20
1021.664638415916
 30
0.0
 10
-617.896899188812
 20
1021.495600799533
 30
0.0
 10
-617.912452170664
 20
1021.368392773943
 30
0.0
 10
-617.9267496867913
 20
1021.242157330707
 30
0.0
 10
-617.9446739759553
 20
1021.069969258568
 30
0.0
 10
-617.9639195677025
 20
1020.856533713584
 30
0.0
 10
-617.9806936798011
 20
1020.623509557293
 30
0.0
 10
-617.9921663135667
 20
1020.42049897625
 30
0.0
 10
-617.9996722835424
 20
1020.249437034867
 30
0.0
 10
-618.0067400783629
 20
1020.031742115034
 30
0.0
 10
-618.0108693396311
 20
1019.756932620191
 30
0.0
 10
-618.0085740770429
 20
1019.414330054132
 30
0.0
 10
-617.999706786803
 20
1019.180909915517
 30
0.0
 10
-617.995176161636
 20
1019.061646969803
 30
0.0
 11
-604.9148976494946
 21
1033.47360486915
 31
0.0
 11
-604.979320981151
 21
1033.470180028674
 31
0.0
 11
-605.0444895623911
 21
1033.466419044573
 31
0.0
 11
-605.1165386283848
 21
1033.461917949205
 31
0.0
 11
-605.1740112301594
 21
1033.458073057046
 31
0.0
 11
-605.3040072290485
 21
1033.448542884558
 31
0.0
 11
-605.4328424555351
 21
1033.437956087317
 31
0.0
 11
-605.6935537240156
 21
1033.413048191568
 31
0.0
 11
-605.9492297205658
 21
1033.384077148959
 31
0.0
 11
-606.0132374539622
 21
1033.376118106154
 31
0.0
 11
-606.1006737217539
 21
1033.364786275814
 31
0.0
 11
-606.2065466567714
 21
1033.350348297016
 31
0.0
 11
-606.334427611297
 21
1033.331823575055
 31
0.0
 11
-606.463199326237
 21
1033.311961437324
 31
0.0
 11
-606.5923982680104
 21
1033.290809253393
 31
0.0
 11
-606.7190891869027
 21
1033.26887134674
 31
0.0
 11
-606.7829247673844
 21
1033.257366882406
 31
0.0
 11
-606.8467068067891
 21
1033.245569475233
 31
0.0
 11
-606.8878007830937
 21
1033.237807903929
 31
0.0
 11
-606.9104267964962
 21
1033.233477973818
 31
0.0
 11
-606.9424008623332
 21
1033.227285014828
 31
0.0
 11
-606.9740866677953
 21
1033.221062366641
 31
0.0
 11
-607.2261294722886
 21
1033.168526805438
 31
0.0
 11
-607.4809242703767
 21
1033.109900818596
 31
0.0
 11
-607.605882612255
 21
1033.079102447913
 31
0.0
 11
-607.7324547757819
 21
1033.046519173029
 31
0.0
 11
-607.7674166928522
 21
1033.037273065107
 31
0.0
 11
-607.8227726839237
 21
1033.022407336016
 31
0.0
 11
-607.8954984774889
 21
1033.002488493821
 31
0.0
 11
-607.9825698020392
 21
1032.978083046586
 31
0.0
 11
-608.2316372678978
 21
1032.904885425058
 31
0.0
 11
-608.4787037393483
 21
1032.827245796088
 31
0.0
 11
-608.5402063921273
 21
1032.807128537561
 31
0.0
 11
-608.6017957117576
 21
1032.786664017597
 31
0.0
 11
-608.6735006841726
 21
1032.762436662266
 31
0.0
 11
-608.7244915333841
 21
1032.744952991816
 31
0.0
 11
-608.8467250087939
 21
1032.702179245149
 31
0.0
 11
-608.9687497053235
 21
1032.658254880256
 31
0.0
 11
-609.1675643177664
 21
1032.584037741391
 31
0.0
 11
-609.3609778488865
 21
1032.508635700664
 31
0.0
 11
-609.4498733729547
 21
1032.47290509645
 31
0.0
 11
-609.5553627337722
 21
1032.429622894631
 31
0.0
 11
-609.6530885399277
 21
1032.388683210261
 31
0.0
 11
-609.7485923361114
 21
1032.347883423361
 31
0.0
 11
-609.8456991592777
 21
1032.305587710124
 31
0.0
 11
-609.9406241829502
 21
1032.263442265129
 31
0.0
 11
-609.9912348268181
 21
1032.240641295339
 31
0.0
 11
-610.0553739933719
 21
1032.211387729927
 31
0.0
 11
-610.1313817596965
 21
1032.176195393092
 31
0.0
 11
-610.3226504092306
 21
1032.085084238454
 31
0.0
 11
-610.5087505505904
 21
1031.992868981111
 31
0.0
 11
-610.6938580406165
 21
1031.897577760322
 31
0.0
 11
-610.880143314065
 21
1031.798002974704
 31
0.0
 11
-610.9805736013012
 21
1031.742757612992
 31
0.0
 11
-611.0634367161298
 21
1031.696339220091
 31
0.0
 11
-611.1539106619251
 21
1031.644795206246
 31
0.0
 11
-611.2451209886083
 21
1031.591910443696
 31
0.0
 11
-611.3452181212149
 21
1031.532792514169
 31
0.0
 11
-611.425166223717
 21
1031.484750797768
 31
0.0
 11
-611.5142958444369
 21
1031.430342000333
 31
0.0
 11
-611.6035888297027
 21
1031.374938446368
 31
0.0
 11
-611.7831806949625
 21
1031.260735661062
 31
0.0
 11
-611.9555098999656
 21
1031.14757411737
 31
0.0
 11
-612.118142933425
 21
1031.037458596574
 31
0.0
 11
-612.3004365258923
 21
1030.91006250793
 31
0.0
 11
-612.3691033324279
 21
1030.860957237819
 31
0.0
 11
-612.4263873365545
 21
1030.819523792136
 31
0.0
 11
-612.4701803346569
 21
1030.787557036891
 31
0.0
 11
-612.5541832492307
 21
1030.725523202837
 31
0.0
 11
-612.6381123873159
 21
1030.66258628943
 31
0.0
 11
-612.8034227560011
 21
1030.535741749953
 31
0.0
 11
-612.9682489635302
 21
1030.405319804671
 31
0.0
 11
-613.0006151229927
 21
1030.379230719689
 31
0.0
 11
-613.0495370045154
 21
1030.339490696696
 31
0.0
 11
-613.0900267024977
 21
1030.30630908123
 31
0.0
 11
-613.1303022371424
 21
1030.273034591648
 31
0.0
 11
-613.2109744496195
 21
1030.205570110241
 31
0.0
 11
-613.2902230571931
 21
1030.138219732673
 31
0.0
 11
-613.3297981070946
 21
1030.104180398729
 31
0.0
 11
-613.3693643559711
 21
1030.069874675651
 31
0.0
 11
-613.3998323612618
 21
1030.043269169389
 31
0.0
 11
-613.4479498313178
 21
1030.000912284772
 31
0.0
 11
-613.5264688460613
 21
1029.930844164247
 31
0.0
 11
-613.6033948684153
 21
1029.861027899469
 31
0.0
 11
-613.7560769411325
 21
1029.718947127833
 31
0.0
 11
-613.9072126606789
 21
1029.57356262379
 31
0.0
 11
-614.0551382694175
 21
1029.426509830321
 31
0.0
 11
-614.2013255952168
 21
1029.276357720541
 31
0.0
 11
-614.2732123613324
 21
1029.200692251127
 31
0.0
 11
-614.3446290354196
 21
1029.124288196056
 31
0.0
 11
-614.4240517523809
 21
1029.037834361186
 31
0.0
 11
-614.4853726198619
 21
1028.969976582639
 31
0.0
 11
-614.751771665845
 21
1028.6640303662
 31
0.0
 11
-615.0239684932773
 21
1028.331321647579
 31
0.0
 11
-615.1540965678273
 21
1028.164385081435
 31
0.0
 11
-615.2782263457088
 21
1028.000003444226
 31
0.0
 11
-615.3399378872591
 21
1027.916316484775
 31
0.0
 11
-615.4014451224323
 21
1027.831554484658
 31
0.0
 11
-615.4317837897719
 21
1027.78923502476
 31
0.0
 11
-615.4620598636111
 21
1027.746659592623
 31
0.0
 11
-615.4970247915198
 21
1027.697064222204
 31
0.0
 11
-615.5220236093874
 21
1027.661327808419
 31
0.0
 11
-615.6126318655901
 21
1027.529835099396
 31
0.0
 11
-615.6908472031363
 21
1027.413782472666
 31
0.0
 11
-615.7556966218075
 21
1027.315693948947
 31
0.0
 11
-615.8690505091114
 21
1027.13996349232
 31
0.0
 11
-615.9793410601969
 21
1026.963429937925
 31
0.0
 11
-616.0857901132894
 21
1026.787445925196
 31
0.0
 11
-616.1925755924631
 21
1026.604917043647
 31
0.0
 11
-616.2485785750463
 21
1026.506614873239
 31
0.0
 11
-616.3169900189934
 21
1026.383959165873
 31
0.0
 11
-616.3949550295257
 21
1026.24048900239
 31
0.0
 11
-616.4146891905542
 21
1026.203508169512
 31
0.0
 11
-616.4437895138651
 21
1026.148461697566
 31
0.0
 11
-616.4678488337885
 21
1026.102463352546
 31
0.0
 11
-616.4918924544589
 21
1026.056038851972
 31
0.0
 11
-616.539825171458
 21
1025.96208931339
 31
0.0
 11
-616.5858805072587
 21
1025.870001728184
 31
0.0
 11
-616.67894028123
 21
1025.678165905651
 31
0.0
 11
-616.7649664485264
 21
1025.493440257205
 31
0.0
 11
-616.938601939929
 21
1025.095991150316
 31
0.0
 11
-617.0873446961789
 21
1024.724552568624
 31
0.0
 11
-617.1873254660442
 21
1024.455335695086
 31
0.0
 11
-617.289245269263
 21
1024.16134577357
 31
0.0
 11
-617.3912431873463
 21
1023.843231116649
 31
0.0
 11
-617.4914583018046
 21
1023.501640036895
 31
0.0
 11
-617.5880296941489
 21
1023.137220846883
 31
0.0
 11
-617.6494010222358
 21
1022.882202405955
 31
0.0
 11
-617.7037684455679
 21
1022.636554468276
 31
0.0
 11
-617.7529062737342
 21
1022.394139123243
 31
0.0
 11
-617.8010430915776
 21
1022.132037328479
 31
0.0
 11
-617.843079222681
 21
1021.876240860092
 31
0.0
 11
-617.8797635694532
 21
1021.624268402543
 31
0.0
 11
-617.8970523984131
 21
1021.492839198006
 31
0.0
 11
-617.9121371973359
 21
1021.369473276378
 31
0.0
 11
-617.926499045844
 21
1021.242669420917
 31
0.0
 11
-617.9398787220498
 21
1021.11414103697
 31
0.0
 11
-617.9634549260398
 21
1020.852689752305
 31
0.0
 11
-617.9814861738271
 21
1020.602208391756
 31
0.0
 11
-617.9920490395095
 21
1020.415303633251
 31
0.0
 11
-617.9995758193718
 21
1020.243814774699
 31
0.0
 11
-618.0045891381589
 21
1020.089085680975
 31
0.0
 11
-618.009634434057
 21
1019.762173318644
 31
0.0
 11
-618.0068617365853
 21
1019.419484123203
 31
0.0
 11
-617.995176161636
 21
1019.061646969803
 31
0.0
  0
SPLINE
  5
21E
330
1F
100
AcDbEntity
  8
0
  6
Continuous
 62
     7
100
AcDbSpline
210
0.0
220
0.0
230
1.0
 70
     8
 71
     3
 72
    25
 73
    21
 74
    19
 42
0.0000000001
 43
0.0000000001
 44
0.00000001
 40
0.0
 40
0.0
 40
0.0
 40
0.0
 40
20.18601043504091
 40
39.46042914803384
 40
49.00224592204352
 40
59.20084621312369
 40
69.21963161288063
 40
78.94823991788296
 40
83.72599726460554
 40
88.82407612478039
 40
93.76313163262539
 40
98.70150202957925
 40
108.5822196334323
 40
118.4615276505794
 40
123.4334805358725
 40
128.3437512021141
 40
133.493346493146
 40
138.2273184238177
 40
148.205966559669
 40
157.9994505961207
 40
157.9994505961207
 40
157.9994505961207
 40
157.9994505961207
 10
-617.995176161636
 20
1019.061646969803
 30
0.0
 10
-616.7651228952002
 20
1012.446278737673
 30
0.0
 10
-614.3605650493249
 20
999.514289514137
 30
0.0
 10
-611.1264287268764
 20
983.5029410642317
 30
0.0
 10
-608.451203097717
 20
970.7761114917313
 30
0.0
 10
-606.3510000405171
 20
961.0811731742856
 30
0.0
 10
-604.178275357674
 20
951.3384497208785
 30
0.0
 10
-602.3510338245247
 20
943.3701688827184
 30
0.0
 10
-600.8624379407208
 20
937.0071521980207
 30
0.0
 10
-599.7231289814719
 20
932.2020677312612
 30
0.0
 10
-598.5566750718949
 20
927.3484219221289
 30
0.0
 10
-596.9984721063796
 20
920.9493486301752
 30
0.0
 10
-595.0146256186758
 20
912.9590922295736
 30
0.0
 10
-592.9800029383832
 20
904.970062329605
 30
0.0
 10
-591.3254638699552
 20
898.5940512126754
 30
0.0
 10
-590.0523138562253
 20
893.7478840608097
 30
0.0
 10
-588.7848281236783
 20
888.9822683596548
 30
0.0
 10
-587.0633833681814
 20
882.5892383303736
 30
0.0
 10
-584.9075116151506
 20
874.710072618192
 30
0.0
 10
-583.1196540980656
 20
868.3664713725694
 30
0.0
 10
-582.2340968956133
 20
865.2243743548464
 30
0.0
 11
-617.995176161636
 21
1019.061646969803
 31
0.0
 11
-614.2527264078159
 21
999.2255917388929
 31
0.0
 11
-610.450950564218
 21
980.3298325014659
 31
0.0
 11
-608.4869965673713
 21
970.9923193396523
 31
0.0
 11
-606.3281155927167
 21
961.0248381716493
 31
0.0
 11
-604.1473096009406
 21
951.2462827511071
 31
0.0
 11
-601.9728629238307
 21
941.7637935631055
 31
0.0
 11
-600.8845151504688
 21
937.1116473499712
 31
0.0
 11
-599.708341690145
 21
932.1511006002882
 31
0.0
 11
-598.5542185823756
 21
927.3487814561988
 31
0.0
 11
-597.385843423447
 21
922.5506149662249
 31
0.0
 11
-595.0049076971455
 21
912.9610516062844
 31
0.0
 11
-592.5667059400394
 21
903.387342863623
 31
0.0
 11
-591.3178686631636
 21
898.5747841939069
 31
0.0
 11
-590.0702361087641
 21
893.8256610090489
 31
0.0
 11
-588.7465553796634
 21
888.8490958292462
 31
0.0
 11
-587.5159503549902
 21
884.2778704449934
 31
0.0
 11
-584.8788826019281
 21
874.6539787017905
 31
0.0
 11
-582.2340968956133
 21
865.2243743548464
 31
0.0
  0
SPLINE
  5
21F
330
1F
100
AcDbEntity
  8
0
  6
Continuous
 62
     7
100
AcDbSpline
210
0.0
220
0.0
230
1.0
 70
     8
 71
     3
 72
    17
 73
    13
 74
    11
 42
0.0000000001
 43
0.0000000001
 44
0.00000001
 40
0.0
 40
0.0
 40
0.0
 40
0.0
 40
4.237701530459614
 40
8.000471000909716
 40
11.63585310322225
 40
15.23900610024553
 40
17.76121786246444
 40
20.29710540441483
 40
21.63547667267052
 40
22.98232576422204
 40
24.42794438784691
 40
25.66212588088459
 40
25.66212588088459
 40
25.66212588088459
 40
25.66212588088459
 10
-630.5471615288597
 20
1032.236546357913
 30
0.0
 10
-629.1360879864621
 20
1032.301489872079
 30
0.0
 10
-626.4720841921983
 20
1032.424098483856
 30
0.0
 10
-622.5977263428624
 20
1032.605840320977
 30
0.0
 10
-618.9347678990253
 20
1032.780112750889
 30
0.0
 10
-615.6849783698782
 20
1032.93717312933
 30
0.0
 10
-612.8013503084786
 20
1033.078398145207
 30
0.0
 10
-610.6718024654472
 20
1033.183846427277
 30
0.0
 10
-608.9335983375785
 20
1033.270632284671
 30
0.0
 10
-607.5583850327768
 20
1033.339694562567
 30
0.0
 10
-606.2178761458479
 20
1033.407376699123
 30
0.0
 10
-605.3257610889241
 20
1033.452721382737
 30
0.0
 10
-604.9148976494946
 20
1033.47360486915
 30
0.0
 11
-630.5471615288597
 21
1032.236546357913
 31
0.0
 11
-626.3139715043844
 21
1032.432036710471
 31
0.0
 11
-622.555330621188
 21
1032.608254754143
 31
0.0
 11
-618.9240588625901
 21
1032.781079651144
 31
0.0
 11
-615.325106798823
 21
1032.955020913254
 31
0.0
 11
-612.8059145885001
 21
1033.078401547569
 31
0.0
 11
-610.2731301292134
 21
1033.203814896999
 31
0.0
 11
-608.9364239895268
 21
1033.270555797626
 31
0.0
 11
-607.5912697098263
 21
1033.338101628115
 31
0.0
 11
-606.1474912064884
 21
1033.411018281018
 31
0.0
 11
-604.9148976494946
 21
1033.47360486915
 31
0.0
  0
SPLINE
  5
220
330
1F
100
AcDbEntity
  8
0
  6
Continuous
 62
     7
100
AcDbSpline
210
0.0
220
0.0
230
1.0
 70
     8
 71
     3
 72
   160
 73
   156
 74
   154
 42
0.0000000001
 43
0.0000000001
 44
0.00000001
 40
0.0
 40
0.0
 40
0.0
 40
0.0
 40
0.1857565378654737
 40
0.3670957648051142
 40
0.4379547671332087
 40
0.4994715541876053
 40
0.5506396704239703
 40
0.6420418615339687
 40
0.7341963455858291
 40
0.9178826581292354
 40
1.10135765597997
 40
1.193177441533382
 40
1.284934472069687
 40
1.342988479900091
 40
1.393654678192853
 40
1.435850760958863
 40
1.468493953755465
 40
1.829596247917082
 40
2.20286457348786
 40
2.295205827103376
 40
2.386434221027423
 40
2.440276345031775
 40
2.501656548987846
 40
2.569991205693606
 40
2.679619257961729
 40
2.778013516098309
 40
2.864174758617701
 40
2.937100411672006
 40
3.426523114737751
 40
3.9159946130276
 40
4.405639865957465
 40
4.497375615314138
 40
4.589128814897827
 40
4.647583149711797
 40
4.698632620529652
 40
4.740804806584499
 40
4.772626810020791
 40
4.956317860382714
 40
5.139726936699487
 40
5.500561631303847
 40
5.873923004144313
 40
6.040062637028122
 40
6.205804300799241
 40
6.271514403851399
 40
6.326947259464674
 40
6.37168523779444
 40
6.453834416531455
 40
6.537597704127208
 40
6.875133602152022
 40
7.201387770622358
 40
7.409131637106755
 40
7.630540021072833
 40
7.864846971884756
 40
7.912157407609057
 40
7.947716844741191
 40
7.987570459529876
 40
8.030577619051773
 40
8.113149379158843
 40
8.196313143247785
 40
8.364311031978534
 40
8.52782395415257
 40
8.756057274585674
 40
8.977081530206158
 40
9.190724103740861
 40
9.254650490676646
 40
9.332175724887373
 40
9.421782908660983
 40
9.521957297418744
 40
9.622754970741957
 40
9.733330299013842
 40
9.853087957881819
 40
10.20363010229208
 40
10.54147601125819
 40
10.86628058290814
 40
11.17766003437858
 40
11.42628870804007
 40
11.66186501410765
 40
11.88372072989493
 40
12.09116842704782
 40
12.31947151074171
 40
12.54769752451225
 40
12.71564814274122
 40
12.86820442404609
 40
13.00399733538516
 40
13.08956901207198
 40
13.16587188616462
 40
13.23208666671302
 40
13.3455376689448
 40
13.46014518990039
 40
13.68590365561648
 40
13.9161658992161
 40
14.01113690519065
 40
14.11936290280346
 40
14.23996478009113
 40
14.37206780028242
 40
14.60004907685162
 40
14.82788680037024
 40
14.94137869006111
 40
15.05570311091007
 40
15.12028396510834
 40
15.19654610634823
 40
15.28344953961984
 40
15.41522932591853
 40
15.53580551387123
 40
15.64407481687038
 40
15.73892945538997
 40
15.95202999610621
 40
16.17509652603973
 40
16.4077653562723
 40
16.64968719123004
 40
16.75565763070618
 40
16.87719133193459
 40
16.93424239596842
 40
16.99092544105721
 40
17.03959227422597
 40
17.07851653955628
 40
17.10465686282843
 40
17.33668379988297
 40
17.5596546908947
 40
17.85648100611333
 40
18.15976571329097
 40
18.46936046150659
 40
18.49886703316118
 40
18.53933899634384
 40
18.58858771604288
 40
18.64779498080353
 40
18.70780628533881
 40
18.82789835355831
 40
18.94622247512569
 40
18.97775305260048
 40
19.0058196206275
 40
19.02053824385665
 40
19.03561728872238
 40
19.04760603074325
 40
19.06541476305491
 40
19.09027100454824
 40
19.13084232846202
 40
19.18460307957799
 40
19.30515234932084
 40
19.42296027176048
 40
19.51356930532586
 40
19.59345834115621
 40
19.66129249053512
 40
19.72359443510173
 40
19.78044979458718
 40
19.79534452122966
 40
19.81023820601577
 40
19.82513238159712
 40
19.84002656009625
 40
19.86981492584904
 40
19.89960330327464
 40
20.13791074288761
 40
20.37621892941083
 40
21.32294893516883
 40
22.28271129730903
 40
22.28271129730903
 40
22.28271129730903
 40
22.28271129730903
 10
-604.9148976494946
 20
1033.47360486915
 30
0.0
 10
-604.8530467393265
 20
1033.47652230527
 30
0.0
 10
-604.7308157404447
 20
1033.482287800556
 30
0.0
 10
-604.5848931973926
 20
1033.486775959362
 30
0.0
 10
-604.4803488989513
 20
1033.489167723726
 30
0.0
 10
-604.4191773776796
 20
1033.490276564244
 30
0.0
 10
-604.3511551314194
 20
1033.491243971968
 30
0.0
 10
-604.2729164578012
 20
1033.491982222449
 30
0.0
 10
-604.1505021564487
 20
1033.492384292601
 30
0.0
 10
-603.9973954859649
 20
1033.491472333254
 30
0.0
 10
-603.8444231526983
 20
1033.488681173249
 30
0.0
 10
-603.7221180191817
 20
1033.485322797111
 30
0.0
 10
-603.6416192786337
 20
1033.482617978362
 30
0.0
 10
-603.5748431696625
 20
1033.480038902375
 30
0.0
 10
-603.5245824814847
 20
1033.477915489733
 30
0.0
 10
-603.4827902915337
 20
1033.476018188976
 30
0.0
 10
-603.3376439789599
 20
1033.469043643011
 30
0.0
 10
-603.0824307688848
 20
1033.453247594657
 30
0.0
 10
-602.807879893085
 20
1033.429166873733
 30
0.0
 10
-602.6232641261709
 20
1033.409949620885
 30
0.0
 10
-602.5446052989239
 20
1033.401254930447
 30
0.0
 10
-602.4762444698866
 20
1033.393344014857
 30
0.0
 10
-602.4154945595128
 20
1033.38605285911
 30
0.0
 10
-602.3363275858031
 20
1033.37617157541
 30
0.0
 10
-602.2449929290397
 20
1033.364167935066
 30
0.0
 10
-602.1478668040672
 20
1033.350652550598
 30
0.0
 10
-602.0629400505002
 20
1033.338248992051
 30
0.0
 10
-601.8492237327999
 20
1033.305772401402
 30
0.0
 10
-601.5036105381887
 20
1033.246345833997
 30
0.0
 10
-601.0241788682411
 20
1033.147087543753
 30
0.0
 10
-600.6772046477598
 20
1033.062951897765
 30
0.0
 10
-600.4602450462542
 20
1033.005731675634
 30
0.0
 10
-600.382394436323
 20
1032.984673287227
 30
0.0
 10
-600.3177265269861
 20
1032.966824864072
 30
0.0
 10
-600.269037850003
 20
1032.953201330893
 30
0.0
 10
-600.2289322620576
 20
1032.941849192638
 30
0.0
 10
-600.1463417836274
 20
1032.918253053519
 30
0.0
 10
-600.0187384191211
 20
1032.880829900429
 30
0.0
 10
-599.7867341653968
 20
1032.809746213503
 30
0.0
 10
-599.4959056390806
 20
1032.714915472667
 30
0.0
 10
-599.2128960892367
 20
1032.614950972803
 30
0.0
 10
-598.99267868123
 20
1032.532676701863
 30
0.0
 10
-598.8690505727514
 20
1032.48491417364
 30
0.0
 10
-598.7801167941884
 20
1032.449763389307
 30
0.0
 10
-598.7287802576984
 20
1032.429221573932
 30
0.0
 10
-598.6724401558374
 20
1032.406435594954
 30
0.0
 10
-598.6074659659229
 20
1032.379811783267
 30
0.0
 10
-598.4525653085576
 20
1032.315250235056
 30
0.0
 10
-598.224016513793
 20
1032.215891892276
 30
0.0
 10
-597.9603970984945
 20
1032.093755952501
 30
0.0
 10
-597.7339770500813
 20
1031.983562609813
 30
0.0
 10
-597.5366223020958
 20
1031.883743900265
 30
0.0
 10
-597.388243934003
 20
1031.805629232944
 30
0.0
 10
-597.295194414346
 20
1031.75543257257
 30
0.0
 10
-597.2592500548045
 20
1031.735901628547
 30
0.0
 10
-597.2246144690837
 20
1031.716966752432
 30
0.0
 10
-597.1763021715581
 20
1031.690380873454
 30
0.0
 10
-597.1154792189952
 20
1031.656585565844
 30
0.0
 10
-597.0185310048681
 20
1031.602028525934
 30
0.0
 10
-596.8986274055764
 20
1031.533252819238
 30
0.0
 10
-596.7377920263396
 20
1031.438670732124
 30
0.0
 10
-596.563055177515
 20
1031.332882290713
 30
0.0
 10
-596.3757242791485
 20
1031.215678799854
 30
0.0
 10
-596.2360922522748
 20
1031.125531085874
 30
0.0
 10
-596.1372366977428
 20
1031.060432432661
 30
0.0
 10
-596.0731092882904
 20
1031.017773900495
 30
0.0
 10
-595.9991917743981
 20
1030.968019474471
 30
0.0
 10
-595.9191761202457
 20
1030.913435153614
 30
0.0
 10
-595.8337826288902
 20
1030.854335656744
 30
0.0
 10
-595.7434689638167
 20
1030.790879004984
 30
0.0
 10
-595.5859027402672
 20
1030.678344288297
 30
0.0
 10
-595.3691592183914
 20
1030.518332235727
 30
0.0
 10
-595.1021196114436
 20
1030.311521335457
 30
0.0
 10
-594.8498701606883
 20
1030.107066567499
 30
0.0
 10
-594.6247263292719
 20
1029.916511304653
 30
0.0
 10
-594.4255348821166
 20
1029.741419072203
 30
0.0
 10
-594.2512901120319
 20
1029.583195648813
 30
0.0
 10
-594.0894977670976
 20
1029.431719043118
 30
0.0
 10
-593.9316348904724
 20
1029.279627332807
 30
0.0
 10
-593.7744867199837
 20
1029.123764337593
 30
0.0
 10
-593.6289326601211
 20
1028.974942168748
 30
0.0
 10
-593.5027719814653
 20
1028.842498884885
 30
0.0
 10
-593.3990374992351
 20
1028.731258873606
 30
0.0
 10
-593.3149066226191
 20
1028.639293471318
 30
0.0
 10
-593.2484721039584
 20
1028.565593724936
 30
0.0
 10
-593.1978699860898
 20
1028.508848632868
 30
0.0
 10
-593.1413853818971
 20
1028.444899259577
 30
0.0
 10
-593.0768787942791
 20
1028.371000953267
 30
0.0
 10
-592.9782462262756
 20
1028.256304466739
 30
0.0
 10
-592.8558256201363
 20
1028.110717510415
 30
0.0
 10
-592.7397166860919
 20
1027.968401344803
 30
0.0
 10
-592.6495700722963
 20
1027.855484924656
 30
0.0
 10
-592.5828048056519
 20
1027.770678451692
 30
0.0
 10
-592.5091108245224
 20
1027.675578047403
 30
0.0
 10
-592.412040951327
 20
1027.548097524377
 30
0.0
 10
-592.2952032456393
 20
1027.390751089147
 30
0.0
 10
-592.1844057897789
 20
1027.236674177814
 30
0.0
 10
-592.0971483354747
 20
1027.112354215119
 30
0.0
 10
-592.0417660605508
 20
1027.032150844685
 30
0.0
 10
-591.9938558353806
 20
1026.961871845731
 30
0.0
 10
-591.9513994093045
 20
1026.898938003785
 30
0.0
 10
-591.8968752586733
 20
1026.817126726808
 30
0.0
 10
-591.8348704827291
 20
1026.722552238216
 30
0.0
 10
-591.7698300983744
 20
1026.621457589768
 30
0.0
 10
-591.7121596769429
 20
1026.530261277206
 30
0.0
 10
-591.6388227836742
 20
1026.412485607418
 30
0.0
 10
-591.5468419106952
 20
1026.261245725769
 30
0.0
 10
-591.4338466860338
 20
1026.069046605231
 30
0.0
 10
-591.3191279663535
 20
1025.866748049152
 30
0.0
 10
-591.226420526492
 20
1025.696867753507
 30
0.0
 10
-591.1531158422602
 20
1025.558624267198
 30
0.0
 10
-591.1093392976134
 20
1025.474477282424
 30
0.0
 10
-591.0735751683964
 20
1025.404684340081
 30
0.0
 10
-591.049077336002
 20
1025.35641090211
 30
0.0
 10
-591.0274708944077
 20
1025.313446379875
 30
0.0
 10
-591.0105340215935
 20
1025.27952956747
 30
0.0
 10
-590.9664823485175
 20
1025.190836350606
 30
0.0
 10
-590.8963485411011
 20
1025.046596463407
 30
0.0
 10
-590.79013271273
 20
1024.819601858514
 30
0.0
 10
-590.6781058147965
 20
1024.569134426406
 30
0.0
 10
-590.5597960930218
 20
1024.289910444968
 30
0.0
 10
-590.4802774672878
 20
1024.091075108536
 30
0.0
 10
-590.4346258699864
 20
1023.97307363593
 30
0.0
 10
-590.4203735366915
 20
1023.935974636599
 30
0.0
 10
-590.4027083890726
 20
1023.889581279744
 30
0.0
 10
-590.3829242985639
 20
1023.837025794014
 30
0.0
 10
-590.355131959435
 20
1023.762253448516
 30
0.0
 10
-590.3210613890226
 20
1023.668792850692
 30
0.0
 10
-590.2909485884902
 20
1023.583997625671
 30
0.0
 10
-590.2713954740618
 20
1023.528006469948
 30
0.0
 10
-590.2632769981258
 20
1023.504602634682
 30
0.0
 10
-590.2569833409856
 20
1023.486370248025
 30
0.0
 10
-590.2524505168262
 20
1023.473199629997
 30
0.0
 10
-590.2476013996555
 20
1023.459048551185
 30
0.0
 10
-590.2416687786463
 20
1023.441823677509
 30
0.0
 10
-590.2326182759803
 20
1023.415595875926
 30
0.0
 10
-590.2197474934999
 20
1023.37800896603
 30
0.0
 10
-590.196733711138
 20
1023.310179599205
 30
0.0
 10
-590.1659440959585
 20
1023.217801994196
 30
0.0
 10
-590.1320214362111
 20
1023.113524667439
 30
0.0
 10
-590.1028553800607
 20
1023.021954920111
 30
0.0
 10
-590.07911860787
 20
1022.946139539624
 30
0.0
 10
-590.0584887794562
 20
1022.879239551283
 30
0.0
 10
-590.0403475194386
 20
1022.819607342439
 30
0.0
 10
-590.0274894537199
 20
1022.776813192734
 30
0.0
 10
-590.0192383630861
 20
1022.749135645641
 30
0.0
 10
-590.014992861357
 20
1022.734859343824
 30
0.0
 10
-590.0107454521664
 20
1022.720583800602
 30
0.0
 10
-590.0050828656918
 20
1022.701549324314
 30
0.0
 10
-589.998004403842
 20
1022.677756289458
 30
0.0
 10
-589.9696908654574
 20
1022.582583885499
 30
0.0
 10
-589.9215579076382
 20
1022.420790471223
 30
0.0
 10
-589.786272730997
 20
1021.966038514813
 30
0.0
 10
-589.5824200733143
 20
1021.280783796217
 30
0.0
 10
-589.4012277399336
 20
1020.671664468928
 30
0.0
 10
-589.310012278065
 20
1020.365022903388
 30
0.0
 11
-604.9148976494946
 21
1033.47360486915
 31
0.0
 11
-604.7293239304968
 21
1033.481844175983
 31
0.0
 11
-604.5480749974591
 21
1033.487566020072
 31
0.0
 11
-604.4772343539241
 21
1033.489178916374
 31
0.0
 11
-604.4157276991584
 21
1033.490295388061
 31
0.0
 11
-604.3645647702452
 21
1033.491023964894
 31
0.0
 11
-604.2731666493232
 21
1033.491886537578
 31
0.0
 11
-604.1810126624382
 21
1033.492189245456
 31
0.0
 11
-603.9973296060435
 21
1033.491095531917
 31
0.0
 11
-603.8138851379994
 21
1033.487748595957
 31
0.0
 11
-603.7220999469929
 21
1033.485228331887
 31
0.0
 11
-603.6303946750264
 21
1033.482146814989
 31
0.0
 11
-603.5723839106911
 21
1033.479906492154
 31
0.0
 11
-603.5217628894275
 21
1033.477767367177
 31
0.0
 11
-603.479610263846
 21
1033.475852802636
 31
0.0
 11
-603.447004686558
 21
1033.474286161109
 31
0.0
 11
-603.0865918284536
 21
1033.451982830375
 31
0.0
 11
-602.7147506677055
 21
1033.419373107164
 31
0.0
 11
-602.6229056128949
 21
1033.409813137179
 31
0.0
 11
-602.5322296761086
 21
1033.399788450356
 31
0.0
 11
-602.4787446566299
 21
1033.393597569266
 31
0.0
 11
-602.4178017607011
 21
1033.386283687021
 31
0.0
 11
-602.349993276402
 21
1033.377819954739
 31
0.0
 11
-602.2412998787371
 21
1033.36353516744
 31
0.0
 11
-602.14384469995
 21
1033.349973524405
 31
0.0
 11
-602.0585878501604
 21
1033.337522449092
 31
0.0
 11
-601.9864894394882
 21
1033.326569364963
 31
0.0
 11
-601.5041447363172
 21
1033.243634634005
 31
0.0
 11
-601.0248354674213
 21
1033.144412799772
 31
0.0
 11
-600.5489780899084
 21
1033.029034162307
 31
0.0
 11
-600.4602754554766
 21
1033.005639924664
 31
0.0
 11
-600.3717051281609
 21
1032.981682738831
 31
0.0
 11
-600.3153570415796
 21
1032.966132742138
 31
0.0
 11
-600.2661958006986
 21
1032.952376984586
 31
0.0
 11
-600.2256179927682
 21
1032.94089069797
 31
0.0
 11
-600.1950202050392
 21
1032.932149114087
 31
0.0
 11
-600.0187543558982
 21
1032.880450444765
 31
0.0
 11
-599.8433920627134
 21
1032.82672004923
 31
0.0
 11
-599.5003378844627
 21
1032.714847319689
 31
0.0
 11
-599.1482959462437
 21
1032.590488208787
 31
0.0
 11
-598.9926637820081
 21
1032.532341780951
 31
0.0
 11
-598.8380585616945
 21
1032.472613019358
 31
0.0
 11
-598.7769494048972
 21
1032.448457510698
 31
0.0
 11
-598.7254845543052
 21
1032.427862107449
 31
0.0
 11
-598.6840099014094
 21
1032.41108891836
 31
0.0
 11
-598.6079949959797
 21
1032.379940536064
 31
0.0
 11
-598.5306783757748
 21
1032.347715877975
 31
0.0
 11
-598.221125447275
 21
1032.213151889803
 31
0.0
 11
-597.9250975089963
 21
1032.076005099091
 31
0.0
 11
-597.7383009828718
 21
1031.985095408245
 31
0.0
 11
-597.5407271727039
 21
1031.885164121722
 31
0.0
 11
-597.3333978931009
 21
1031.776011398356
 31
0.0
 11
-597.2917599844516
 21
1031.753548943198
 31
0.0
 11
-597.26051462404
 21
1031.736572458818
 31
0.0
 11
-597.2255453317422
 21
1031.717455471401
 31
0.0
 11
-597.1878661696601
 21
1031.696721525444
 31
0.0
 11
-597.1156879862982
 21
1031.656616595401
 31
0.0
 11
-597.0432120112962
 21
1031.615831246255
 31
0.0
 11
-596.8974849872825
 21
1031.532243417655
 31
0.0
 11
-596.7565373008221
 21
1031.449356594822
 31
0.0
 11
-596.5612969467836
 21
1031.331154849019
 31
0.0
 11
-596.3739238408277
 21
1031.213924133176
 31
0.0
 11
-596.1944368240202
 21
1031.098046784121
 31
0.0
 11
-596.1410472245381
 21
1031.062888092254
 31
0.0
 11
-596.0764988098949
 21
1031.019950182355
 31
0.0
 11
-596.002163004108
 21
1030.969913841943
 31
0.0
 11
-595.9194112311934
 21
1030.913459858536
 31
0.0
 11
-595.8365275918152
 21
1030.856097211537
 31
0.0
 11
-595.7460523006516
 21
1030.792527368755
 31
0.0
 11
-595.6485978151972
 21
1030.722924781717
 31
0.0
 11
-595.3665816566744
 21
1030.514726123364
 31
0.0
 11
-595.0994725845316
 21
1030.307862395795
 31
0.0
 11
-594.8471431685024
 21
1030.103343752216
 31
0.0
 11
-594.6094659783205
 21
1029.902180345839
 31
0.0
 11
-594.4227248571514
 21
1029.738034157851
 31
0.0
 11
-594.2483218700378
 21
1029.579668144873
 31
0.0
 11
-594.0863682247349
 21
1029.428040392135
 31
0.0
 11
-593.9369751289975
 21
1029.28410898486
 31
0.0
 11
-593.7748791149418
 21
1029.123338402192
 31
0.0
 11
-593.6153001242778
 21
1028.960176951168
 31
0.0
 11
-593.4994591879631
 21
1028.838569847604
 31
0.0
 11
-593.395415566494
 21
1028.726997701451
 31
0.0
 11
-593.3037580282263
 21
1028.626804835195
 31
0.0
 11
-593.2464636892408
 21
1028.563244859021
 31
0.0
 11
-593.1956802151663
 21
1028.506296045551
 31
0.0
 11
-593.151844715788
 21
1028.456668974739
 31
0.0
 11
-593.0772376474351
 21
1028.371200177747
 31
0.0
 11
-593.0025119540536
 21
1028.284303948783
 31
0.0
 11
-592.8572175951796
 21
1028.111513804035
 31
0.0
 11
-592.711656595338
 21
1027.933096607127
 31
0.0
 11
-592.6524055747941
 21
1027.858875258848
 31
0.0
 11
-592.5854598296832
 21
1027.773839185498
 31
0.0
 11
-592.5115878715334
 21
1027.678509512235
 31
0.0
 11
-592.4315582118722
 21
1027.573407364216
 31
0.0
 11
-592.295643725597
 21
1027.390369895684
 31
0.0
 11
-592.1626262754725
 21
1027.205393177634
 31
0.0
 11
-592.0974260238384
 21
1027.112498957079
 31
0.0
 11
-592.0324646226798
 21
1027.018424042453
 31
0.0
 11
-591.9960888011042
 21
1026.965062199028
 31
0.0
 11
-591.9534386845382
 21
1026.901841302614
 31
0.0
 11
-591.9052435972706
 21
1026.82952643362
 31
0.0
 11
-591.8329887425023
 21
1026.719321406333
 31
0.0
 11
-591.7677499112083
 21
1026.617918684513
 31
0.0
 11
-591.7098830903572
 21
1026.526410908796
 31
0.0
 11
-591.6597442669163
 21
1026.445890719821
 31
0.0
 11
-591.5490129279234
 21
1026.263818176536
 31
0.0
 11
-591.4359612247271
 21
1026.07152155883
 31
0.0
 11
-591.3211910972104
 21
1025.869129359396
 31
0.0
 11
-591.2053044852567
 21
1025.656770070927
 31
0.0
 11
-591.1556604973513
 21
1025.563147378658
 31
0.0
 11
-591.099570305576
 21
1025.455331188219
 31
0.0
 11
-591.0735526125607
 21
1025.404558128851
 31
0.0
 11
-591.0479012963556
 21
1025.354011342826
 31
0.0
 11
-591.0260345570308
 21
1025.310533689233
 31
0.0
 11
-591.008645222008
 21
1025.275709711014
 31
0.0
 11
-590.997017125556
 21
1025.252298092666
 31
0.0
 11
-590.8955596201197
 21
1025.043628799023
 31
0.0
 11
-590.8010613897162
 21
1024.841673104156
 31
0.0
 11
-590.6798736519029
 21
1024.570712971277
 31
0.0
 11
-590.5615571957067
 21
1024.29145891168
 31
0.0
 11
-590.4466000532749
 21
1024.003998021251
 31
0.0
 11
-590.435953789237
 21
1023.976479030847
 31
0.0
 11
-590.4214395691006
 21
1023.93869917884
 31
0.0
 11
-590.4039160056022
 21
1023.892673521709
 31
0.0
 11
-590.3830569704664
 21
1023.837262323801
 31
0.0
 11
-590.3621487906594
 21
1023.781011059911
 31
0.0
 11
-590.3210177998458
 21
1023.668182222977
 31
0.0
 11
-590.281421157692
 21
1023.556680188579
 31
0.0
 11
-590.2710257074544
 21
1023.526912556321
 31
0.0
 11
-590.2618276120772
 21
1023.500396008992
 31
0.0
 11
-590.2570246501483
 21
1023.48648308599
 31
0.0
 11
-590.2521188326859
 21
1023.472224385169
 31
0.0
 11
-590.2482278909762
 21
1023.460884609693
 31
0.0
 11
-590.2424324175286
 21
1023.444045267839
 31
0.0
 11
-590.2343340600385
 21
1023.42054528173
 31
0.0
 11
-590.2211872569151
 21
1023.382163073719
 31
0.0
 11
-590.2039149234831
 21
1023.331252516284
 31
0.0
 11
-590.165794303732
 21
1023.216889301983
 31
0.0
 11
-590.1293469288063
 21
1023.104861200818
 31
0.0
 11
-590.1018464221373
 21
1023.01852627685
 31
0.0
 11
-590.0779771783184
 21
1022.94228641034
 31
0.0
 11
-590.0579881248266
 21
1022.877464272436
 31
0.0
 11
-590.0398548795138
 21
1022.817859593834
 31
0.0
 11
-590.0234956691685
 21
1022.763408623787
 31
0.0
 11
-590.0192398678607
 21
1022.749134835328
 31
0.0
 11
-590.0149925814117
 21
1022.734859597875
 31
0.0
 11
-590.0107455386036
 21
1022.72058377588
 31
0.0
 11
-590.006498497892
 21
1022.706307950217
 31
0.0
 11
-589.9980044227598
 21
1022.677756287886
 31
0.0
 11
-589.9895103560153
 21
1022.649204610881
 31
0.0
 11
-589.921558124135
 21
1022.420790666566
 31
0.0
 11
-589.8536064296377
 21
1022.192375783122
 31
0.0
 11
-589.5836612772464
 21
1021.28494682254
 31
0.0
 11
-589.310012278065
 21
1020.365022903388
 31
0.0
  0
SPLINE
  5
221
330
1F
100
AcDbEntity
  8
0
  6
Continuous
 62
     7
100
AcDbSpline
210
0.0
220
0.0
230
1.0
 70
     8
 71
     3
 72
    11
 73
     7
 74
     5
 42
0.0000000001
 43
0.0000000001
 44
0.00000001
 40
0.0
 40
0.0
 40
0.0
 40
0.0
 40
8.74873215931683
 40
17.49269743859689
 40
26.12627189333307
 40
34.98632192589068
 40
34.98632192589068
 40
34.98632192589068
 40
34.98632192589068
 10
-582.2340968956133
 20
865.2243743548464
 30
0.0
 10
-581.450911090569
 20
862.4151922533258
 30
0.0
 10
-579.8849662112011
 20
856.7983586759617
 30
0.0
 10
-577.7178253905611
 20
848.3630603266713
 30
0.0
 10
-575.6564049076512
 20
839.8631223457536
 30
0.0
 10
-574.3989209638299
 20
834.1689668609024
 30
0.0
 10
-573.7620391863865
 20
831.2850303430248
 30
0.0
 11
-582.2340968956133
 21
865.2243743548464
 31
0.0
 11
-579.9132921475886
 21
856.7890806600774
 31
0.0
 11
-577.7279451384505
 21
848.3226063493087
 31
0.0
 11
-575.7026827917699
 21
839.9299357199684
 31
0.0
 11
-573.7620391863865
 21
831.2850303430248
 31
0.0
  0
SPLINE
  5
222
330
1F
100
AcDbEntity
  8
0
  6
Continuous
 62
     7
100
AcDbSpline
210
0.0
220
0.0
230
1.0
 70
     8
 71
     3
 72
    11
 73
     7
 74
     5
 42
0.0000000001
 43
0.0000000001
 44
0.00000001
 40
0.0
 40
0.0
 40
0.0
 40
0.0
 40
7.625875420872161
 40
14.00177455902142
 40
21.54238330829421
 40
28.02016826612129
 40
28.02016826612129
 40
28.02016826612129
 40
28.02016826612129
 10
-546.519067682081
 20
654.0949251536887
 30
0.0
 10
-546.3238039958933
 20
651.5604664102134
 30
0.0
 10
-545.965282781912
 20
646.9069783846745
 30
0.0
 10
-545.4708920147416
 20
639.7431763377532
 30
0.0
 10
-545.040157206319
 20
632.958654319468
 30
0.0
 10
-544.7860318474127
 20
628.2927530780534
 30
0.0
 10
-544.6686025996886
 20
626.1366783160045
 30
0.0
 11
-546.519067682081
 21
654.0949251536887
 31
0.0
 11
-545.9443067614275
 21
646.4907403966781
 31
0.0
 11
-545.502965423231
 21
640.1301344787603
 31
0.0
 11
-545.0298474857757
 21
632.6043827072183
 31
0.0
 11
-544.6686025996886
 21
626.1366783160045
 31
0.0
  0
SPLINE
  5
223
330
1F
100
AcDbEntity
  8
0
  6
Continuous
 62
     7
100
AcDbSpline
210
0.0
220
0.0
230
1.0
 70
     8
 71
     3
 72
    11
 73
     7
 74
     5
 42
0.0000000001
 43
0.0000000001
 44
0.00000001
 40
0.0
 40
0.0
 40
0.0
 40
0.0
 40
4.047446300860677
 40
8.082930346539593
 40
12.13651841082466
 40
16.17935029994064
 40
16.17935029994064
 40
16.17935029994064
 40
16.17935029994064
 10
-547.9215842321565
 20
670.2132338494034
 30
0.0
 10
-547.7959948076966
 20
668.8699413300453
 30
0.0
 10
-547.5451871391782
 20
666.1873264015432
 30
0.0
 10
-547.1885505004816
 20
662.15755771353
 30
0.0
 10
-546.8447960471069
 20
658.1282156283737
 30
0.0
 10
-546.6275475981747
 20
655.4381640584137
 30
0.0
 10
-546.519067682081
 20
654.0949251536887
 30
0.0
 11
-547.9215842321565
 21
670.2132338494034
 31
0.0
 11
-547.5481476483777
 21
666.1830518837539
 31
0.0
 11
-547.1911977244954
 21
662.1633854504825
 31
0.0
 11
-546.8475397516788
 21
658.1243910963599
 31
0.0
 11
-546.519067682081
 21
654.0949251536887
 31
0.0
  0
SPLINE
  5
224
330
1F
100
AcDbEntity
  8
0
  6
Continuous
 62
     7
100
AcDbSpline
210
0.0
220
0.0
230
1.0
 70
     8
 71
     3
 72
    21
 73
    17
 74
    15
 42
0.0000000001
 43
0.0000000001
 44
0.00000001
 40
0.0
 40
0.0
 40
0.0
 40
0.0
 40
41.08084088825044
 40
81.58039739097295
 40
102.0450850163567
 40
122.3955135940749
 40
132.6149006989648
 40
142.8090930010128
 40
147.9160397596288
 40
153.0171810542698
 40
154.2931860872286
 40
155.5693469687316
 40
157.0914945403739
 40
158.1215570264272
 40
160.6745504069082
 40
163.2261911276953
 40
163.2261911276953
 40
163.2261911276953
 40
163.2261911276953
 10
-573.7620391863865
 20
831.2850303430248
 30
0.0
 10
-570.9519886801757
 20
817.88224188906
 30
0.0
 10
-565.3716492316969
 20
791.2663113340861
 30
0.0
 10
-559.4261591729825
 20
757.7684347112181
 30
0.0
 10
-555.2437856318725
 20
730.9875627581024
 30
0.0
 10
-552.8939743083904
 20
714.138156617382
 30
0.0
 10
-551.1904613399145
 20
700.6572296502814
 30
0.0
 10
-550.1996143254983
 20
692.2081524131652
 30
0.0
 10
-549.45432829838
 20
685.4483342960468
 30
0.0
 10
-549.0527228189696
 20
681.6414108316955
 30
0.0
 10
-548.7926567691885
 20
679.1035986974906
 30
0.0
 10
-548.6558350751983
 20
677.7524034646649
 30
0.0
 10
-548.5289259925386
 20
676.4826054391053
 30
0.0
 10
-548.361839584457
 20
674.7890935404417
 30
0.0
 10
-548.1633758759806
 20
672.7538463425558
 30
0.0
 10
-548.0021672073849
 20
671.0599550609503
 30
0.0
 10
-547.9215842321565
 20
670.2132338494034
 30
0.0
 11
-573.7620391863865
 21
831.2850303430248
 31
0.0
 11
-565.5416428964053
 21
791.0350542818964
 31
0.0
 11
-558.4425896534361
 21
751.1625384348783
 31
0.0
 11
-555.2932241778736
 21
730.9416349756887
 31
0.0
 11
-552.485134586072
 21
710.7858770851696
 31
0.0
 11
-551.2045730021791
 21
700.6470391424145
 31
0.0
 11
-550.0176930182886
 21
690.5221750645627
 31
0.0
 11
-549.4580992495045
 21
685.4459796379389
 31
0.0
 11
-548.92299404516
 21
680.3729820104828
 31
0.0
 11
-548.792916828359
 21
679.1036243927069
 31
0.0
 11
-548.6643470482937
 21
677.833956559322
 31
0.0
 11
-548.512995727532
 21
676.3193523180893
 31
0.0
 11
-548.4117948781716
 21
675.2942732414991
 31
0.0
 11
-548.1643155032742
 21
672.7533031197188
 31
0.0
 11
-547.9215842321565
 21
670.2132338494034
 31
0.0
  0
SPLINE
  5
225
330
1F
100
AcDbEntity
  8
0
  6
Continuous
 62
     7
100
AcDbSpline
210
0.0
220
0.0
230
1.0
 70
     8
 71
     3
 72
    21
 73
    17
 74
    15
 42
0.0000000001
 43
0.0000000001
 44
0.00000001
 40
0.0
 40
0.0
 40
0.0
 40
0.0
 40
10.33898331153944
 40
21.04051250717802
 40
26.30787471835899
 40
31.56374957756574
 40
36.58465243515961
 40
42.0886891235814
 40
63.85889937518414
 40
84.20814988066228
 40
94.45145260325157
 40
105.2789498306012
 40
115.9777697288664
 40
126.3569879124783
 40
147.7405964809969
 40
168.5336287128486
 40
168.5336287128486
 40
168.5336287128486
 40
168.5336287128486
 10
-589.310012278065
 20
1020.365022903388
 30
0.0
 10
-588.678175028885
 20
1016.97709818042
 30
0.0
 10
-587.3923445808334
 20
1010.082448062605
 30
0.0
 10
-585.7134535632661
 20
1001.475262881517
 30
0.0
 10
-584.3281125909048
 20
994.5372948777119
 30
0.0
 10
-583.2966887780972
 20
989.459600926484
 30
0.0
 10
-582.233398467226
 20
984.3079057682317
 30
0.0
 10
-580.0232484809937
 20
973.7721686708791
 30
0.0
 10
-576.6334068659035
 20
958.2632741767729
 30
0.0
 10
-572.6845519626199
 20
941.2610933007629
 30
0.0
 10
-569.4338294679826
 20
927.8424670182403
 30
0.0
 10
-566.8732742122611
 20
917.5667373048315
 30
0.0
 10
-564.2335088054535
 20
907.2642788085898
 30
0.0
 10
-560.6289603270348
 20
893.5770447929576
 30
0.0
 10
-556.0169148572286
 20
876.6755677453861
 30
0.0
 10
-552.0949756016438
 20
863.1746231852482
 30
0.0
 10
-550.1614643545361
 20
856.5186740609897
 30
0.0
 11
-589.310012278065
 21
1020.365022903388
 31
0.0
 11
-587.4007583761947
 21
1010.203855379206
 31
0.0
 11
-585.3562409028477
 21
999.6994431906884
 31
0.0
 11
-584.3245034949914
 21
994.5341142965126
 31
0.0
 11
-583.2783443595223
 21
989.3834083644179
 31
0.0
 11
-582.2634189224443
 21
984.4661538598629
 31
0.0
 11
-581.1333919809863
 21
979.0793682711214
 31
0.0
 11
-576.484627371141
 21
957.8112926176628
 31
0.0
 11
-571.8808943807553
 21
937.9896469067755
 31
0.0
 11
-569.469142453727
 21
928.0343114875603
 31
0.0
 11
-566.851252233614
 21
917.5280587300973
 31
0.0
 11
-564.1953761934296
 21
907.1641275418517
 31
0.0
 11
-561.5533985581465
 21
897.1267910287281
 31
0.0
 11
-555.9083517912327
 21
876.5017537581925
 31
0.0
 11
-550.1614643545361
 21
856.5186740609897
 31
0.0
  0
SPLINE
  5
226
330
1F
100
AcDbEntity
  8
0
  6
Continuous
 62
     7
100
AcDbSpline
210
0.0
220
0.0
230
1.0
 70
     8
 71
     3
 72
    33
 73
    29
 74
    27
 42
0.0000000001
 43
0.0000000001
 44
0.00000001
 40
0.0
 40
0.0
 40
0.0
 40
0.0
 40
11.19614323158733
 40
22.57044936711415
 40
28.19159808459646
 40
33.8574013451415
 40
36.67374049717807
 40
39.50123787424777
 40
42.16133192975845
 40
45.14537078639022
 40
56.31298378755798
 40
67.72524412601622
 40
73.34159925287547
 40
79.01665798624039
 40
81.56219103577372
 40
84.6626579346439
 40
87.47475025424647
 40
90.30905205858008
 40
101.4392473724834
 40
112.8982249864818
 40
118.5083305831343
 40
124.1943430682839
 40
127.0093528589524
 40
129.8426258020116
 40
132.4648114650317
 40
135.4911329273083
 40
157.3574982012938
 40
180.6910019916476
 40
180.6910019916476
 40
180.6910019916476
 40
180.6910019916476
 10
-550.1614643545361
 20
856.5186740609897
 30
0.0
 10
-549.1244076371089
 20
852.9336023706926
 30
0.0
 10
-547.0337916412834
 20
845.7064101680212
 30
0.0
 10
-544.4773372564887
 20
836.6635586947235
 30
0.0
 10
-542.4507966081625
 20
829.3867195495986
 30
0.0
 10
-541.2031356397527
 20
824.8541993090857
 30
0.0
 10
-540.2109792898084
 20
821.2172185692706
 30
0.0
 10
-539.4867089201298
 20
818.5456768642025
 30
0.0
 10
-538.7520610208127
 20
815.8190343495024
 30
0.0
 10
-537.3030516905982
 20
810.4056939447664
 30
0.0
 10
-535.1342465747339
 20
802.1649336326791
 30
0.0
 10
-532.807030946851
 20
793.0587720676189
 30
0.0
 10
-530.9746472176757
 20
785.7160496679917
 30
0.0
 10
-529.8749996460438
 20
781.2367245547985
 30
0.0
 10
-528.9856876683932
 20
777.569321849373
 30
0.0
 10
-528.3266367266718
 20
774.828066844625
 30
0.0
 10
-527.6510063710319
 20
771.9918055824924
 30
0.0
 10
-526.36605881231
 20
766.5492333378554
 30
0.0
 10
-524.4600442894978
 20
758.2917633556269
 30
0.0
 10
-522.421473309985
 20
749.1156017337889
 30
0.0
 10
-520.8232363085272
 20
741.7008451118171
 30
0.0
 10
-519.8514136418685
 20
737.098607445821
 30
0.0
 10
-519.0825391405937
 20
733.3995700681397
 30
0.0
 10
-518.5272064934882
 20
730.6992578020731
 30
0.0
 10
-517.9632756445794
 20
727.9288059381776
 30
0.0
 10
-516.1536968328238
 20
718.9374913566327
 30
0.0
 10
-513.1106774035907
 20
703.1514131102618
 30
0.0
 10
-510.5817206076327
 20
688.2981843512647
 30
0.0
 10
-509.2761986181746
 20
680.6305101583658
 30
0.0
 11
-550.1614643545361
 21
856.5186740609897
 31
0.0
 11
-547.0610954904331
 21
845.7603593152352
 31
0.0
 11
-543.9651776962802
 21
834.8154914276574
 31
0.0
 11
-542.4574819079959
 21
829.40031217725
 31
0.0
 11
-540.9538531778203
 21
823.937672958979
 31
0.0
 11
-540.2126698829605
 21
821.2206132351755
 31
0.0
 11
-539.4728387232104
 21
818.4916223461473
 31
0.0
 11
-538.7808153983474
 21
815.9231200389635
 31
0.0
 11
-538.0092469020165
 21
813.0405569514738
 31
0.0
 11
-535.1677174678435
 21
802.2404972007789
 31
0.0
 11
-532.342636694446
 21
791.1834358978591
 31
0.0
 11
-530.9828403484776
 21
785.7341791771229
 31
0.0
 11
-529.6298872069126
 21
780.2227538239251
 31
0.0
 11
-529.0300076827366
 21
777.7489140832101
 31
0.0
 11
-528.3052673425181
 21
774.7343417370473
 31
0.0
 11
-527.6536334916611
 21
771.9987912369861
 31
0.0
 11
-527.0023879563514
 21
769.2403231891763
 31
0.0
 11
-524.4993855051498
 21
758.3952216933435
 31
0.0
 11
-522.0144587944376
 21
747.2089217152227
 31
0.0
 11
-520.8323770438899
 21
741.7247656688821
 31
0.0
 11
-519.6576190253562
 21
736.1614319939019
 31
0.0
 11
-519.0847455942477
 21
733.4053303714125
 31
0.0
 11
-518.5140026131993
 21
730.6301388429851
 31
0.0
 11
-517.9910220291307
 21
728.0606352021946
 31
0.0
 11
-517.3937373772626
 21
725.0938401911297
 31
0.0
 11
-513.2788697822298
 21
703.6181377585967
 31
0.0
 11
-509.2761986181746
 21
680.6305101583658
 31
0.0
  0
SPLINE
  5
227
330
1F
100
AcDbEntity
  8
0
  6
Continuous
 62
     7
100
AcDbSpline
210
0.0
220
0.0
230
1.0
 70
     8
 71
     3
 72
    11
 73
     7
 74
     5
 42
0.0000000001
 43
0.0000000001
 44
0.00000001
 40
0.0
 40
0.0
 40
0.0
 40
0.0
 40
72.58973043189751
 40
145.1794608637949
 40
217.7691912956928
 40
290.3589217275905
 40
290.3589217275905
 40
290.3589217275905
 40
290.3589217275905
 10
-552.9630363592426
 20
550.5535029089994
 30
0.0
 10
-557.4533576496795
 20
574.3297798265802
 30
0.0
 10
-566.4340002305535
 20
621.8823336617419
 30
0.0
 10
-579.904964136475
 20
693.2111644079478
 30
0.0
 10
-593.3759280266021
 20
764.5399951571369
 30
0.0
 10
-602.3565706226509
 20
812.0925489894328
 30
0.0
 10
-606.8468919206755
 20
835.8688259055809
 30
0.0
 11
-552.9630363592426
 21
550.5535029089994
 31
0.0
 11
-566.4340002363219
 21
621.8823336606524
 31
0.0
 11
-579.9049641338427
 21
693.2111644084449
 31
0.0
 11
-593.3759280272598
 21
764.5399951570129
 31
0.0
 11
-606.8468919206755
 21
835.8688259055809
 31
0.0
  0
SPLINE
  5
228
330
1F
100
AcDbEntity
  8
0
  6
Continuous
 62
     7
100
AcDbSpline
210
0.0
220
0.0
230
1.0
 70
     8
 71
     3
 72
    11
 73
     7
 74
     5
 42
0.0000000001
 43
0.0000000001
 44
0.00000001
 40
0.0
 40
0.0
 40
0.0
 40
0.0
 40
3.399601865151354
 40
6.799763595654531
 40
10.19907892142575
 40
13.59899445771458
 40
13.59899445771458
 40
13.59899445771458
 40
13.59899445771458
 10
-507.3949679478326
 20
667.1622936035743
 30
0.0
 10
-507.5482309534418
 20
668.2850824984423
 30
0.0
 10
-507.8547822048645
 20
670.5308451953008
 30
0.0
 10
-508.3224620238201
 20
673.8982187267054
 30
0.0
 10
-508.7954039920975
 20
677.2649628055444
 30
0.0
 10
-509.115924311373
 20
679.5085950209552
 30
0.0
 10
-509.2761986181746
 20
680.6305101583658
 30
0.0
 11
-507.3949679478326
 21
667.1622936035743
 31
0.0
 11
-507.8560699013387
 21
670.5304797370909
 31
0.0
 11
-508.3233756660261
 21
673.8983759819103
 31
0.0
 11
-508.796686569566
 21
677.2645788089267
 31
0.0
 11
-509.2761986181746
 21
680.6305101583658
 31
0.0
  0
SPLINE
  5
229
330
1F
100
AcDbEntity
  8
0
  6
Continuous
 62
     7
100
AcDbSpline
210
0.0
220
0.0
230
1.0
 70
     8
 71
     3
 72
    11
 73
     7
 74
     5
 42
0.0000000001
 43
0.0000000001
 44
0.00000001
 40
0.0
 40
0.0
 40
0.0
 40
0.0
 40
9.753381577622411
 40
19.54735252723986
 40
30.64285650134561
 40
41.78133074084759
 40
41.78133074084759
 40
41.78133074084759
 40
41.78133074084759
 10
-502.514194230737
 20
625.6690101438238
 30
0.0
 10
-502.8465065108003
 20
628.9031275454589
 30
0.0
 10
-503.5125140114635
 20
635.3848213519727
 30
0.0
 10
-504.6555742087041
 20
645.5350642362571
 30
0.0
 10
-505.9287068298387
 20
656.135098186317
 30
0.0
 10
-506.9055849240914
 20
663.4818289370456
 30
0.0
 10
-507.3949679478326
 20
667.1622936035743
 30
0.0
 11
-502.514194230737
 21
625.6690101438238
 31
0.0
 11
-503.5268557718395
 21
635.3696786157321
 31
0.0
 11
-504.6182645212064
 21
645.1026480446246
 31
0.0
 11
-505.9501745006652
 21
656.1179203629114
 31
0.0
 11
-507.3949679478326
 21
667.1622936035743
 31
0.0
  0
SPLINE
  5
22A
330
1F
100
AcDbEntity
  8
0
  6
Continuous
 62
     7
100
AcDbSpline
210
0.0
220
0.0
230
1.0
 70
    24
 71
     3
 72
     9
 73
     5
 74
     3
 42
0.0000000001
 43
0.0000000001
 44
0.00000001
 40
0.0
 40
0.0
 40
0.0
 40
0.0
 40
0.0545646644754071
 40
0.1091293289508669
 40
0.1091293289508669
 40
0.1091293289508669
 40
0.1091293289508669
 10
-548.7413520625545
 20
428.2212916379045
 30
0.0
 10
-548.740690026885
 20
428.2394678066375
 30
0.0
 10
-548.7393659555457
 20
428.2758201441033
 30
0.0
 10
-548.738041884207
 20
428.3121724815691
 30
0.0
 10
-548.7373798485373
 20
428.330348650302
 30
0.0
 11
-548.7413520625545
 21
428.2212916379045
 31
0.0
 11
-548.7393659555459
 21
428.2758201441033
 31
0.0
 11
-548.7373798485373
 21
428.330348650302
 31
0.0
  0
SPLINE
  5
22B
330
1F
100
AcDbEntity
  8
0
  6
Continuous
 62
     7
100
AcDbSpline
210
0.0
220
0.0
230
1.0
 70
    24
 71
     3
 72
    11
 73
     7
 74
     5
 42
0.0000000001
 43
0.0000000001
 44
0.00000001
 40
0.0
 40
0.0
 40
0.0
 40
0.0
 40
0.0015049255016037
 40
0.0030098510030287
 40
0.023279467738027
 40
0.043549084472798
 40
0.043549084472798
 40
0.043549084472798
 40
0.043549084472798
 10
-548.7429372118946
 20
428.1777714120321
 30
0.0
 10
-548.7429189525617
 20
428.1782727214437
 30
0.0
 10
-548.7428824338962
 20
428.1792753402671
 30
0.0
 10
-548.7425999830077
 20
428.1870300206581
 30
0.0
 10
-548.7420898592259
 20
428.201035453203
 30
0.0
 10
-548.7415979947783
 20
428.2145395763374
 30
0.0
 10
-548.7413520625545
 20
428.2212916379045
 30
0.0
 11
-548.7429372118946
 21
428.1777714120321
 31
0.0
 11
-548.7428824338963
 21
428.1792753402672
 31
0.0
 11
-548.7428276558982
 21
428.1807792685021
 31
0.0
 11
-548.7420898592263
 21
428.2010354532034
 31
0.0
 11
-548.7413520625545
 21
428.2212916379045
 31
0.0
  0
SPLINE
  5
22C
330
1F
100
AcDbEntity
  8
0
  6
Continuous
 62
     7
100
AcDbSpline
210
0.0
220
0.0
230
1.0
 70
    24
 71
     3
 72
     9
 73
     5
 74
     3
 42
0.0000000001
 43
0.0000000001
 44
0.00000001
 40
0.0
 40
0.0
 40
0.0
 40
0.0
 40
0.0733293557088016
 40
0.1466587114174287
 40
0.1466587114174287
 40
0.1466587114174287
 40
0.1466587114174287
 10
-548.7482754632588
 20
428.0312098867023
 30
0.0
 10
-548.747385754698
 20
428.0556368075906
 30
0.0
 10
-548.7456063375768
 20
428.1044906493672
 30
0.0
 10
-548.7438269204553
 20
428.1533444911439
 30
0.0
 10
-548.7429372118946
 20
428.1777714120321
 30
0.0
 11
-548.7482754632588
 21
428.0312098867023
 31
0.0
 11
-548.7456063375767
 21
428.1044906493673
 31
0.0
 11
-548.7429372118946
 21
428.1777714120321
 31
0.0
  0
SPLINE
  5
22D
330
1F
100
AcDbEntity
  8
0
  6
Continuous
 62
     7
100
AcDbSpline
210
0.0
220
0.0
230
1.0
 70
    24
 71
     3
 72
    11
 73
     7
 74
     5
 42
0.0000000001
 43
0.0000000001
 44
0.00000001
 40
0.0
 40
0.0
 40
0.0
 40
0.0
 40
2.362927867594111
 40
4.725855735188166
 40
6.852418433640631
 40
8.978981144144054
 40
8.978981144144054
 40
8.978981144144054
 40
8.978981144144054
 10
-549.075102679196
 20
419.0581788292604
 30
0.0
 10
-549.0464331629844
 20
419.8452995059474
 30
0.0
 10
-548.9890941305615
 20
421.4195408593215
 30
0.0
 10
-548.9059534117669
 20
423.7021667102418
 30
0.0
 10
-548.8256805226661
 20
425.9060563860354
 30
0.0
 10
-548.7740771497766
 20
427.3228253851418
 30
0.0
 10
-548.7482754632588
 20
428.0312098867023
 30
0.0
 11
-549.075102679196
 21
419.0581788292604
 31
0.0
 11
-548.9890941305614
 21
421.4195408593216
 31
0.0
 11
-548.9030855819268
 21
423.7809028893827
 31
0.0
 11
-548.8256805228123
 21
425.906056382021
 31
0.0
 11
-548.7482754632588
 21
428.0312098867023
 31
0.0
  0
SPLINE
  5
22E
330
1F
100
AcDbEntity
  8
0
  6
Continuous
 62
     7
100
AcDbSpline
210
0.0
220
0.0
230
1.0
 70
    24
 71
     3
 72
     9
 73
     5
 74
     3
 42
0.0000000001
 43
0.0000000001
 44
0.00000001
 40
0.0
 40
0.0
 40
0.0
 40
0.0
 40
0.086696600695586
 40
0.1733932013911275
 40
0.1733932013911275
 40
0.1733932013911275
 40
0.1733932013911275
 10
-548.7373798485373
 20
428.330348650302
 30
0.0
 10
-548.7363279545575
 20
428.3592283668359
 30
0.0
 10
-548.7342241665979
 20
428.4169877999036
 30
0.0
 10
-548.7321203786377
 20
428.4747472329711
 30
0.0
 10
-548.7310684846576
 20
428.5036269495049
 30
0.0
 11
-548.7373798485373
 21
428.330348650302
 31
0.0
 11
-548.7342241665976
 21
428.4169877999035
 31
0.0
 11
-548.7310684846576
 21
428.5036269495049
 31
0.0
  0
SPLINE
  5
22F
330
1F
100
AcDbEntity
  8
0
  6
Continuous
 62
     7
100
AcDbSpline
210
0.0
220
0.0
230
1.0
 70
     8
 71
     3
 72
    11
 73
     7
 74
     5
 42
0.0000000001
 43
0.0000000001
 44
0.00000001
 40
0.0
 40
0.0
 40
0.0
 40
0.0
 40
16.88338573889438
 40
33.75885784201067
 40
53.14307721392655
 40
72.53277373482902
 40
72.53277373482902
 40
72.53277373482902
 40
72.53277373482902
 10
-490.6200748512662
 20
435.3360149224114
 30
0.0
 10
-490.7735099723457
 20
440.9617415891588
 30
0.0
 10
-491.0803082958929
 20
452.2105580136523
 30
0.0
 10
-491.7122929966196
 20
469.9137945805839
 30
0.0
 10
-492.4858559731533
 20
488.4476940940807
 30
0.0
 10
-493.1497507941182
 20
501.3553379499572
 30
0.0
 10
-493.4817450950264
 20
507.8100715357309
 30
0.0
 11
-490.6200748512662
 21
435.3360149224114
 31
0.0
 11
-491.104057962642
 21
452.2124622486766
 31
0.0
 11
-491.6982334319799
 21
469.0774708230798
 31
0.0
 11
-492.5169990078994
 21
488.4443906502038
 31
0.0
 11
-493.4817450950264
 21
507.8100715357309
 31
0.0
  0
SPLINE
  5
230
330
1F
100
AcDbEntity
  8
0
  6
Continuous
 62
     7
100
AcDbSpline
210
0.0
220
0.0
230
1.0
 70
     8
 71
     3
 72
    15
 73
    11
 74
     9
 42
0.0000000001
 43
0.0000000001
 44
0.00000001
 40
0.0
 40
0.0
 40
0.0
 40
0.0
 40
5.548467457715695
 40
11.09693491543139
 40
16.64540237314709
 40
22.19386983086284
 40
27.74233728857854
 40
33.29080474629418
 40
38.83927219031485
 40
44.38773955216562
 40
44.38773955216562
 40
44.38773955216562
 40
44.38773955216562
 10
-548.7310684846576
 20
428.5036269495049
 30
0.0
 10
-548.6637486650772
 20
430.3518905041346
 30
0.0
 10
-548.5291090259165
 20
434.0484176133945
 30
0.0
 10
-548.3271495671741
 20
439.5932082772836
 30
0.0
 10
-548.1251901084346
 20
445.1379989411731
 30
0.0
 10
-547.9232306496861
 20
450.6827896050622
 30
0.0
 10
-547.7212711909702
 20
456.2275802689525
 30
0.0
 10
-547.5193117322989
 20
461.7723709282765
 30
0.0
 10
-547.3173522752444
 20
467.3171615556832
 30
0.0
 10
-547.1827126344174
 20
471.0136886283378
 30
0.0
 10
-547.1153928145022
 20
472.8619521509793
 30
0.0
 11
-548.7310684846576
 21
428.5036269495049
 31
0.0
 11
-548.5291090259161
 21
434.0484176133943
 31
0.0
 11
-548.3271495671746
 21
439.5932082772837
 31
0.0
 11
-548.1251901084331
 21
445.1379989411731
 31
0.0
 11
-547.9232306496915
 21
450.6827896050625
 31
0.0
 11
-547.72127119095
 21
456.2275802689519
 31
0.0
 11
-547.5193117322084
 21
461.7723709328412
 31
0.0
 11
-547.3173522734389
 21
467.3171615830255
 31
0.0
 11
-547.1153928145022
 21
472.8619521509793
 31
0.0
  0
SPLINE
  5
231
330
1F
100
AcDbEntity
  8
0
  6
Continuous
 62
     7
100
AcDbSpline
210
0.0
220
0.0
230
1.0
 70
     8
 71
     3
 72
    46
 73
    42
 74
    40
 42
0.0000000001
 43
0.0000000001
 44
0.00000001
 40
0.0
 40
0.0
 40
0.0
 40
0.0
 40
8.94402044272519
 40
17.88804080328037
 40
26.83206115014058
 40
35.77608149700078
 40
53.66412219072131
 40
71.55216288444173
 40
76.02417305787175
 40
80.49618323130189
 40
82.73218831801684
 40
84.96819340473191
 40
86.08619594808934
 40
87.20419849144699
 40
87.76319976312576
 40
88.32220103480452
 40
88.60170167064391
 40
88.88120230648329
 40
89.02095262440292
 40
89.16070294232267
 40
89.23057817525995
 40
89.30044782170772
 40
89.37030488245976
 40
89.44014924644254
 40
95.35318117181873
 40
101.1724000525993
 40
106.8963626067911
 40
109.0179840368018
 40
111.1259083133902
 40
112.1746881060753
 40
113.2204710463036
 40
114.2641715240645
 40
115.3058602470431
 40
119.4527540845962
 40
123.5684996515787
 40
127.6539043552265
 40
131.7097537525985
 40
133.7268349391684
 40
135.7368335514651
 40
137.744969107563
 40
139.7555713257829
 40
139.7555713257829
 40
139.7555713257829
 40
139.7555713257829
 10
-547.1153928145022
 20
472.8619521509793
 30
0.0
 10
-547.006874590541
 20
475.8413166588251
 30
0.0
 10
-546.789838143615
 20
481.8000456471447
 30
0.0
 10
-546.4642834690405
 20
490.7381391111998
 30
0.0
 10
-546.1387287960814
 20
499.6762325433376
 30
0.0
 10
-545.7046558988692
 20
511.593690446766
 30
0.0
 10
-545.1620647773848
 20
526.4905128260533
 30
0.0
 10
-544.6737327681119
 20
539.8976529674134
 30
0.0
 10
-544.3481780951423
 20
548.8357463949831
 30
0.0
 10
-544.2125303149232
 20
552.55995198981
 30
0.0
 10
-544.1040120903163
 20
555.5393164656564
 30
0.0
 10
-544.0361882009235
 20
557.4014192630958
 30
0.0
 10
-543.9819290871491
 20
558.8911015009653
 30
0.0
 10
-543.9480171461963
 20
559.8221528998215
 30
0.0
 10
-543.9208875816252
 20
560.5669940184765
 30
0.0
 10
-543.9039316307128
 20
561.0325197186169
 30
0.0
 10
-543.8903668082677
 20
561.4049402764825
 30
0.0
 10
-543.8818889350546
 20
561.6377031302739
 30
0.0
 10
-543.875106313958
 20
561.8239134015686
 30
0.0
 10
-543.8708679107813
 20
561.9402948725528
 30
0.0
 10
-543.8674755694242
 20
562.0333981566409
 30
0.0
 10
-543.864935288163
 20
562.1032192740933
 30
0.0
 10
-543.8624048828855
 20
562.1730304547012
 30
0.0
 10
-543.7895610787818
 20
564.1892927428168
 30
0.0
 10
-543.6680192998425
 20
568.1215276267722
 30
0.0
 10
-543.5460511607453
 20
573.939070893939
 30
0.0
 10
-543.4937413863045
 20
578.4937777007185
 30
0.0
 10
-543.4762835209524
 20
581.8115717032449
 30
0.0
 10
-543.4728449903723
 20
583.571013925294
 30
0.0
 10
-543.4735137578676
 20
584.9718432199873
 30
0.0
 10
-543.4756902518216
 20
586.01792915215
 30
0.0
 10
-543.4795159241951
 20
587.0616466690651
 30
0.0
 10
-543.4903927291517
 20
589.1390463008056
 30
0.0
 10
-543.5186508936019
 20
592.2403822309168
 30
0.0
 10
-543.5806987628556
 20
596.3559516592337
 30
0.0
 10
-543.6655616488315
 20
600.4407577593373
 30
0.0
 10
-543.7542697924289
 20
603.8257241845827
 30
0.0
 10
-543.835223380913
 20
606.5188199527315
 30
0.0
 10
-543.9007761616861
 20
608.5294918331894
 30
0.0
 10
-543.9708028712103
 20
610.5378529920895
 30
0.0
 10
-544.0214660081663
 20
611.8764744755212
 30
0.0
 10
-544.0468131249143
 20
612.5461960336543
 30
0.0
 11
-547.1153928145022
 21
472.8619521509793
 31
0.0
 11
-546.7898381418097
 21
481.8000456744872
 31
0.0
 11
-546.4642834689498
 21
490.7381391157645
 31
0.0
 11
-546.138728796062
 21
499.6762325433368
 31
0.0
 11
-545.8131741231742
 21
508.614325970909
 31
0.0
 11
-545.1620647773988
 21
526.4905128260537
 31
0.0
 11
-544.5109554316232
 21
544.3666996811982
 31
0.0
 11
-544.3481780951793
 21
548.8357463949842
 31
0.0
 11
-544.1854007587355
 21
553.3047931087704
 31
0.0
 11
-544.1040120905135
 21
555.5393164656633
 31
0.0
 11
-544.0226234222915
 21
557.7738398225564
 31
0.0
 11
-543.9819290881803
 21
558.8911015010028
 31
0.0
 11
-543.9412347540695
 21
560.0083631794495
 31
0.0
 11
-543.920887587014
 21
560.5669940186727
 31
0.0
 11
-543.9005404199586
 21
561.125624857896
 31
0.0
 11
-543.8903668364308
 21
561.4049402775077
 31
0.0
 11
-543.8801932529032
 21
561.6842556971193
 31
0.0
 11
-543.8751064611392
 21
561.823913406925
 31
0.0
 11
-543.8700196693753
 21
561.9635711167309
 31
0.0
 11
-543.8674761248126
 21
562.0334000402447
 31
0.0
 11
-543.8649367197032
 21
562.1032235242342
 31
0.0
 11
-543.8624061041379
 21
562.1730347333755
 31
0.0
 11
-543.8598844443752
 21
562.2428335615333
 31
0.0
 11
-543.6769211730639
 21
568.153034149658
 31
0.0
 11
-543.5546529716464
 21
573.9709683938168
 31
0.0
 11
-543.4886130890064
 21
579.6945499696913
 31
0.0
 11
-543.4774328255691
 21
581.816141941299
 31
0.0
 11
-543.4732959812557
 21
583.9240621585628
 31
0.0
 11
-543.4737948688597
 21
584.9728418325916
 31
0.0
 11
-543.475968197923
 21
586.0186225145289
 31
0.0
 11
-543.4797917998498
 21
587.0623159883739
 31
0.0
 11
-543.4852435873086
 21
588.1039904450033
 31
0.0
 11
-543.5228826623464
 21
592.2507134644449
 31
0.0
 11
-543.5847729854229
 21
596.3659936687621
 31
0.0
 11
-543.6694747801582
 21
600.4505202262172
 31
0.0
 11
-543.7755482701726
 21
604.504982305073
 31
0.0
 11
-543.8361493809292
 21
606.521152937383
 31
0.0
 11
-543.9015542907107
 21
608.5300871372042
 31
0.0
 11
-543.9717688826534
 21
610.5369947889767
 31
0.0
 11
-544.0468131249143
 21
612.5461960336543
 31
0.0
  0
SPLINE
  5
232
330
1F
100
AcDbEntity
  8
0
  6
Continuous
 62
     7
100
AcDbSpline
210
0.0
220
0.0
230
1.0
 70
     8
 71
     3
 72
    17
 73
    13
 74
    11
 42
0.0000000001
 43
0.0000000001
 44
0.00000001
 40
0.0
 40
0.0
 40
0.0
 40
0.0
 40
0.4171248952947598
 40
0.8344664052667392
 40
1.253349037615223
 40
1.674486446275604
 40
2.523596051519601
 40
3.381936202267479
 40
4.249647872447881
 40
5.126872046730508
 40
6.013749719989626
 40
6.910421896778913
 40
6.910421896778913
 40
6.910421896778913
 40
6.910421896778913
 10
-544.3291185078584
 20
619.2346129093683
 30
0.0
 10
-544.3354938754119
 20
619.3735083039635
 30
0.0
 10
-544.3482479212737
 20
619.6513712221048
 30
0.0
 10
-544.36762922311
 20
620.0687044540313
 30
0.0
 10
-544.3872365474567
 20
620.4873660944007
 30
0.0
 10
-544.4138183377938
 20
621.0497814992577
 30
0.0
 10
-544.4477621832443
 20
621.7584982438284
 30
0.0
 10
-544.4895467681299
 20
622.6158678823524
 30
0.0
 10
-544.532505918993
 20
623.4825626386403
 30
0.0
 10
-544.5766758868712
 20
624.358721220699
 30
0.0
 10
-544.6220109763744
 20
625.2444866386719
 30
0.0
 10
-544.6530153043531
 20
625.8381942928838
 30
0.0
 10
-544.6686025996886
 20
626.1366783160045
 30
0.0
 11
-544.3291185078584
 21
619.2346129093683
 31
0.0
 11
-544.3482820455604
 21
619.6512973668387
 31
0.0
 11
-544.3676325547334
 21
620.0681900313705
 31
0.0
 11
-544.38723124613
 21
620.4866139204814
 31
0.0
 11
-544.4071126266015
 21
620.9072817795861
 31
0.0
 11
-544.4477329455342
 21
621.7554192162127
 31
0.0
 11
-544.4895124930607
 21
622.6127419581217
 31
0.0
 11
-544.5324702507103
 21
623.4793896221842
 31
0.0
 11
-544.5766252000121
 21
624.3555018252712
 31
0.0
 11
-544.6219963224952
 21
625.2412181842542
 31
0.0
 11
-544.6686025996886
 21
626.1366783160045
 31
0.0
  0
SPLINE
  5
233
330
1F
100
AcDbEntity
  8
0
  6
Continuous
 62
     7
100
AcDbSpline
210
0.0
220
0.0
230
1.0
 70
     8
 71
     3
 72
    11
 73
     7
 74
     5
 42
0.0000000001
 43
0.0000000001
 44
0.00000001
 40
0.0
 40
0.0
 40
0.0
 40
0.0
 40
21.47568150575857
 40
42.93234309514534
 40
71.78823387036044
 40
100.6416896445804
 40
100.6416896445804
 40
100.6416896445804
 40
100.6416896445804
 10
-500.8286556918487
 20
608.1772529171356
 30
0.0
 10
-500.1837471749218
 20
601.047751112611
 30
0.0
 10
-498.8945013036667
 20
586.7950617398788
 30
0.0
 10
-496.993884362741
 20
562.9409398641703
 30
0.0
 10
-495.1180809790795
 20
536.6182286475647
 30
0.0
 10
-494.0271750464016
 20
517.4125204497021
 30
0.0
 10
-493.4817450950264
 20
507.8100715357309
 30
0.0
 11
-500.8286556918487
 21
608.1772529171356
 31
0.0
 11
-498.9321134666583
 21
586.7854782426292
 31
0.0
 11
-497.2152270008211
 21
565.3976165583727
 31
0.0
 11
-495.1871519634483
 21
536.6130834880946
 31
0.0
 11
-493.4817450950264
 21
507.8100715357309
 31
0.0
  0
SPLINE
  5
234
330
1F
100
AcDbEntity
  8
0
  6
Continuous
 62
     7
100
AcDbSpline
210
0.0
220
0.0
230
1.0
 70
    24
 71
     3
 72
    15
 73
    11
 74
     9
 42
0.0000000001
 43
0.0000000001
 44
0.00000001
 40
0.0
 40
0.0
 40
0.0
 40
0.0
 40
0.0000074585399734
 40
0.0000149170800011
 40
0.0000223756199177
 40
0.0000298341600563
 40
0.0000372927001434
 40
0.0000447512403428
 40
0.0000522097807735
 40
0.000059668320969
 40
0.000059668320969
 40
0.000059668320969
 40
0.000059668320969
 10
-490.2876634462796
 20
421.3230834390288
 30
0.0
 10
-490.2876633886156
 20
421.3230809535176
 30
0.0
 10
-490.2876632732873
 20
421.3230759824951
 30
0.0
 10
-490.2876631002952
 20
421.3230685259617
 30
0.0
 10
-490.2876629273028
 20
421.3230610694283
 30
0.0
 10
-490.2876627543108
 20
421.3230536128945
 30
0.0
 10
-490.2876625813184
 20
421.3230461563609
 30
0.0
 10
-490.2876624083262
 20
421.323038699827
 30
0.0
 10
-490.2876622353336
 20
421.3230312432931
 30
0.0
 10
-490.2876621200056
 20
421.3230262722706
 30
0.0
 10
-490.2876620623416
 20
421.3230237867594
 30
0.0
 11
-490.2876634462796
 21
421.3230834390288
 31
0.0
 11
-490.2876632732873
 21
421.3230759824953
 31
0.0
 11
-490.2876631002951
 21
421.3230685259617
 31
0.0
 11
-490.2876629273028
 21
421.3230610694282
 31
0.0
 11
-490.2876627543107
 21
421.3230536128945
 31
0.0
 11
-490.2876625813184
 21
421.3230461563609
 31
0.0
 11
-490.2876624083261
 21
421.3230386998271
 31
0.0
 11
-490.2876622353337
 21
421.3230312432931
 31
0.0
 11
-490.2876620623416
 21
421.3230237867594
 31
0.0
  0
SPLINE
  5
235
330
1F
100
AcDbEntity
  8
0
  6
Continuous
 62
     7
100
AcDbSpline
210
0.0
220
0.0
230
1.0
 70
     8
 71
     3
 72
     9
 73
     5
 74
     3
 42
0.0000000001
 43
0.0000000001
 44
0.00000001
 40
0.0
 40
0.0
 40
0.0
 40
0.0
 40
2.503906078558949
 40
5.007619923455541
 40
5.007619923455541
 40
5.007619923455541
 40
5.007619923455541
 10
-490.4977668922792
 20
430.3298894588525
 30
0.0
 10
-490.5175450432836
 20
431.1642905693088
 30
0.0
 10
-490.5570998268543
 20
432.8330287303182
 30
0.0
 10
-490.5990837136913
 20
434.5017075442553
 30
0.0
 10
-490.6200748512662
 20
435.3360149224114
 30
0.0
 11
-490.4977668922792
 21
430.3298894588525
 31
0.0
 11
-490.5577086677344
 21
432.8330779523143
 31
0.0
 11
-490.6200748512662
 21
435.3360149224114
 31
0.0
  0
SPLINE
  5
236
330
1F
100
AcDbEntity
  8
0
  6
Continuous
 62
     7
100
AcDbSpline
210
0.0
220
0.0
230
1.0
 70
    24
 71
     3
 72
     9
 73
     5
 74
     3
 42
0.0000000001
 43
0.0000000001
 44
0.00000001
 40
0.0
 40
0.0
 40
0.0
 40
0.0
 40
0.0037515303552298
 40
0.0075030602739198
 40
0.0075030602739198
 40
0.0075030602739198
 40
0.0075030602739198
 10
-490.4975909246895
 20
430.3223884623266
 30
0.0
 10
-490.4976202512596
 20
430.323638628519
 30
0.0
 10
-490.4976789043964
 20
430.3261389607582
 30
0.0
 10
-490.497737562986
 20
430.3286392928695
 30
0.0
 10
-490.4977668922792
 20
430.3298894588525
 30
0.0
 11
-490.4975909246895
 21
430.3223884623266
 31
0.0
 11
-490.497678905763
 21
430.3261389608717
 31
0.0
 11
-490.4977668922792
 21
430.3298894588525
 31
0.0
  0
SPLINE
  5
237
330
1F
100
AcDbEntity
  8
0
  6
Continuous
 62
     7
100
AcDbSpline
210
0.0
220
0.0
230
1.0
 70
     8
 71
     3
 72
     9
 73
     5
 74
     3
 42
0.0000000001
 43
0.0000000001
 44
0.00000001
 40
0.0
 40
0.0
 40
0.0
 40
0.0
 40
0.0079023763651959
 40
0.0174793087227652
 40
0.0174793087227652
 40
0.0174793087227652
 40
0.0174793087227652
 10
303.3415422540023
 20
378.4209248237322
 30
0.0
 10
303.3410938073191
 20
378.4235764570083
 30
0.0
 10
303.3401018856919
 20
378.4294416188923
 30
0.0
 10
303.3360334938653
 20
378.4338239337433
 30
0.0
 10
303.3338044175358
 20
378.4362250088409
 30
0.0
 11
303.3415422540023
 21
378.4209248237322
 31
0.0
 11
303.3395681036822
 21
378.4285766393815
 31
0.0
 11
303.3338044175358
 21
378.4362250088409
 31
0.0
  0
SPLINE
  5
238
330
1F
100
AcDbEntity
  8
0
  6
Continuous
 62
     7
100
AcDbSpline
210
0.0
220
0.0
230
1.0
 70
     8
 71
     3
 72
     9
 73
     5
 74
     3
 42
0.0000000001
 43
0.0000000001
 44
0.00000001
 40
0.0
 40
0.0
 40
0.0
 40
0.0
 40
0.0079023763647982
 40
0.0174793087219016
 40
0.0174793087219016
 40
0.0174793087219016
 40
0.0174793087219016
 10
593.3415422540033
 20
378.4209248237273
 30
0.0
 10
593.3410938073199
 20
378.4235764570032
 30
0.0
 10
593.3401018856926
 20
378.4294416188869
 30
0.0
 10
593.3360334938662
 20
378.4338239337376
 30
0.0
 10
593.3338044175368
 20
378.4362250088351
 30
0.0
 11
593.3415422540033
 21
378.4209248237273
 31
0.0
 11
593.3395681036831
 21
378.4285766393762
 31
0.0
 11
593.3338044175368
 21
378.4362250088351
 31
0.0
  0
SPLINE
  5
239
330
1F
100
AcDbEntity
  8
0
  6
Continuous
 62
     7
100
AcDbSpline
210
0.0
220
0.0
230
1.0
 70
     8
 71
     3
 72
    18
 73
    14
 74
    12
 42
0.0000000001
 43
0.0000000001
 44
0.00000001
 40
0.0
 40
0.0
 40
0.0
 40
0.0
 40
0.0361785243944635
 40
0.0689450889479243
 40
0.0982948140791526
 40
0.1242228258689234
 40
0.1467242595269826
 40
0.1657942659942412
 40
0.1814280258279734
 40
0.1936207827435044
 40
0.2023679433826115
 40
0.2076655025372204
 40
0.2095144477674056
 40
0.2095144477674056
 40
0.2095144477674056
 40
0.2095144477674056
 10
-450.5090078811857
 20
378.6714738126358
 30
0.0
 10
-450.5146806130792
 20
378.6608318274709
 30
0.0
 10
-450.5254910872908
 20
378.640551491939
 30
0.0
 10
-450.5409241326689
 20
378.6116488491949
 30
0.0
 10
-450.5547658310138
 20
378.5857699439053
 30
0.0
 10
-450.5670141039576
 20
378.5629191239223
 30
0.0
 10
-450.5776685800303
 20
378.5431019974725
 30
0.0
 10
-450.5867197396961
 20
378.526318235442
 30
0.0
 10
-450.5941845674823
 20
378.51258464951
 30
0.0
 10
-450.600006598592
 20
378.5018706136718
 30
0.0
 10
-450.6043098610084
 20
378.4942620605451
 30
0.0
 10
-450.6068185359527
 20
378.489585166731
 30
0.0
 10
-450.6081743946938
 20
378.4876253900933
 30
0.0
 10
-450.6085251827738
 20
378.4871183562386
 30
0.0
 11
-450.5090078811857
 21
378.6714738126358
 31
0.0
 11
-450.5260300523292
 21
378.6395499764483
 31
0.0
 11
-450.5414641488448
 21
378.610646059458
 31
0.0
 11
-450.5553078526932
 21
378.5847663718819
 31
0.0
 11
-450.5675588458356
 21
378.5619152239371
 31
0.0
 11
-450.5782148102325
 21
378.5420969258407
 31
0.0
 11
-450.5872734278452
 21
378.5253157878099
 31
0.0
 11
-450.5947323806344
 21
378.5115761200618
 31
0.0
 11
-450.6005893505609
 21
378.5008822328134
 31
0.0
 11
-450.6048420195857
 21
378.4932384362821
 31
0.0
 11
-450.6074880696696
 21
378.4886490406847
 31
0.0
 11
-450.6085251827738
 21
378.4871183562386
 31
0.0
  0
SPLINE
  5
23A
330
1F
100
AcDbEntity
  8
0
  6
Continuous
 62
     7
100
AcDbSpline
210
0.0
220
0.0
230
1.0
 70
     8
 71
     3
 72
    16
 73
    12
 74
    10
 42
0.0000000001
 43
0.0000000001
 44
0.00000001
 40
0.0
 40
0.0
 40
0.0
 40
0.0
 40
0.0219571045827667
 40
0.0413540010459012
 40
0.0581875583237854
 40
0.0724546610358724
 40
0.0841522233162054
 40
0.0932772221907373
 40
0.0998267967182926
 40
0.103798669394004
 40
0.1051954677709591
 40
0.1051954677709591
 40
0.1051954677709591
 40
0.1051954677709591
 10
-450.1858281269796
 20
378.6202974446002
 30
0.0
 10
-450.189286026389
 20
378.6138467731556
 30
0.0
 10
-450.1957986326052
 20
378.601697581414
 30
0.0
 10
-450.2049833361787
 20
378.5846141938669
 30
0.0
 10
-450.2129749662779
 20
378.5697998902363
 30
0.0
 10
-450.2197670064944
 20
378.5572539961932
 30
0.0
 10
-450.225373953589
 20
378.5469899893733
 30
0.0
 10
-450.2297488159179
 20
378.5389804387771
 30
0.0
 10
-450.2329963375811
 20
378.5332987711599
 30
0.0
 10
-450.2348846981105
 20
378.5297931841642
 30
0.0
 10
-450.2359290422333
 20
378.5283388556949
 30
0.0
 10
-450.2362007553185
 20
378.5279604745973
 30
0.0
 11
-450.1858281269796
 21
378.6202974446002
 31
0.0
 11
-450.1962060479617
 21
378.60094768497
 31
0.0
 11
-450.2053922209083
 21
378.5838639553129
 31
0.0
 11
-450.2133851490193
 21
378.569049038815
 31
0.0
 11
-450.2201833354943
 21
378.5565057186625
 31
0.0
 11
-450.2257852835331
 21
378.5462367780417
 31
0.0
 11
-450.2301894963352
 21
378.5382450001386
 31
0.0
 11
-450.2333944771003
 21
378.5325331681393
 31
0.0
 11
-450.2353987290283
 21
378.5291040652302
 31
0.0
 11
-450.2362007553185
 21
378.5279604745973
 31
0.0
  0
SPLINE
  5
23B
330
1F
100
AcDbEntity
  8
0
  6
Continuous
 62
     7
100
AcDbSpline
210
0.0
220
0.0
230
1.0
 70
     8
 71
     3
 72
    16
 73
    12
 74
    10
 42
0.0000000001
 43
0.0000000001
 44
0.00000001
 40
0.0
 40
0.0
 40
0.0
 40
0.0
 40
0.015295621797269
 40
0.0288079460402445
 40
0.0405351690462359
 40
0.050475502750964
 40
0.0586271884550877
 40
0.0649885299601733
 40
0.0695579917916902
 40
0.0723346150134188
 40
0.0733222185747892
 40
0.0733222185747892
 40
0.0733222185747892
 40
0.0733222185747892
 10
-450.1297177320255
 20
378.6736040833207
 30
0.0
 10
-450.1321335499777
 20
378.6691142155316
 30
0.0
 10
-450.1366835286661
 20
378.6606579480642
 30
0.0
 10
-450.1431032704527
 20
378.6487686762071
 30
0.0
 10
-450.1486920981797
 20
378.6384596435147
 30
0.0
 10
-450.1534451588673
 20
378.629729583582
 30
0.0
 10
-450.1573743561146
 20
378.6225890174884
 30
0.0
 10
-450.160442405275
 20
378.6170143668952
 30
0.0
 10
-450.1627334670189
 20
378.6130661488356
 30
0.0
 10
-450.1640619344196
 20
378.6106165793686
 30
0.0
 10
-450.1648196285399
 20
378.6096153448306
 30
0.0
 10
-450.1650184214009
 20
378.6093526553455
 30
0.0
 11
-450.1297177320255
 21
378.6736040833207
 31
0.0
 11
-450.1369687009182
 21
378.6601363627904
 31
0.0
 11
-450.1433895276725
 21
378.6482470444652
 31
0.0
 11
-450.1489793442682
 21
378.6379377423618
 31
0.0
 11
-450.1537372826857
 21
378.6292100704972
 31
0.0
 11
-450.157662474905
 21
378.6220656428882
 31
0.0
 11
-450.1607540529059
 21
378.6165060735515
 31
0.0
 11
-450.1630111486688
 21
378.6125329765043
 31
0.0
 11
-450.1644328941736
 21
378.6101479657633
 31
0.0
 11
-450.1650184214009
 21
378.6093526553455
 31
0.0
  0
SPLINE
  5
23C
330
1F
100
AcDbEntity
  8
0
  6
Continuous
 62
     7
100
AcDbSpline
210
0.0
220
0.0
230
1.0
 70
     8
 71
     3
 72
    38
 73
    34
 74
    32
 42
0.0000000001
 43
0.0000000001
 44
0.00000001
 40
0.0
 40
0.0
 40
0.0
 40
0.0
 40
0.1193859629911646
 40
0.2351767232748776
 40
0.3473408199560578
 40
0.4558467921990629
 40
0.5606631792378565
 40
0.6617585203871066
 40
0.7591013550561279
 40
0.8497784885684523
 40
0.9367904446901654
 40
1.02011946089988
 40
1.099747774833846
 40
1.175657624318042
 40
1.247831247410077
 40
1.316250882452036
 40
1.380898768139661
 40
1.441757143614286
 40
1.498808248585707
 40
1.552034323502215
 40
1.601417609786537
 40
1.646918220548292
 40
1.688504087852117
 40
1.726169184492212
 40
1.759907486963314
 40
1.789712977427102
 40
1.815579647184653
 40
1.837501503287249
 40
1.855472582446916
 40
1.869486984648008
 40
1.879538973186878
 40
1.885623401544045
 40
1.887740154012389
 40
1.887740154012389
 40
1.887740154012389
 40
1.887740154012389
 10
-449.1339082475639
 20
380.2827265549378
 30
0.0
 10
-449.1524920393994
 20
380.2475369221536
 30
0.0
 10
-449.1890999886121
 20
380.1782173612599
 30
0.0
 10
-449.2431764154222
 20
380.0758415253116
 30
0.0
 10
-449.295565827436
 20
379.9766760993522
 30
0.0
 10
-449.3462541100523
 20
379.8807492086079
 30
0.0
 10
-449.395226420149
 20
379.7880885935868
 30
0.0
 10
-449.4424681003098
 20
379.6987220928633
 30
0.0
 10
-449.487515439445
 20
379.6135266981594
 30
0.0
 10
-449.5303768520524
 20
379.5324857939108
 30
0.0
 10
-449.5710628376637
 20
379.4555787020162
 30
0.0
 10
-449.6100354517056
 20
379.3819317494533
 30
0.0
 10
-449.6472863746056
 20
379.311560631207
 30
0.0
 10
-449.6828072862093
 20
379.2444810419463
 30
0.0
 10
-449.7165898656277
 20
379.1807086759413
 30
0.0
 10
-449.7486257910146
 20
379.1202592269397
 30
0.0
 10
-449.7789067392993
 20
379.0631483880226
 30
0.0
 10
-449.807424385675
 20
379.0093918513151
 30
0.0
 10
-449.8341704033652
 20
378.9590053078857
 30
0.0
 10
-449.8591364615834
 20
378.9120044465166
 30
0.0
 10
-449.8823107657149
 20
378.868411468932
 30
0.0
 10
-449.9036792523901
 20
378.8282527726066
 30
0.0
 10
-449.9232296945858
 20
378.7915513080374
 30
0.0
 10
-449.9409550256108
 20
378.7583199762852
 30
0.0
 10
-449.9568525847442
 20
378.7285642276389
 30
0.0
 10
-449.9709185706528
 20
378.7022887874052
 30
0.0
 10
-449.9831525089189
 20
378.6795005072353
 30
0.0
 10
-449.993543666499
 20
378.660199702016
 30
0.0
 10
-450.002110150277
 20
378.6444050941462
 30
0.0
 10
-450.0087903464024
 20
378.6320845677357
 30
0.0
 10
-450.0137184947213
 20
378.6233308944697
 30
0.0
 10
-450.0165951325445
 20
378.6179587435422
 30
0.0
 10
-450.0181337105657
 20
378.6156979751207
 30
0.0
 10
-450.018530822749
 20
378.6151144631559
 30
0.0
 11
-449.1339082475639
 21
380.2827265549378
 31
0.0
 11
-449.1896611675926
 21
380.17715847232
 31
0.0
 11
-449.2437422383241
 21
380.0747732294594
 31
0.0
 11
-449.2961367660188
 21
379.97559864576
 31
0.0
 11
-449.3468300569378
 21
379.8796625406264
 31
0.0
 11
-449.3958074173418
 21
379.7869927334629
 31
0.0
 11
-449.4430541534914
 21
379.6976170436737
 31
0.0
 11
-449.4885555716476
 21
379.6115632906634
 31
0.0
 11
-449.530949547577
 21
379.531406610674
 31
0.0
 11
-449.571638487291
 21
379.4544943834727
 31
0.0
 11
-449.6106140739735
 21
379.3808423055302
 31
0.0
 11
-449.647867990808
 21
379.3104660733176
 31
0.0
 11
-449.6833919209785
 21
379.2433813833059
 31
0.0
 11
-449.7171775476685
 21
379.1796039319662
 31
0.0
 11
-449.7492165540621
 21
379.1191494157694
 31
0.0
 11
-449.7795006233428
 21
379.0620335311866
 31
0.0
 11
-449.8080214386945
 21
379.0082719746886
 31
0.0
 11
-449.8347706833008
 21
378.9578804427467
 31
0.0
 11
-449.8597400403456
 21
378.9108746318316
 31
0.0
 11
-449.8829211930127
 21
378.8672702384146
 31
0.0
 11
-449.9042954246975
 21
378.8271024926528
 31
0.0
 11
-449.9238476567496
 21
378.790399705549
 31
0.0
 11
-449.941575029284
 21
378.7571671948413
 31
0.0
 11
-449.9574746824155
 21
378.7274102782684
 31
0.0
 11
-449.9715437562589
 21
378.7011342735688
 31
0.0
 11
-449.9837793909293
 21
378.6783444984808
 31
0.0
 11
-449.9941787265413
 21
378.6590462707432
 31
0.0
 11
-450.0027389032101
 21
378.6432449080943
 31
0.0
 11
-450.0094570610503
 21
378.6309457282725
 31
0.0
 11
-450.014330340177
 21
378.6221540490166
 31
0.0
 11
-450.0173558807049
 21
378.6168751880649
 31
0.0
 11
-450.018530822749
 21
378.6151144631559
 31
0.0
  0
SPLINE
  5
23D
330
1F
100
AcDbEntity
  8
0
  6
Continuous
 62
     7
100
AcDbSpline
210
0.0
220
0.0
230
1.0
 70
     8
 71
     3
 72
    38
 73
    34
 74
    32
 42
0.0000000001
 43
0.0000000001
 44
0.00000001
 40
0.0
 40
0.0
 40
0.0
 40
0.0
 40
0.1193859629955382
 40
0.2351767232834712
 40
0.3473408199685936
 40
0.4558467922153843
 40
0.5606631792577417
 40
0.6617585204102986
 40
0.7591013550823194
 40
0.8497784885945935
 40
0.9367904447163096
 40
1.020119460925971
 40
1.099747774859914
 40
1.175657624344032
 40
1.247831247436018
 40
1.316250882477897
 40
1.380898768165475
 40
1.441757143639969
 40
1.498808248611417
 40
1.552034323527771
 40
1.601417609811993
 40
1.646918220573594
 40
1.688504087876914
 40
1.726169184516057
 40
1.759907486985223
 40
1.789712977446178
 40
1.815579647199418
 40
1.837501503296205
 40
1.855472582448117
 40
1.869486984639205
 40
1.879538973165939
 40
1.885623401508353
 40
1.887740153959753
 40
1.887740153959753
 40
1.887740153959753
 40
1.887740153959753
 10
-449.0073066637501
 20
380.2877061845867
 30
0.0
 10
-449.0258904555861
 20
380.2525165518011
 30
0.0
 10
-449.0624984048002
 20
380.1831969909048
 30
0.0
 10
-449.1165748316123
 20
380.080821154953
 30
0.0
 10
-449.1689642436281
 20
379.9816557289901
 30
0.0
 10
-449.2196525262458
 20
379.8857288382422
 30
0.0
 10
-449.2686248363446
 20
379.7930682232183
 30
0.0
 10
-449.315866516507
 20
379.7037017224917
 30
0.0
 10
-449.3609138556429
 20
379.6185063277861
 30
0.0
 10
-449.4037752682509
 20
379.5374654235367
 30
0.0
 10
-449.4444612538624
 20
379.4605583316421
 30
0.0
 10
-449.483433867904
 20
379.3869113790791
 30
0.0
 10
-449.5206847908041
 20
379.3165402608329
 30
0.0
 10
-449.5562057024075
 20
379.2494606715721
 30
0.0
 10
-449.5899882818263
 20
379.1856883055675
 30
0.0
 10
-449.6220242072128
 20
379.1252388565655
 30
0.0
 10
-449.6523051554977
 20
379.0681280176489
 30
0.0
 10
-449.6808228018731
 20
379.0143714809412
 30
0.0
 10
-449.7075688195634
 20
378.9639849375119
 30
0.0
 10
-449.7325348777818
 20
378.916984076143
 30
0.0
 10
-449.755709181913
 20
378.8733910985583
 30
0.0
 10
-449.7770776685881
 20
378.8332324022331
 30
0.0
 10
-449.7966281107836
 20
378.7965309376646
 30
0.0
 10
-449.8143534418086
 20
378.7632996059136
 30
0.0
 10
-449.8302510009415
 20
378.7335438572691
 30
0.0
 10
-449.8443169868501
 20
378.707268417039
 30
0.0
 10
-449.856550925116
 20
378.6844801368738
 30
0.0
 10
-449.8669420826958
 20
378.665179331661
 30
0.0
 10
-449.8755085664736
 20
378.6493847238004
 30
0.0
 10
-449.882188762597
 20
378.6370641973997
 30
0.0
 10
-449.8871169109192
 20
378.6283105241503
 30
0.0
 10
-449.8899935487339
 20
378.6229383732335
 30
0.0
 10
-449.8915321267623
 20
378.6206776048296
 30
0.0
 10
-449.8919292389459
 20
378.6200940928718
 30
0.0
 11
-449.0073066637501
 21
380.2877061845867
 31
0.0
 11
-449.0630595837808
 21
380.182138101965
 31
0.0
 11
-449.1171406545142
 21
380.0797528591007
 31
0.0
 11
-449.1695351822109
 21
379.9805782753978
 31
0.0
 11
-449.2202284731315
 21
379.8846421702608
 31
0.0
 11
-449.2692058335373
 21
379.7919723630942
 31
0.0
 11
-449.3164525696885
 21
379.7025966733021
 31
0.0
 11
-449.3619539878461
 21
379.6165429202891
 31
0.0
 11
-449.4043479637755
 21
379.5363862402998
 31
0.0
 11
-449.4450369034896
 21
379.4594740130985
 31
0.0
 11
-449.484012490172
 21
379.3858219351561
 31
0.0
 11
-449.5212664070066
 21
379.3154457029435
 31
0.0
 11
-449.556790337177
 21
379.2483610129319
 31
0.0
 11
-449.590575963867
 21
379.1845835615922
 31
0.0
 11
-449.6226149702604
 21
379.1241290453954
 31
0.0
 11
-449.6528990395412
 21
379.0670131608127
 31
0.0
 11
-449.6814198548927
 21
379.0132516043148
 31
0.0
 11
-449.7081690994991
 21
378.9628600723729
 31
0.0
 11
-449.7331384565438
 21
378.9158542614579
 31
0.0
 11
-449.7563196092109
 21
378.872249868041
 31
0.0
 11
-449.7776938408956
 21
378.8320821222794
 31
0.0
 11
-449.7972460729475
 21
378.795379335176
 31
0.0
 11
-449.8149734454819
 21
378.7621468244694
 31
0.0
 11
-449.8308730986133
 21
378.7323899078986
 31
0.0
 11
-449.8449421724567
 21
378.7061139032022
 31
0.0
 11
-449.8571778071269
 21
378.683324128119
 31
0.0
 11
-449.8675771427388
 21
378.664025900388
 31
0.0
 11
-449.8761373194074
 21
378.6482245377478
 31
0.0
 11
-449.8828554772475
 21
378.6359253579374
 31
0.0
 11
-449.8877287563741
 21
378.6271336786953
 31
0.0
 11
-449.8907542969019
 21
378.6218548177605
 31
0.0
 11
-449.8919292389459
 21
378.6200940928718
 31
0.0
  0
ENDSEC
  0
SECTION
  2
OBJECTS
  0
DICTIONARY
  5
C
330
0
100
AcDbDictionary
281
     1
  3
ACAD_GROUP
350
D
  3
ACAD_LAYOUT
350
1A
  3
ACAD_MLINESTYLE
350
17
  3
ACAD_PLOTSETTINGS
350
19
  3
ACAD_PLOTSTYLENAME
350
E
  3
ACAD_TABLESTYLE
350
2A
  3
AcDbVariableDictionary
350
2C
  0
DICTIONARY
  5
D
102
{ACAD_REACTORS
330
C
102
}
330
C
100
AcDbDictionary
281
     1
  0
DICTIONARY
  5
1A
102
{ACAD_REACTORS
330
C
102
}
330
C
100
AcDbDictionary
281
     1
  3
Layout1
350
1E
  3
Layout2
350
26
  3
Model
350
22
  0
DICTIONARY
  5
17
102
{ACAD_REACTORS
330
C
102
}
330
C
100
AcDbDictionary
281
     1
  3
Standard
350
18
  0
DICTIONARY
  5
19
102
{ACAD_REACTORS
330
C
102
}
330
C
100
AcDbDictionary
281
     1
  0
ACDBDICTIONARYWDFLT
  5
E
102
{ACAD_REACTORS
330
C
102
}
330
C
100
AcDbDictionary
281
     1
  3
Normal
350
F
100
AcDbDictionaryWithDefault
340
F
  0
DICTIONARY
  5
2A
102
{ACAD_REACTORS
330
C
102
}
330
C
100
AcDbDictionary
281
     1
  3
Standard
350
2B
  0
DICTIONARY
  5
2C
102
{ACAD_REACTORS
330
C
102
}
330
C
100
AcDbDictionary
281
     1
  3
CTABLESTYLE
350
2D
  0
LAYOUT
  5
1E
102
{ACAD_REACTORS
330
1A
102
}
330
1A
100
AcDbPlotSettings
  1

  2

  4

  6

 40
0.0
 41
0.0
 42
0.0
 43
0.0
 44
0.0
 45
0.0
 46
0.0
 47
0.0
 48
0.0
 49
0.0
140
0.0
141
0.0
142
1.0
143
1.0
 70
   688
 72
     0
 73
     0
 74
     5
  7

 75
    16
147
1.0
148
0.0
149
0.0
100
AcDbLayout
  1
Layout1
 70
     1
 71
     1
 10
0.0
 20
0.0
 11
12.0
 21
9.0
 12
0.0
 22
0.0
 32
0.0
 14
1.00000000000000E+20
 24
1.00000000000000E+20
 34
1.00000000000000E+20
 15
-1.00000000000000E+20
 25
-1.00000000000000E+20
 35
-1.00000000000000E+20
146
0.0
 13
0.0
 23
0.0
 33
0.0
 16
1.0
 26
0.0
 36
0.0
 17
0.0
 27
1.0
 37
0.0
 76
     0
330
1B
  0
LAYOUT
  5
26
102
{ACAD_REACTORS
330
1A
102
}
330
1A
100
AcDbPlotSettings
  1

  2

  4

  6

 40
0.0
 41
0.0
 42
0.0
 43
0.0
 44
0.0
 45
0.0
 46
0.0
 47
0.0
 48
0.0
 49
0.0
140
0.0
141
0.0
142
1.0
143
1.0
 70
   688
 72
     0
 73
     0
 74
     5
  7

 75
    16
147
1.0
148
0.0
149
0.0
100
AcDbLayout
  1
Layout2
 70
     1
 71
     2
 10
0.0
 20
0.0
 11
0.0
 21
0.0
 12
0.0
 22
0.0
 32
0.0
 14
0.0
 24
0.0
 34
0.0
 15
0.0
 25
0.0
 35
0.0
146
0.0
 13
0.0
 23
0.0
 33
0.0
 16
1.0
 26
0.0
 36
0.0
 17
0.0
 27
1.0
 37
0.0
 76
     0
330
23
  0
LAYOUT
  5
22
102
{ACAD_REACTORS
330
1A
102
}
330
1A
100
AcDbPlotSettings
  1

  2

  4

  6

 40
0.0
 41
0.0
 42
0.0
 43
0.0
 44
0.0
 45
0.0
 46
0.0
 47
0.0
 48
0.0
 49
0.0
140
0.0
141
0.0
142
1.0
143
1.0
 70
  1712
 72
     0
 73
     0
 74
     0
  7

 75
     0
147
1.0
148
0.0
149
0.0
100
AcDbLayout
  1
Model
 70
     1
 71
     0
 10
0.0
 20
0.0
 11
0.0
 21
0.0
 12
0.0
 22
0.0
 32
0.0
 14
-644.3243620040638
 24
-9.98990443161813
 34
0.0
 15
1399.14445233246
 25
1035.403900272568
 35
0.0
146
0.0
 13
0.0
 23
0.0
 33
0.0
 16
1.0
 26
0.0
 36
0.0
 17
0.0
 27
1.0
 37
0.0
 76
     0
330
1F
  0
MLINESTYLE
  5
18
102
{ACAD_REACTORS
330
17
102
}
330
17
100
AcDbMlineStyle
  2
Standard
 70
     0
  3

 62
   256
 51
90.0
 52
90.0
 71
     2
 49
0.5
 62
   256
  6
BYLAYER
 49
-0.5
 62
   256
  6
BYLAYER
  0
ACDBPLACEHOLDER
  5
F
102
{ACAD_REACTORS
330
E
102
}
330
E
  0
TABLESTYLE
  5
2B
102
{ACAD_REACTORS
330
2A
102
}
330
2A
100
AcDbTableStyle
  3
Standard
 70
     0
 71
     0
 40
0.06
 41
0.06
280
     0
281
     0
  7
Standard
140
0.18
170
     2
 62
     0
 63
     7
283
     0
274
    -2
284
     1
 64
     0
275
    -2
285
     1
 65
     0
276
    -2
286
     1
 66
     0
277
    -2
287
     1
 67
     0
278
    -2
288
     1
 68
     0
279
    -2
289
     1
 69
     0
  7
Standard
140
0.25
170
     5
 62
     0
 63
     7
283
     0
274
    -2
284
     1
 64
     0
275
    -2
285
     1
 65
     0
276
    -2
286
     1
 66
     0
277
    -2
287
     1
 67
     0
278
    -2
288
     1
 68
     0
279
    -2
289
     1
 69
     0
  7
Standard
140
0.18
170
     5
 62
     0
 63
     7
283
     0
274
    -2
284
     1
 64
     0
275
    -2
285
     1
 65
     0
276
    -2
286
     1
 66
     0
277
    -2
287
     1
 67
     0
278
    -2
288
     1
 68
     0
279
    -2
289
     1
 69
     0
  0
DICTIONARYVAR
  5
2D
102
{ACAD_REACTORS
330
2C
102
}
330
2C
100
DictionaryVariables
280
     0
  1
Standard
  0
ENDSEC
  0
EOF
