  0
SECTION
  2
HEADER
  9
$ACADVER
  1
AC1015
  9
$ACADMAINTVER
 70
     6
  9
$DWGCODEPAGE
  3
ANSI_1252
  9
$INSBASE
 10
0.0
 20
0.0
 30
0.0
  9
$EXTMIN
 10
-626.4893193949891
 20
-614.192297147742
 30
0.0
  9
$EXTMAX
 10
905.565681537159
 20
1413.033898634781
 30
0.0
  9
$LIMMIN
 10
0.0
 20
0.0
  9
$LIMMAX
 10
12.0
 20
9.0
  9
$ORTHOMODE
 70
     0
  9
$REGENMODE
 70
     1
  9
$FILLMODE
 70
     1
  9
$QTEXTMODE
 70
     0
  9
$MIRRTEXT
 70
     1
  9
$LTSCALE
 40
1.0
  9
$ATTMODE
 70
     1
  9
$TEXTSIZE
 40
0.2
  9
$TRACEWID
 40
0.05
  9
$TEXTSTYLE
  7
Standard
  9
$CLAYER
  8
0
  9
$CELTYPE
  6
ByLayer
  9
$CECOLOR
 62
   256
  9
$CELTSCALE
 40
1.0
  9
$DISPSILH
 70
     0
  9
$DIMSCALE
 40
1.0
  9
$DIMASZ
 40
0.18
  9
$DIMEXO
 40
0.0625
  9
$DIMDLI
 40
0.38
  9
$DIMRND
 40
0.0
  9
$DIMDLE
 40
0.0
  9
$DIMEXE
 40
0.18
  9
$DIMTP
 40
0.0
  9
$DIMTM
 40
0.0
  9
$DIMTXT
 40
0.18
  9
$DIMCEN
 40
0.09
  9
$DIMTSZ
 40
0.0
  9
$DIMTOL
 70
     0
  9
$DIMLIM
 70
     0
  9
$DIMTIH
 70
     1
  9
$DIMTOH
 70
     1
  9
$DIMSE1
 70
     0
  9
$DIMSE2
 70
     0
  9
$DIMTAD
 70
     0
  9
$DIMZIN
 70
     0
  9
$DIMBLK
  1

  9
$DIMASO
 70
     1
  9
$DIMSHO
 70
     1
  9
$DIMPOST
  1

  9
$DIMAPOST
  1

  9
$DIMALT
 70
     0
  9
$DIMALTD
 70
     2
  9
$DIMALTF
 40
25.4
  9
$DIMLFAC
 40
1.0
  9
$DIMTOFL
 70
     0
  9
$DIMTVP
 40
0.0
  9
$DIMTIX
 70
     0
  9
$DIMSOXD
 70
     0
  9
$DIMSAH
 70
     0
  9
$DIMBLK1
  1

  9
$DIMBLK2
  1

  9
$DIMSTYLE
  2
Standard
  9
$DIMCLRD
 70
     0
  9
$DIMCLRE
 70
     0
  9
$DIMCLRT
 70
     0
  9
$DIMTFAC
 40
1.0
  9
$DIMGAP
 40
0.09
  9
$DIMJUST
 70
     0
  9
$DIMSD1
 70
     0
  9
$DIMSD2
 70
     0
  9
$DIMTOLJ
 70
     1
  9
$DIMTZIN
 70
     0
  9
$DIMALTZ
 70
     0
  9
$DIMALTTZ
 70
     0
  9
$DIMUPT
 70
     0
  9
$DIMDEC
 70
     4
  9
$DIMTDEC
 70
     4
  9
$DIMALTU
 70
     2
  9
$DIMALTTD
 70
     2
  9
$DIMTXSTY
  7
Standard
  9
$DIMAUNIT
 70
     0
  9
$DIMADEC
 70
     0
  9
$DIMALTRND
 40
0.0
  9
$DIMAZIN
 70
     0
  9
$DIMDSEP
 70
    46
  9
$DIMATFIT
 70
     3
  9
$DIMFRAC
 70
     0
  9
$DIMLDRBLK
  1

  9
$DIMLUNIT
 70
     2
  9
$DIMLWD
 70
    -2
  9
$DIMLWE
 70
    -2
  9
$DIMTMOVE
 70
     0
  9
$LUNITS
 70
     2
  9
$LUPREC
 70
     4
  9
$SKETCHINC
 40
0.1
  9
$FILLETRAD
 40
0.5
  9
$AUNITS
 70
     0
  9
$AUPREC
 70
     0
  9
$MENU
  1
.
  9
$ELEVATION
 40
0.0
  9
$PELEVATION
 40
0.0
  9
$THICKNESS
 40
0.0
  9
$LIMCHECK
 70
     0
  9
$CHAMFERA
 40
0.0
  9
$CHAMFERB
 40
0.0
  9
$CHAMFERC
 40
0.0
  9
$CHAMFERD
 40
0.0
  9
$SKPOLY
 70
     0
  9
$TDCREATE
 40
2457788.409277697
  9
$TDUCREATE
 40
2457788.36761103
  9
$TDUPDATE
 40
2457788.409278565
  9
$TDUUPDATE
 40
2457788.367611898
  9
$TDINDWG
 40
0.0000000116
  9
$TDUSRTIMER
 40
0.0000000116
  9
$USRTIMER
 70
     1
  9
$ANGBASE
 50
0.0
  9
$ANGDIR
 70
     0
  9
$PDMODE
 70
     0
  9
$PDSIZE
 40
0.0
  9
$PLINEWID
 40
0.0
  9
$SPLFRAME
 70
     0
  9
$SPLINETYPE
 70
     6
  9
$SPLINESEGS
 70
     8
  9
$HANDSEED
  5
12C
  9
$SURFTAB1
 70
     6
  9
$SURFTAB2
 70
     6
  9
$SURFTYPE
 70
     6
  9
$SURFU
 70
     6
  9
$SURFV
 70
     6
  9
$UCSBASE
  2

  9
$UCSNAME
  2

  9
$UCSORG
 10
0.0
 20
0.0
 30
0.0
  9
$UCSXDIR
 10
1.0
 20
0.0
 30
0.0
  9
$UCSYDIR
 10
0.0
 20
1.0
 30
0.0
  9
$UCSORTHOREF
  2

  9
$UCSORTHOVIEW
 70
     0
  9
$UCSORGTOP
 10
0.0
 20
0.0
 30
0.0
  9
$UCSORGBOTTOM
 10
0.0
 20
0.0
 30
0.0
  9
$UCSORGLEFT
 10
0.0
 20
0.0
 30
0.0
  9
$UCSORGRIGHT
 10
0.0
 20
0.0
 30
0.0
  9
$UCSORGFRONT
 10
0.0
 20
0.0
 30
0.0
  9
$UCSORGBACK
 10
0.0
 20
0.0
 30
0.0
  9
$PUCSBASE
  2

  9
$PUCSNAME
  2

  9
$PUCSORG
 10
0.0
 20
0.0
 30
0.0
  9
$PUCSXDIR
 10
1.0
 20
0.0
 30
0.0
  9
$PUCSYDIR
 10
0.0
 20
1.0
 30
0.0
  9
$PUCSORTHOREF
  2

  9
$PUCSORTHOVIEW
 70
     0
  9
$PUCSORGTOP
 10
0.0
 20
0.0
 30
0.0
  9
$PUCSORGBOTTOM
 10
0.0
 20
0.0
 30
0.0
  9
$PUCSORGLEFT
 10
0.0
 20
0.0
 30
0.0
  9
$PUCSORGRIGHT
 10
0.0
 20
0.0
 30
0.0
  9
$PUCSORGFRONT
 10
0.0
 20
0.0
 30
0.0
  9
$PUCSORGBACK
 10
0.0
 20
0.0
 30
0.0
  9
$USERI1
 70
     0
  9
$USERI2
 70
     0
  9
$USERI3
 70
     0
  9
$USERI4
 70
     0
  9
$USERI5
 70
     0
  9
$USERR1
 40
19.0
  9
$USERR2
 40
0.0
  9
$USERR3
 40
0.0
  9
$USERR4
 40
0.0
  9
$USERR5
 40
0.0
  9
$WORLDVIEW
 70
     1
  9
$SHADEDGE
 70
     3
  9
$SHADEDIF
 70
    70
  9
$TILEMODE
 70
     1
  9
$MAXACTVP
 70
    64
  9
$PINSBASE
 10
0.0
 20
0.0
 30
0.0
  9
$PLIMCHECK
 70
     0
  9
$PEXTMIN
 10
1.00000000000000E+20
 20
1.00000000000000E+20
 30
1.00000000000000E+20
  9
$PEXTMAX
 10
-1.00000000000000E+20
 20
-1.00000000000000E+20
 30
-1.00000000000000E+20
  9
$PLIMMIN
 10
0.0
 20
0.0
  9
$PLIMMAX
 10
12.0
 20
9.0
  9
$UNITMODE
 70
     0
  9
$VISRETAIN
 70
     1
  9
$PLINEGEN
 70
     0
  9
$PSLTSCALE
 70
     1
  9
$TREEDEPTH
 70
  3020
  9
$CMLSTYLE
  2
Standard
  9
$CMLJUST
 70
     0
  9
$CMLSCALE
 40
1.0
  9
$PROXYGRAPHICS
 70
     1
  9
$MEASUREMENT
 70
     1
  9
$CELWEIGHT
370
    -1
  9
$ENDCAPS
280
     0
  9
$JOINSTYLE
280
     0
  9
$LWDISPLAY
290
     0
  9
$INSUNITS
 70
     4
  9
$HYPERLINKBASE
  1

  9
$STYLESHEET
  1

  9
$XEDIT
290
     1
  9
$CEPSNTYPE
380
     0
  9
$PSTYLEMODE
290
     1
  9
$FINGERPRINTGUID
  2
{AFE99B5F-1B08-4ABE-83F5-1869903C00D4}
  9
$VERSIONGUID
  2
{FAEB1C32-E019-11D5-929B-00C0DF256EC4}
  9
$EXTNAMES
290
     1
  9
$PSVPSCALE
 40
0.0
  9
$OLESTARTUP
290
     0
  0
ENDSEC
  0
SECTION
  2
CLASSES
  0
CLASS
  1
ACDBDICTIONARYWDFLT
  2
AcDbDictionaryWithDefault
  3
ObjectDBX Classes
 90
        0
280
     0
281
     0
  0
CLASS
  1
VISUALSTYLE
  2
AcDbVisualStyle
  3
ObjectDBX Classes
 90
     4095
280
     0
281
     0
  0
CLASS
  1
MATERIAL
  2
AcDbMaterial
  3
ObjectDBX Classes
 90
     1153
280
     0
281
     0
  0
CLASS
  1
SCALE
  2
AcDbScale
  3
ObjectDBX Classes
 90
     1153
280
     0
281
     0
  0
CLASS
  1
SUN
  2
AcDbSun
  3
SCENEOE
 90
     1153
280
     0
281
     0
  0
CLASS
  1
DICTIONARYVAR
  2
AcDbDictionaryVar
  3
ObjectDBX Classes
 90
        0
280
     0
281
     0
  0
CLASS
  1
ACDBPLACEHOLDER
  2
AcDbPlaceHolder
  3
ObjectDBX Classes
 90
        0
280
     0
281
     0
  0
CLASS
  1
LAYOUT
  2
AcDbLayout
  3
ObjectDBX Classes
 90
        0
280
     0
281
     0
  0
ENDSEC
  0
SECTION
  2
TABLES
  0
TABLE
  2
VPORT
  5
8
330
0
100
AcDbSymbolTable
 70
     1
  0
VPORT
  5
29
330
8
100
AcDbSymbolTableRecord
100
AcDbViewportTableRecord
  2
*Active
 70
     0
 10
0.0
 20
0.0
 11
1.0
 21
1.0
 12
139.5381810710849
 22
399.4208007435195
 13
0.0
 23
0.0
 14
0.5
 24
0.5
 15
0.5
 25
0.5
 16
0.0
 26
0.0
 36
1.0
 17
0.0
 27
0.0
 37
0.0
 40
2229.948815360775
 41
1.60267857142857
 42
50.0
 43
0.0
 44
0.0
 50
0.0
 51
0.0
 71
     0
 72
   100
 73
     1
 74
     3
 75
     0
 76
     0
 77
     0
 78
     0
281
     0
 65
     1
110
0.0
120
0.0
130
0.0
111
1.0
121
0.0
131
0.0
112
0.0
122
1.0
132
0.0
 79
     0
146
0.0
  0
ENDTAB
  0
TABLE
  2
LTYPE
  5
5
330
0
100
AcDbSymbolTable
 70
     8
  0
LTYPE
  5
14
330
5
100
AcDbSymbolTableRecord
100
AcDbLinetypeTableRecord
  2
ByBlock
 70
     0
  3

 72
    65
 73
     0
 40
0.0
  0
LTYPE
  5
15
330
5
100
AcDbSymbolTableRecord
100
AcDbLinetypeTableRecord
  2
ByLayer
 70
     0
  3

 72
    65
 73
     0
 40
0.0
  0
LTYPE
  5
16
330
5
100
AcDbSymbolTableRecord
100
AcDbLinetypeTableRecord
  2
Continuous
 70
     0
  3
Solid line
 72
    65
 73
     0
 40
0.0
  0
LTYPE
  5
6A
330
5
100
AcDbSymbolTableRecord
100
AcDbLinetypeTableRecord
  2
DASHED
 70
     0
  3
Dashed
 72
    65
 73
     2
 40
15.0
 49
7.0
 74
     0
 49
-8.0
 74
     0
  0
LTYPE
  5
6B
330
5
100
AcDbSymbolTableRecord
100
AcDbLinetypeTableRecord
  2
DOTTED
 70
     0
  3
Dotted
 72
    65
 73
     2
 40
1.0
 49
0.0
 74
     0
 49
-1.0
 74
     0
  0
LTYPE
  5
6C
330
5
100
AcDbSymbolTableRecord
100
AcDbLinetypeTableRecord
  2
DOT_CENTER
 70
     0
  3
Dot_Center
 72
    65
 73
     4
 40
14.0
 49
12.0
 74
     0
 49
-1.0
 74
     0
 49
0.0
 74
     0
 49
-1.0
 74
     0
  0
LTYPE
  5
6D
330
5
100
AcDbSymbolTableRecord
100
AcDbLinetypeTableRecord
  2
LONG_DASHED
 70
     0
  3
Long_Dashed
 72
    65
 73
     2
 40
15.0
 49
10.0
 74
     0
 49
-5.0
 74
     0
  0
LTYPE
  5
6E
330
5
100
AcDbSymbolTableRecord
100
AcDbLinetypeTableRecord
  2
DASH_CENTER
 70
     0
  3
Dash_Center
 72
    65
 73
     4
 40
14.0
 49
11.0
 74
     0
 49
-1.0
 74
     0
 49
1.0
 74
     0
 49
-1.0
 74
     0
  0
LTYPE
  5
6F
330
5
100
AcDbSymbolTableRecord
100
AcDbLinetypeTableRecord
  2
PHANTOM
 70
     0
  3
Phantom
 72
    65
 73
     6
 40
13.0
 49
10.0
 74
     0
 49
-1.0
 74
     0
 49
0.0
 74
     0
 49
-1.0
 74
     0
 49
0.0
 74
     0
 49
-1.0
 74
     0
  0
LTYPE
  5
70
330
5
100
AcDbSymbolTableRecord
100
AcDbLinetypeTableRecord
  2
CENTER_DASH_DASH
 70
     0
  3
Center_Dash_Dash
 72
    65
 73
     6
 40
14.0
 49
9.0
 74
     0
 49
-1.0
 74
     0
 49
1.0
 74
     0
 49
-1.0
 74
     0
 49
1.0
 74
     0
 49
-1.0
 74
     0
  0
ENDTAB
  0
TABLE
  2
LAYER
  5
2
330
0
100
AcDbSymbolTable
 70
     2
  0
LAYER
  5
10
330
2
100
AcDbSymbolTableRecord
100
AcDbLayerTableRecord
  2
0
 70
     0
 62
     7
  6
Continuous
370
    -3
390
F
  0
LAYER
  5
71
330
2
100
AcDbSymbolTableRecord
100
AcDbLayerTableRecord
  2
1
 70
     0
 62
     7
  6
Continuous
370
    -3
390
F
  0
ENDTAB
  0
TABLE
  2
STYLE
  5
3
330
0
100
AcDbSymbolTable
 70
     1
  0
STYLE
  5
11
330
3
100
AcDbSymbolTableRecord
100
AcDbTextStyleTableRecord
  2
Standard
 70
     0
 40
0.0
 41
1.0
 50
0.0
 71
     0
 42
0.2
  3
txt
  4

  0
ENDTAB
  0
TABLE
  2
VIEW
  5
6
330
0
100
AcDbSymbolTable
 70
     0
  0
ENDTAB
  0
TABLE
  2
UCS
  5
7
330
0
100
AcDbSymbolTable
 70
     0
  0
ENDTAB
  0
TABLE
  2
APPID
  5
9
330
0
100
AcDbSymbolTable
 70
     1
  0
APPID
  5
12
330
9
100
AcDbSymbolTableRecord
100
AcDbRegAppTableRecord
  2
ACAD
 70
     0
  0
ENDTAB
  0
TABLE
  2
DIMSTYLE
  5
A
330
0
100
AcDbSymbolTable
 70
     1
100
AcDbDimStyleTable
  0
DIMSTYLE
105
27
330
A
100
AcDbSymbolTableRecord
100
AcDbDimStyleTableRecord
  2
Standard
 70
     0
178
     0
340
11
  0
ENDTAB
  0
TABLE
  2
BLOCK_RECORD
  5
1
330
0
100
AcDbSymbolTable
 70
     1
  0
BLOCK_RECORD
  5
1F
330
1
100
AcDbSymbolTableRecord
100
AcDbBlockTableRecord
  2
*Model_Space
340
22
  0
BLOCK_RECORD
  5
1B
330
1
100
AcDbSymbolTableRecord
100
AcDbBlockTableRecord
  2
*Paper_Space
340
1E
  0
BLOCK_RECORD
  5
23
330
1
100
AcDbSymbolTableRecord
100
AcDbBlockTableRecord
  2
*Paper_Space0
340
26
  0
ENDTAB
  0
ENDSEC
  0
SECTION
  2
BLOCKS
  0
BLOCK
  5
20
330
1F
100
AcDbEntity
  8
0
100
AcDbBlockBegin
  2
*Model_Space
 70
     0
 10
0.0
 20
0.0
 30
0.0
  3
*Model_Space
  1
*Model_Space
  0
ENDBLK
  5
21
330
1F
100
AcDbEntity
  8
0
100
AcDbBlockEnd
  0
BLOCK
  5
1C
330
1B
100
AcDbEntity
 67
     1
  8
0
100
AcDbBlockBegin
  2
*Paper_Space
 70
     0
 10
0.0
 20
0.0
 30
0.0
  3
*Paper_Space
  1
*Paper_Space
  0
ENDBLK
  5
1D
330
1B
100
AcDbEntity
 67
     1
  8
0
100
AcDbBlockEnd
  0
BLOCK
  5
24
330
23
100
AcDbEntity
  8
0
100
AcDbBlockBegin
  2
*Paper_Space0
 70
     0
 10
0.0
 20
0.0
 30
0.0
  3
*Paper_Space0
  1
*Paper_Space0
  0
ENDBLK
  5
25
330
23
100
AcDbEntity
  8
0
100
AcDbBlockEnd
  0
ENDSEC
  0
SECTION
  2
ENTITIES
  0
LINE
  5
72
330
1F
100
AcDbEntity
  8
1
  6
Continuous
 62
     7
100
AcDbLine
 10
582.537393243979
 20
-614.192297147742
 30
0.0
 11
799.1116244527266
 21
-614.192297147742
 31
0.0
  0
LINE
  5
73
330
1F
100
AcDbEntity
  8
1
  6
Continuous
 62
     7
100
AcDbLine
 10
847.5209168303613
 20
62.72432799210765
 30
0.0
 11
851.2566425628797
 21
62.72432799210765
 31
0.0
  0
LINE
  5
74
330
1F
100
AcDbEntity
  8
1
  6
Continuous
 62
     7
100
AcDbLine
 10
829.1116244527266
 20
-491.0812470012726
 30
0.0
 11
829.1116244527266
 21
-584.192297147742
 31
0.0
  0
LINE
  5
75
330
1F
100
AcDbEntity
  8
1
  6
Continuous
 62
     7
100
AcDbLine
 10
335.7770026782118
 20
-584.192297147742
 30
0.0
 11
335.7770026782118
 21
-491.0812470012726
 31
0.0
  0
LINE
  5
76
330
1F
100
AcDbEntity
  8
1
  6
Continuous
 62
     7
100
AcDbLine
 10
313.6319845680587
 20
62.72432799210765
 30
0.0
 11
317.367710300577
 21
62.72432799210765
 31
0.0
  0
LINE
  5
77
330
1F
100
AcDbEntity
  8
1
  6
Continuous
 62
     7
100
AcDbLine
 10
365.7770026782118
 20
-614.192297147742
 30
0.0
 11
582.3512338869594
 21
-614.192297147742
 31
0.0
  0
LINE
  5
78
330
1F
100
AcDbEntity
  8
1
  6
Continuous
 62
     4
100
AcDbLine
 10
-411.1962894615925
 20
473.3058175436468
 30
0.0
 11
-411.1962894615925
 21
482.4037084053363
 31
0.0
  0
LINE
  5
79
330
1F
100
AcDbEntity
  8
1
  6
Continuous
 62
     7
100
AcDbLine
 10
-392.0275961379545
 20
482.4037084053363
 30
0.0
 11
-411.222528295451
 21
482.4037084053363
 31
0.0
  0
LINE
  5
7A
330
1F
100
AcDbEntity
  8
1
  6
Continuous
 62
     7
100
AcDbLine
 10
-411.6070306864165
 20
486.355404769183
 30
0.0
 11
-411.1130686409357
 21
482.4037084053363
 31
0.0
  0
LINE
  5
7B
330
1F
100
AcDbEntity
  8
1
  6
Continuous
 62
     7
100
AcDbLine
 10
-381.180593936297
 20
1077.897844055877
 30
0.0
 11
-395.7057469241813
 21
1109.8198972558
 31
0.0
  0
LINE
  5
7C
330
1F
100
AcDbEntity
  8
1
  6
Continuous
 62
     1
100
AcDbLine
 10
-547.5143132984094
 20
1228.817706021619
 30
0.0
 11
-566.8349629517292
 21
1238.16183493154
 31
0.0
  0
LINE
  5
7D
330
1F
100
AcDbEntity
  8
1
  6
Continuous
 62
     7
100
AcDbLine
 10
-577.6325458633845
 20
1207.40833025645
 30
0.0
 11
-588.6325458633845
 21
1232.40833025645
 31
0.0
  0
LINE
  5
7E
330
1F
100
AcDbEntity
  8
1
  6
Continuous
 62
     7
100
AcDbLine
 10
-129.7934925522615
 20
517.095267035864
 30
0.0
 11
-123.2582139700297
 21
517.5262977742092
 31
0.0
  0
LINE
  5
7F
330
1F
100
AcDbEntity
  8
1
  6
Continuous
 62
     4
100
AcDbLine
 10
10.767817651727
 20
472.6369860952329
 30
0.0
 11
61.332063650935
 21
472.627204349508
 31
0.0
  0
LINE
  5
80
330
1F
100
AcDbEntity
  8
0
  6
Continuous
 62
     4
100
AcDbLine
 10
834.1222105778284
 20
472.7126161039247
 30
0.0
 11
859.9850723540274
 21
472.5626579107404
 31
0.0
  0
LINE
  5
81
330
1F
100
AcDbEntity
  8
0
  6
Continuous
 62
     7
100
AcDbLine
 10
582.4443135654692
 20
715.563801603008
 30
0.0
 11
800.5538028245626
 21
714.8111320857087
 31
0.0
  0
LINE
  5
82
330
1F
100
AcDbEntity
  8
0
  6
Continuous
 62
     1
100
AcDbLine
 10
832.4162911379528
 20
878.4477460250522
 30
0.0
 11
582.4443135654692
 21
878.4477460250522
 31
0.0
  0
LINE
  5
83
330
1F
100
AcDbEntity
  8
0
  6
Continuous
 62
     7
100
AcDbLine
 10
829.1116244527263
 20
926.5714251602793
 30
0.0
 11
582.4443135654692
 21
926.5714251602792
 31
0.0
  0
LINE
  5
84
330
1F
100
AcDbEntity
  8
0
  6
Continuous
 62
     7
100
AcDbLine
 10
582.4443135654692
 20
1018.284427215286
 30
0.0
 11
782.3498556819972
 21
1017.550600799335
 31
0.0
  0
LINE
  5
85
330
1F
100
AcDbEntity
  8
0
  6
Continuous
 62
     7
100
AcDbLine
 10
582.4443135654692
 20
1413.033898634781
 30
0.0
 11
863.7773031435636
 21
1412.001162995219
 31
0.0
  0
LINE
  5
86
330
1F
100
AcDbEntity
  8
0
  6
Continuous
 62
     7
100
AcDbLine
 10
823.9300673006765
 20
799.828945567842
 30
0.0
 11
800.5538028245626
 21
714.8111320857087
 31
0.0
  0
LINE
  5
87
330
1F
100
AcDbEntity
  8
0
  6
Continuous
 62
     7
100
AcDbLine
 10
824.1890186535695
 20
799.828945567842
 30
0.0
 11
582.4443135654692
 21
799.828945567842
 31
0.0
  0
LINE
  5
88
330
1F
100
AcDbEntity
  8
1
  6
Continuous
 62
     7
100
AcDbLine
 10
820.1293596117173
 20
786.0060416675967
 30
0.0
 11
820.1293596117173
 21
517.4514081876115
 31
0.0
  0
LINE
  5
89
330
1F
100
AcDbEntity
  8
1
  6
Continuous
 62
     7
100
AcDbLine
 10
829.1116244527266
 20
1113.563275542447
 30
0.0
 11
829.1116244527263
 21
926.5714251602793
 31
0.0
  0
LINE
  5
8A
330
1F
100
AcDbEntity
  8
1
  6
Continuous
 62
     7
100
AcDbLine
 10
853.2213682866764
 20
1135.9240351897
 30
0.0
 11
901.2213682866761
 21
1135.9240351897
 31
0.0
  0
LINE
  5
8B
330
1F
100
AcDbEntity
  8
1
  6
Continuous
 62
     7
100
AcDbLine
 10
862.8921799094508
 20
1319.811648106803
 30
0.0
 11
863.5156543211222
 21
1338.694696302979
 31
0.0
  0
LINE
  5
8C
330
1F
100
AcDbEntity
  8
1
  6
Continuous
 62
     7
100
AcDbLine
 10
782.3498556819972
 20
1017.550600799335
 30
0.0
 11
800.4638898051103
 21
1019.616838751767
 31
0.0
  0
LINE
  5
8D
330
1F
100
AcDbEntity
  8
1
  6
Continuous
 62
     7
100
AcDbLine
 10
820.1293596117173
 20
517.4514081876115
 30
0.0
 11
871.5842471318333
 21
517.4514081876115
 31
0.0
  0
LINE
  5
8E
330
1F
100
AcDbEntity
  8
1
  6
Continuous
 62
     7
100
AcDbLine
 10
293.3043799991049
 20
517.4514081876115
 30
0.0
 11
344.7592675192209
 21
517.4514081876115
 31
0.0
  0
LINE
  5
8F
330
1F
100
AcDbEntity
  8
1
  6
Continuous
 62
     7
100
AcDbLine
 10
364.4247373258281
 20
1019.616838751767
 30
0.0
 11
382.538771448941
 21
1017.550600799335
 31
0.0
  0
LINE
  5
90
330
1F
100
AcDbEntity
  8
1
  6
Continuous
 62
     7
100
AcDbLine
 10
301.3729728098163
 20
1338.694696302979
 30
0.0
 11
301.9964472214876
 21
1319.811648106803
 31
0.0
  0
LINE
  5
91
330
1F
100
AcDbEntity
  8
1
  6
Continuous
 62
     7
100
AcDbLine
 10
263.667258844262
 20
1135.9240351897
 30
0.0
 11
311.667258844262
 21
1135.9240351897
 31
0.0
  0
LINE
  5
92
330
1F
100
AcDbEntity
  8
1
  6
Continuous
 62
     7
100
AcDbLine
 10
335.7770026782118
 20
926.5714251602793
 30
0.0
 11
335.7770026782118
 21
1113.563275542447
 31
0.0
  0
LINE
  5
93
330
1F
100
AcDbEntity
  8
1
  6
Continuous
 62
     7
100
AcDbLine
 10
344.7592675192209
 20
517.4514081876115
 30
0.0
 11
344.7592675192209
 21
786.0060416675967
 31
0.0
  0
LINE
  5
94
330
1F
100
AcDbEntity
  8
0
  6
Continuous
 62
     7
100
AcDbLine
 10
582.4443135654692
 20
799.828945567842
 30
0.0
 11
340.6996084773686
 21
799.828945567842
 31
0.0
  0
LINE
  5
95
330
1F
100
AcDbEntity
  8
0
  6
Continuous
 62
     7
100
AcDbLine
 10
364.3348243063755
 20
714.8111320857087
 30
0.0
 11
340.9585598302617
 21
799.828945567842
 31
0.0
  0
LINE
  5
96
330
1F
100
AcDbEntity
  8
0
  6
Continuous
 62
     7
100
AcDbLine
 10
301.1113239873748
 20
1412.001162995219
 30
0.0
 11
582.4443135654692
 21
1413.033898634781
 31
0.0
  0
LINE
  5
97
330
1F
100
AcDbEntity
  8
0
  6
Continuous
 62
     7
100
AcDbLine
 10
382.538771448941
 20
1017.550600799335
 30
0.0
 11
582.4443135654692
 21
1018.284427215286
 31
0.0
  0
LINE
  5
98
330
1F
100
AcDbEntity
  8
0
  6
Continuous
 62
     7
100
AcDbLine
 10
582.4443135654692
 20
926.5714251602792
 30
0.0
 11
335.7770026782118
 21
926.5714251602793
 31
0.0
  0
LINE
  5
99
330
1F
100
AcDbEntity
  8
0
  6
Continuous
 62
     1
100
AcDbLine
 10
582.4443135654692
 20
878.4477460250522
 30
0.0
 11
332.4723359929853
 21
878.4477460250522
 31
0.0
  0
LINE
  5
9A
330
1F
100
AcDbEntity
  8
0
  6
Continuous
 62
     7
100
AcDbLine
 10
364.3348243063755
 20
714.8111320857087
 30
0.0
 11
582.4443135654692
 21
715.563801603008
 31
0.0
  0
LINE
  5
9B
330
1F
100
AcDbEntity
  8
0
  6
Continuous
 62
     7
100
AcDbLine
 10
-129.7934925522615
 20
517.095267035864
 30
0.0
 11
-392.0275961379545
 21
482.4037084053363
 31
0.0
  0
LINE
  5
9C
330
1F
100
AcDbEntity
  8
0
  6
Continuous
 62
     7
100
AcDbLine
 10
78.71224055160778
 20
517.5648996380074
 30
0.0
 11
-123.2582139700297
 21
517.5262977742092
 31
0.0
  0
LINE
  5
9D
330
1F
100
AcDbEntity
  8
0
  6
Continuous
 62
     1
100
AcDbLine
 10
-480.3754880093196
 20
1056.223909842218
 30
0.0
 11
-543.2483662948063
 21
1226.754547720018
 31
0.0
  0
LINE
  5
9E
330
1F
100
AcDbEntity
  8
0
  6
Continuous
 62
     7
100
AcDbLine
 10
106.2657408040948
 20
926.207167291044
 30
0.0
 11
107.4416385797768
 21
926.3990435201255
 31
0.0
  0
LINE
  5
9F
330
1F
100
AcDbEntity
  8
0
  6
Continuous
 62
     4
100
AcDbLine
 10
-381.1962932460644
 20
473.3208863291618
 30
0.0
 11
-381.20157486689
 21
483.8359079038952
 31
0.0
  0
LINE
  5
A0
330
1F
100
AcDbEntity
  8
0
  6
Continuous
 62
     4
100
AcDbLine
 10
304.9035547769108
 20
472.5626579107404
 30
0.0
 11
330.7664165531098
 21
472.7126161039247
 31
0.0
  0
LINE
  5
A1
330
1F
100
AcDbEntity
  8
1
  6
Continuous
 62
     7
100
AcDbLine
 10
802.6894719982206
 20
-117.3270198380619
 30
0.0
 11
802.3989183350201
 21
-117.2800571160173
 31
0.0
  0
ARC
  5
A2
330
1F
100
AcDbEntity
  8
1
  6
Continuous
 62
     7
100
AcDbCircle
 10
581.3862739815742
 20
-765.2299321281221
 30
0.0
 40
974.0692215934183
100
AcDbArc
 50
74.07878527679324
 51
89.91272320287914
  0
ARC
  5
A3
330
1F
100
AcDbEntity
  8
1
  6
Continuous
 62
     7
100
AcDbCircle
 10
581.3862739815742
 20
-789.200788927852
 30
0.0
 40
974.0692215934184
100
AcDbArc
 50
73.22193102047879
 51
89.91272320287914
  0
ARC
  5
A4
330
1F
100
AcDbEntity
  8
1
  6
Continuous
 62
     7
100
AcDbCircle
 10
866.5627245768555
 20
-411.8291055892992
 30
0.0
 40
87.82928072965962
100
AcDbArc
 50
248.4294484716858
 51
291.0369920155795
  0
ARC
  5
A5
330
1F
100
AcDbEntity
  8
1
  6
Continuous
 62
     7
100
AcDbCircle
 10
-3682.187578059195
 20
-430.1315211188135
 30
0.0
 40
4587.011305510211
100
AcDbArc
 50
359.3197537967428
 51
5.82958789628343
  0
ARC
  5
A6
330
1F
100
AcDbEntity
  8
1
  6
Continuous
 62
     7
100
AcDbCircle
 10
4561.22590112307
 20
-37.31896091782954
 30
0.0
 40
3760.0
100
AcDbArc
 50
181.2177616753806
 51
186.84422175938
  0
ARC
  5
A7
330
1F
100
AcDbEntity
  8
1
  6
Continuous
 62
     7
100
AcDbCircle
 10
485.9975858090714
 20
171.8855365356953
 30
0.0
 40
377.6443940050294
100
AcDbArc
 50
338.4614591841477
 51
356.851298957752
  0
ARC
  5
A8
330
1F
100
AcDbEntity
  8
1
  6
Continuous
 62
     7
100
AcDbCircle
 10
1351.88219754675
 20
-165.2818652438233
 30
0.0
 40
551.5759673125855
100
AcDbArc
 50
158.9046362111722
 51
172.8696428894486
  0
ARC
  5
A9
330
1F
100
AcDbEntity
  8
1
  6
Continuous
 62
     7
100
AcDbCircle
 10
590.5179447077065
 20
-1429.088739231552
 30
0.0
 40
1328.809830434346
100
AcDbArc
 50
81.72148020913399
 51
90.33455946219013
  0
ARC
  5
AA
330
1F
100
AcDbEntity
  8
1
  6
Continuous
 62
     7
100
AcDbCircle
 10
574.3706824232319
 20
-1429.088739231552
 30
0.0
 40
1328.809830434349
100
AcDbArc
 50
89.6654405378099
 51
98.27851979086603
  0
ARC
  5
AB
330
1F
100
AcDbEntity
  8
1
  6
Continuous
 62
     7
100
AcDbCircle
 10
-186.993570415811
 20
-165.2818652438233
 30
0.0
 40
551.575967312585
100
AcDbArc
 50
7.13035711055135
 51
21.09536378882786
  0
ARC
  5
AC
330
1F
100
AcDbEntity
  8
1
  6
Continuous
 62
     7
100
AcDbCircle
 10
678.891041321867
 20
171.8855365356953
 30
0.0
 40
377.6443940050294
100
AcDbArc
 50
183.148701042248
 51
201.5385408158523
  0
ARC
  5
AD
330
1F
100
AcDbEntity
  8
1
  6
Continuous
 62
     7
100
AcDbCircle
 10
-3396.337273992132
 20
-37.31896091782954
 30
0.0
 40
3760.000000000001
100
AcDbArc
 50
353.15577824062
 51
358.7822383246194
  0
ARC
  5
AE
330
1F
100
AcDbEntity
  8
1
  6
Continuous
 62
     7
100
AcDbCircle
 10
4847.076205190133
 20
-430.1315211188135
 30
0.0
 40
4587.011305510212
100
AcDbArc
 50
174.1704121037166
 51
180.6802462032572
  0
ARC
  5
AF
330
1F
100
AcDbEntity
  8
1
  6
Continuous
 62
     7
100
AcDbCircle
 10
298.3259025540828
 20
-411.8291055892992
 30
0.0
 40
87.82928072966043
100
AcDbArc
 50
248.9630079844206
 51
291.5705515283142
  0
ARC
  5
B0
330
1F
100
AcDbEntity
  8
1
  6
Continuous
 62
     7
100
AcDbCircle
 10
583.5023531493642
 20
-789.200788927852
 30
0.0
 40
974.0692215934138
100
AcDbArc
 50
90.08727679712088
 51
106.7780689795212
  0
ARC
  5
B1
330
1F
100
AcDbEntity
  8
1
  6
Continuous
 62
     7
100
AcDbCircle
 10
583.5023531493642
 20
-765.2299321281221
 30
0.0
 40
974.0692215934137
100
AcDbArc
 50
90.08727679712088
 51
105.9212147232068
  0
LINE
  5
B2
330
1F
100
AcDbEntity
  8
1
  6
Continuous
 62
     7
100
AcDbLine
 10
362.4897087959183
 20
-117.2800571160173
 30
0.0
 11
362.1991551327178
 21
-117.3270198380619
 31
0.0
  0
ARC
  5
B3
330
1F
100
AcDbEntity
  8
1
  6
Continuous
 62
     7
100
AcDbCircle
 10
-1260.804358871804
 20
692.5671637881971
 30
0.0
 40
977.9999999999998
100
AcDbArc
 50
23.4193342677097
 51
44.46091641328659
  0
ARC
  5
B4
330
1F
100
AcDbEntity
  8
1
  6
Continuous
 62
     7
100
AcDbCircle
 10
-586.1903853477077
 20
1023.145694389982
 30
0.0
 40
209.2768857704227
100
AcDbArc
 50
24.46645524236018
 51
90.66862934197935
  0
ARC
  5
B5
330
1F
100
AcDbEntity
  8
1
  6
Continuous
 62
     7
100
AcDbCircle
 10
-617.5760549805544
 20
1330.228017539974
 30
0.0
 40
72.42292385237626
100
AcDbArc
 50
40.83113601901889
 51
77.95479553512173
  0
ARC
  5
B6
330
1F
100
AcDbEntity
  8
1
  6
Continuous
 62
     7
100
AcDbCircle
 10
-496.9608683468127
 20
1325.627405404668
 30
0.0
 40
129.528451048176
100
AcDbArc
 50
144.5446533515277
 51
226.2183034692459
  0
ARC
  5
B7
330
1F
100
AcDbEntity
  8
1
  6
Continuous
 62
     1
100
AcDbCircle
 10
437.2365414239992
 20
1308.832554567036
 30
0.0
 40
954.654645953635
100
AcDbArc
 50
195.3608160887922
 51
235.9846155947026
  0
ARC
  5
B8
330
1F
100
AcDbEntity
  8
1
  6
Continuous
 62
     4
100
AcDbCircle
 10
272.8245037788493
 20
1251.943910088919
 30
0.0
 40
822.1879277442779
100
AcDbArc
 50
243.283469681256
 51
251.4138084345348
  0
ARC
  5
B9
330
1F
100
AcDbEntity
  8
1
  6
Continuous
 62
     4
100
AcDbCircle
 10
-136.0366875482664
 20
574.7717640563029
 30
0.0
 40
222.233964613034
100
AcDbArc
 50
332.6370084529869
 51
345.0992166423856
  0
ARC
  5
BA
330
1F
100
AcDbEntity
  8
1
  6
Continuous
 62
     7
100
AcDbCircle
 10
-2161.434318462842
 20
972.7396473922106
 30
0.0
 40
3067.000000000001
100
AcDbArc
 50
351.4630369740834
 51
3.04994905938592
  0
ARC
  5
BB
330
1F
100
AcDbEntity
  8
1
  6
Continuous
 62
     7
100
AcDbCircle
 10
853.3605186541861
 20
1111.595857249093
 30
0.0
 40
24.32857588792686
100
AcDbArc
 50
90.32771224602352
 51
175.3615043790929
  0
ARC
  5
BC
330
1F
100
AcDbEntity
  8
1
  6
Continuous
 62
     7
100
AcDbCircle
 10
864.6052290223513
 20
1068.187351292605
 30
0.0
 40
76.99999999999606
100
AcDbArc
 50
61.60585760489749
 51
131.7337284548892
  0
ARC
  5
BD
330
1F
100
AcDbEntity
  8
1
  6
Continuous
 62
     7
100
AcDbCircle
 10
463.6420496922577
 20
877.2992201150822
 30
0.0
 40
368.7760299499057
100
AcDbArc
 50
0.17844379336197
 51
7.67825682717145
  0
ARC
  5
BE
330
1F
100
AcDbEntity
  8
1
  6
Continuous
 62
     7
100
AcDbCircle
 10
463.6420496922577
 20
877.2992201150822
 30
0.0
 40
368.7760299499059
100
AcDbArc
 50
347.8733081397931
 51
0.17844379336197
  0
ARC
  5
BF
330
1F
100
AcDbEntity
  8
1
  6
Continuous
 62
     4
100
AcDbCircle
 10
649.0991609697697
 20
550.9981879952057
 30
0.0
 40
225.0
100
AcDbArc
 50
339.5981472322648
 51
351.4254116141168
  0
ARC
  5
C0
330
1F
100
AcDbEntity
  8
1
  6
Continuous
 62
     4
100
AcDbCircle
 10
1166.653133132792
 20
601.2752140348123
 30
0.0
 40
356.5181005811546
100
AcDbArc
 50
193.5985757711576
 51
201.1374226876255
  0
ARC
  5
C1
330
1F
100
AcDbEntity
  8
1
  6
Continuous
 62
     7
100
AcDbCircle
 10
1525.095103696228
 20
998.5814329494123
 30
0.0
 40
723.0
100
AcDbArc
 50
169.8777221598486
 51
185.7160740776488
  0
ARC
  5
C2
330
1F
100
AcDbEntity
  8
1
  6
Continuous
 62
     7
100
AcDbCircle
 10
-360.2064765652895
 20
998.5814329494123
 30
0.0
 40
722.9999999999999
100
AcDbArc
 50
354.2839259223512
 51
10.1222778401514
  0
ARC
  5
C3
330
1F
100
AcDbEntity
  8
1
  6
Continuous
 62
     4
100
AcDbCircle
 10
-1.76450600185373
 20
601.2752140348123
 30
0.0
 40
356.5181005811545
100
AcDbArc
 50
338.8625773123745
 51
346.4014242288425
  0
ARC
  5
C4
330
1F
100
AcDbEntity
  8
1
  6
Continuous
 62
     4
100
AcDbCircle
 10
515.7894661611684
 20
550.9981879952057
 30
0.0
 40
225.0000000000001
100
AcDbArc
 50
188.5745883858832
 51
200.4018527677353
  0
ARC
  5
C5
330
1F
100
AcDbEntity
  8
1
  6
Continuous
 62
     7
100
AcDbCircle
 10
701.2465774386804
 20
877.2992201150822
 30
0.0
 40
368.7760299499057
100
AcDbArc
 50
179.8215562066381
 51
192.1266918602069
  0
ARC
  5
C6
330
1F
100
AcDbEntity
  8
1
  6
Continuous
 62
     7
100
AcDbCircle
 10
701.2465774386804
 20
877.2992201150822
 30
0.0
 40
368.7760299499057
100
AcDbArc
 50
172.3217431728285
 51
179.8215562066381
  0
ARC
  5
C7
330
1F
100
AcDbEntity
  8
1
  6
Continuous
 62
     7
100
AcDbCircle
 10
300.2833981085869
 20
1068.187351292605
 30
0.0
 40
76.99999999999616
100
AcDbArc
 50
48.26627154511066
 51
118.3941423951025
  0
ARC
  5
C8
330
1F
100
AcDbEntity
  8
1
  6
Continuous
 62
     7
100
AcDbCircle
 10
311.5281084767521
 20
1111.595857249093
 30
0.0
 40
24.32857588792671
100
AcDbArc
 50
4.63849562090703
 51
89.6722877539761
  0
ARC
  5
C9
330
1F
100
AcDbEntity
  8
1
  6
Continuous
 62
     7
100
AcDbCircle
 10
3326.322945593779
 20
972.7396473922106
 30
0.0
 40
3067.0
100
AcDbArc
 50
176.9500509406141
 51
188.5369630259166
  0
ARC
  5
CA
330
1F
100
AcDbEntity
  8
1
  6
Continuous
 62
     7
100
AcDbCircle
 10
104.7001147585283
 20
-1431.495695610274
 30
0.0
 40
2556.0
100
AcDbArc
 50
90.50871569095925
 51
103.3001787931233
  0
ARC
  5
CB
330
1F
100
AcDbEntity
  8
1
  6
Continuous
 62
     7
100
AcDbCircle
 10
-1504.839760463105
 20
829.5890334518792
 30
0.0
 40
1613.999999999999
100
AcDbArc
 50
348.8553774067043
 51
10.52478212582717
  0
ARC
  5
CC
330
1F
100
AcDbEntity
  8
0
  6
Continuous
 62
     7
100
AcDbCircle
 10
79.47717029135131
 20
917.0637701176532
 30
0.0
 40
121.1969163874677
100
AcDbArc
 50
284.040031222612
 51
327.8712269070804
  0
ARC
  5
CD
330
1F
100
AcDbEntity
  8
1
  6
Continuous
 62
     7
100
AcDbCircle
 10
-1094.743609441425
 20
427.171219942329
 30
0.0
 40
1917.0
100
AcDbArc
 50
2.6993154638582
 51
8.62964463752288
  0
ARC
  5
CE
330
1F
100
AcDbEntity
  8
1
  6
Continuous
 62
     7
100
AcDbCircle
 10
2674.056752515449
 20
386.065615994375
 30
0.0
 40
2333.0
100
AcDbArc
 50
171.8994308935041
 51
176.7716090051149
  0
SPLINE
  5
CF
330
1F
100
AcDbEntity
  8
0
  6
Continuous
 62
     7
100
AcDbSpline
210
0.0
220
0.0
230
1.0
 70
     8
 71
     3
 72
    11
 73
     7
 74
     5
 42
0.000000001
 43
0.0000000001
 44
0.00000001
 40
0.0
 40
0.0
 40
0.0
 40
0.0
 40
0.0057584865777454
 40
0.0115169731555631
 40
0.0230340554562494
 40
0.0345511377554986
 40
0.0345511377554986
 40
0.0345511377554986
 40
0.0345511377554986
 10
817.0709536600126
 20
-522.6127770425123
 30
0.0
 10
817.0726710866853
 20
-522.613634310672
 30
0.0
 10
817.0761059465709
 20
-522.6153488338904
 30
0.0
 10
817.0829756742264
 20
-522.6187779459901
 30
0.0
 10
817.0915629271506
 20
-522.6230642101877
 30
0.0
 10
817.098432742034
 20
-522.6264932289974
 30
0.0
 10
817.1018676529847
 20
-522.6282077313722
 30
0.0
 11
817.0709536600126
 21
-522.6127770425123
 31
0.0
 11
817.0761059390214
 21
-522.6153488490145
 31
0.0
 11
817.0812582180289
 21
-522.6179206555187
 31
0.0
 11
817.0915629225657
 21
-522.6230642193733
 31
0.0
 11
817.1018676529847
 21
-522.6282077313722
 31
0.0
  0
SPLINE
  5
D0
330
1F
100
AcDbEntity
  8
0
  6
Continuous
 62
     7
100
AcDbSpline
210
0.0
220
0.0
230
1.0
 70
     8
 71
     3
 72
    11
 73
     7
 74
     5
 42
0.000000001
 43
0.0000000001
 44
0.00000001
 40
0.0
 40
0.0
 40
0.0
 40
0.0
 40
0.0057584865779996
 40
0.0115169731557156
 40
0.0230340554561477
 40
0.0345511377554477
 40
0.0345511377554477
 40
0.0345511377554477
 40
0.0345511377554477
 10
347.8176734709258
 20
-522.6127770425123
 30
0.0
 10
347.815956044253
 20
-522.6136343106721
 30
0.0
 10
347.8125211843676
 20
-522.6153488338903
 30
0.0
 10
347.8056514567118
 20
-522.6187779459904
 30
0.0
 10
347.797064203788
 20
-522.6230642101875
 30
0.0
 10
347.7901943889045
 20
-522.6264932289974
 30
0.0
 10
347.7867594779538
 20
-522.6282077313722
 30
0.0
 11
347.8176734709258
 21
-522.6127770425123
 31
0.0
 11
347.8125211919169
 21
-522.6153488490145
 31
0.0
 11
347.8073689129095
 21
-522.6179206555187
 31
0.0
 11
347.7970642083727
 21
-522.6230642193733
 31
0.0
 11
347.7867594779538
 21
-522.6282077313722
 31
0.0
  0
SPLINE
  5
D1
330
1F
100
AcDbEntity
  8
0
  6
Continuous
 62
     1
100
AcDbSpline
210
0.0
220
0.0
230
1.0
 70
     8
 71
     3
 72
    50
 73
    46
 74
    44
 42
0.000000001
 43
0.0000000001
 44
0.00000001
 40
0.0
 40
0.0
 40
0.0
 40
0.0
 40
3.317301450869659
 40
6.670056847489796
 40
10.0580126565732
 40
13.48111314693694
 40
16.93950739296423
 40
19.80038518552499
 40
22.62917306218536
 40
25.42703093313754
 40
27.53976018116958
 40
29.66912010962546
 40
29.80122381381612
 40
29.93417216943066
 40
29.96738385642575
 40
30.0004334715447
 40
30.03356375543146
 40
30.06669420193561
 40
30.13293438339168
 40
30.19921725523427
 40
30.45673474311382
 40
30.72933482272686
 40
30.8644002502753
 40
30.99440901127986
 40
31.0606535087195
 40
31.12694980237807
 40
31.16008538846792
 40
31.19322113643003
 40
31.22614061695136
 40
31.25949336478342
 40
31.52549382560994
 40
31.7897030873788
 40
32.86105397393759
 40
33.91102630666214
 40
37.31376390637448
 40
40.7137245963402
 40
44.11140770953315
 40
47.50732759007606
 40
50.90201574606193
 40
53.73954921093784
 40
56.57472712718014
 40
59.40789308221322
 40
62.19117286980175
 40
65.02763693780204
 40
67.91665815197246
 40
67.91665815197246
 40
67.91665815197246
 40
67.91665815197246
 10
-566.8349629517292
 20
1238.16183493154
 30
0.0
 10
-567.6853448777016
 20
1238.868704167006
 30
0.0
 10
-569.3951972504811
 20
1240.289997375192
 30
0.0
 10
-571.9143677025406
 20
1242.502885003981
 30
0.0
 10
-574.4129719554633
 20
1244.791257705439
 30
0.0
 10
-576.8830179575491
 20
1247.16171666698
 30
0.0
 10
-579.172953128601
 20
1249.464800230506
 30
0.0
 10
-581.2750485734823
 20
1251.67409095518
 30
0.0
 10
-583.1839615888507
 20
1253.762473106864
 30
0.0
 10
-584.88615617546
 20
1255.701233557033
 30
0.0
 10
-586.4031221249409
 20
1257.491752248285
 30
0.0
 10
-587.3285085442253
 20
1258.618612104672
 30
0.0
 10
-587.8299443821774
 20
1259.239566952298
 30
0.0
 10
-587.8923318933879
 20
1259.316977477347
 30
0.0
 10
-587.9339691318869
 20
1259.368704915208
 30
0.0
 10
-587.9547368386336
 20
1259.394518367425
 30
0.0
 10
-587.975481802996
 20
1259.420315359063
 30
0.0
 10
-588.0031501649578
 20
1259.454741847286
 30
0.0
 10
-588.0377184700739
 20
1259.497800435339
 30
0.0
 10
-588.1190413400982
 20
1259.599240594783
 30
0.0
 10
-588.2431269502401
 20
1259.754560791978
 30
0.0
 10
-588.3810458958237
 20
1259.928174331434
 30
0.0
 10
-588.4922320706198
 20
1260.068741626436
 30
0.0
 10
-588.560627945749
 20
1260.155453271096
 30
0.0
 10
-588.6147584374016
 20
1260.224221225677
 30
0.0
 10
-588.6488870598114
 20
1260.267638837348
 30
0.0
 10
-588.6761776976068
 20
1260.30239379889
 30
0.0
 10
-588.6965902002169
 20
1260.328404022321
 30
0.0
 10
-588.7170415294893
 20
1260.354475791238
 30
0.0
 10
-588.7853789952769
 20
1260.441637871892
 30
0.0
 10
-588.9011239090636
 20
1260.589598546173
 30
0.0
 10
-589.2292393898966
 20
1261.010715988928
 30
0.0
 10
-589.7149128200815
 20
1261.640354702313
 30
0.0
 10
-590.8282231371525
 20
1263.10703790455
 30
0.0
 10
-592.3768527231208
 20
1265.217713558312
 30
0.0
 10
-594.3193697463446
 20
1268.008738161928
 30
0.0
 10
-596.1901546900123
 20
1270.845642563274
 30
0.0
 10
-597.9881662136801
 20
1273.727142102745
 30
0.0
 10
-599.6181680116689
 20
1276.492185968724
 30
0.0
 10
-601.0923471462488
 20
1279.131017100144
 30
0.0
 10
-602.4223869535983
 20
1281.63522510531
 30
0.0
 10
-603.6910804979377
 20
1284.150852271477
 30
0.0
 10
-604.905487502516
 20
1286.69352233785
 30
0.0
 10
-606.0775184690226
 20
1289.276655018788
 30
0.0
 10
-606.8179925681135
 20
1291.035729380866
 30
0.0
 10
-607.1916282053957
 20
1291.923340284636
 30
0.0
 11
-566.8349629517292
 21
1238.16183493154
 31
0.0
 11
-569.3764019930837
 21
1240.293870699191
 31
0.0
 11
-571.8978290907359
 21
1242.503706471662
 31
0.0
 11
-574.3953841053703
 21
1244.792912341364
 31
0.0
 11
-576.8652068976719
 21
1247.163058400708
 31
0.0
 11
-579.3034373283257
 21
1249.615714742106
 31
0.0
 11
-581.2754056399756
 21
1251.688385174801
 31
0.0
 11
-583.1838518382838
 21
1253.77641629528
 31
0.0
 11
-585.0297336481143
 21
1255.878969269882
 31
0.0
 11
-586.395409829053
 21
1257.490972199406
 31
0.0
 11
-587.7467558590241
 21
1259.136583822089
 31
0.0
 11
-587.8297510257032
 21
1259.239361207592
 31
0.0
 11
-587.9131770351277
 21
1259.342876260672
 31
0.0
 11
-587.9340019518675
 21
1259.368747847325
 31
0.0
 11
-587.9547190317393
 21
1259.394498180551
 31
0.0
 11
-587.9754805524683
 21
1259.420316293719
 31
0.0
 11
-587.9962347925192
 21
1259.446140468548
 31
0.0
 11
-588.0377036129569
 21
1259.497794108994
 31
0.0
 11
-588.0791632324976
 21
1259.549509861408
 31
0.0
 11
-588.2398991309761
 21
1259.7507043631
 31
0.0
 11
-588.4094622621145
 21
1259.964150253131
 31
0.0
 11
-588.4932532748717
 21
1260.070082948281
 31
0.0
 11
-588.5737685121393
 21
1260.172159265354
 31
0.0
 11
-588.6147419129215
 21
1260.224212256332
 31
0.0
 11
-588.6557121204592
 21
1260.276333659302
 31
0.0
 11
-588.6761764826964
 21
1260.302394682763
 31
0.0
 11
-588.6966337328103
 21
1260.328461495205
 31
0.0
 11
-588.7169513461135
 21
1260.354362977547
 31
0.0
 11
-588.7375300254811
 21
1260.380610334434
 31
0.0
 11
-588.9014239407403
 21
1260.590121741539
 31
0.0
 11
-589.0638114358602
 21
1260.798536797231
 31
0.0
 11
-589.7181545880255
 21
1261.646845562627
 31
0.0
 11
-590.3529791011196
 21
1262.483170701054
 31
0.0
 11
-592.3658691643972
 21
1265.226689749077
 31
0.0
 11
-594.3080533169563
 21
1268.017326488645
 31
0.0
 11
-596.1785019714534
 21
1270.853815933385
 31
0.0
 11
-597.9761855405454
 21
1273.734893096921
 31
0.0
 11
-599.7000744368887
 21
1276.659292992879
 31
0.0
 11
-601.0839116702316
 21
1279.136507290734
 31
0.0
 11
-602.4138317587842
 21
1281.640413514339
 31
0.0
 11
-603.6893579667243
 21
1284.170208411886
 31
0.0
 11
-604.8896814736469
 21
1286.681357522745
 31
0.0
 11
-606.0584549297431
 21
1289.265829813186
 31
0.0
 11
-607.1916282053957
 21
1291.923340284636
 31
0.0
  0
SPLINE
  5
D2
330
1F
100
AcDbEntity
  8
0
  6
Continuous
 62
     7
100
AcDbSpline
210
0.0
220
0.0
230
1.0
 70
     8
 71
     3
 72
    15
 73
    11
 74
     9
 42
0.000000001
 43
0.0000000001
 44
0.00000001
 40
0.0
 40
0.0
 40
0.0
 40
0.0
 40
23.84583112969651
 40
47.66412051492415
 40
71.43350905797058
 40
95.1697849334573
 40
118.8747967782212
 40
142.5570714693538
 40
166.2225013286032
 40
189.8781566701285
 40
189.8781566701285
 40
189.8781566701285
 40
189.8781566701285
 10
837.2713834409819
 20
1204.953762146864
 30
0.0
 10
834.508521257584
 20
1197.499495139024
 30
0.0
 10
828.9859879883061
 20
1182.59957073723
 30
0.0
 10
821.9244112200321
 20
1159.848144461795
 30
0.0
 10
815.7835301442371
 20
1136.874328292512
 30
0.0
 10
810.6624324837613
 20
1113.688544582208
 30
0.0
 10
806.5390665555643
 20
1090.334133928392
 30
0.0
 10
803.451286954574
 20
1066.846230056908
 30
0.0
 10
801.3089471297753
 20
1043.264357434611
 30
0.0
 10
800.7455367829426
 20
1027.498259445153
 30
0.0
 10
800.4638898051103
 20
1019.616838751767
 30
0.0
 11
837.2713834409819
 21
1204.953762146864
 31
0.0
 11
829.1857024664333
 21
1182.520629832063
 31
0.0
 11
822.0716558257234
 21
1159.789566292231
 31
0.0
 11
815.94936554157
 21
1136.822167802055
 31
0.0
 11
810.8257357506425
 21
1113.645472390013
 31
0.0
 11
806.7098948828527
 21
1090.300506325964
 31
0.0
 11
803.6079229243712
 21
1066.822263109408
 31
0.0
 11
801.5248362465206
 21
1043.248690611015
 31
0.0
 11
800.4638898051103
 21
1019.616838751767
 31
0.0
  0
SPLINE
  5
D3
330
1F
100
AcDbEntity
  8
0
  6
Continuous
 62
     7
100
AcDbSpline
210
0.0
220
0.0
230
1.0
 70
     8
 71
     3
 72
    44
 73
    40
 74
    38
 42
0.000000001
 43
0.0000000001
 44
0.00000001
 40
0.0
 40
0.0
 40
0.0
 40
0.0
 40
1.135417453299699
 40
2.518241952733118
 40
4.144795475408164
 40
6.011399996305379
 40
7.721944422421688
 40
9.588217132438318
 40
11.60771478573009
 40
12.31482682698007
 40
13.12723429272105
 40
13.99680748904452
 40
14.87541672206797
 40
15.99537575417983
 40
17.26761337108283
 40
18.69851831222052
 40
20.050876613979
 40
21.2888520675444
 40
22.37525942497856
 40
23.27291343830388
 40
23.94462885951511
 40
26.73059940517662
 40
29.51656901135649
 40
36.46879819121985
 40
43.4210275107951
 40
45.77888711746149
 40
48.1367348362293
 40
48.23741563205511
 40
48.33809642787933
 40
48.74081961117642
 40
49.14354279447374
 40
49.94898916106678
 40
50.75443552766006
 40
52.36532826084728
 40
53.97622099403497
 40
57.1980064604092
 40
60.41979192678388
 40
66.86336285953345
 40
73.30693379228255
 40
73.30693379228255
 40
73.30693379228255
 40
73.30693379228255
 10
863.7773031435636
 20
1412.001162995219
 30
0.0
 10
863.776067106854
 20
1411.62269252894
 30
0.0
 10
863.7733257171544
 20
1410.783283020708
 30
0.0
 10
863.7686708988416
 20
1409.401692368398
 30
0.0
 10
863.7631287218273
 20
1407.776374303236
 30
0.0
 10
863.757143831187
 20
1406.041817137864
 30
0.0
 10
863.7508363942534
 20
1404.227354215041
 30
0.0
 10
863.744313366707
 20
1402.361927356601
 30
0.0
 10
863.7389335554886
 20
1400.830976007398
 30
0.0
 10
863.7347764889139
 20
1399.651310945235
 30
0.0
 10
863.7319662602009
 20
1398.854951669209
 30
0.0
 10
863.7289495187408
 20
1398.00142703542
 30
0.0
 10
863.7255632367179
 20
1397.045385878648
 30
0.0
 10
863.7216903512875
 20
1395.955124129994
 30
0.0
 10
863.7171516265182
 20
1394.680765015736
 30
0.0
 10
863.7123241555465
 20
1393.32894001539
 30
0.0
 10
863.7075261748605
 20
1391.988535703721
 30
0.0
 10
863.7031306860399
 20
1390.76296321493
 30
0.0
 10
863.6992725957202
 20
1389.688957869731
 30
0.0
 10
863.696088577637
 20
1388.803704665083
 30
0.0
 10
863.6908616292674
 20
1387.351934081192
 30
0.0
 10
863.6833670642848
 20
1385.270729051025
 30
0.0
 10
863.6683348733529
 20
1381.096033004227
 30
0.0
 10
863.6483016736175
 20
1375.532593037334
 30
0.0
 10
863.6287824966303
 20
1370.111855477845
 30
0.0
 10
863.6147777839617
 20
1366.222568477147
 30
0.0
 10
863.6089968049473
 20
1364.61711617822
 30
0.0
 10
863.6059250575461
 20
1363.764051938498
 30
0.0
 10
863.6051999914678
 20
1363.562691652268
 30
0.0
 10
863.6041123923555
 20
1363.260651222924
 30
0.0
 10
863.602178882819
 20
1362.723690459646
 30
0.0
 10
863.5997619958994
 20
1362.052489505548
 30
0.0
 10
863.5958949768269
 20
1360.978567978992
 30
0.0
 10
863.5910612029902
 20
1359.636166070796
 30
0.0
 10
863.5833271648289
 20
1357.488323017683
 30
0.0
 10
863.5736596172765
 20
1354.803519201291
 30
0.0
 10
863.5581915402827
 20
1350.507833095068
 30
0.0
 10
863.5388564502723
 20
1345.138225462266
 30
0.0
 10
863.5233883592518
 20
1340.842539356092
 30
0.0
 10
863.5156543211222
 20
1338.694696302979
 30
0.0
 11
863.7773031435636
 21
1412.001162995219
 31
0.0
 11
863.7735774071413
 21
1410.865751654713
 31
0.0
 11
863.768935982444
 21
1409.482934944731
 31
0.0
 11
863.7633913403567
 21
1407.85639087245
 31
0.0
 11
863.7569559517649
 21
1405.989797445052
 31
0.0
 11
863.7510112133841
 21
1404.279263348986
 31
0.0
 11
863.7444868068275
 21
1402.413002043523
 31
0.0
 11
863.7373913609922
 21
1400.39351685509
 31
0.0
 11
863.734899624747
 21
1399.68640920407
 31
0.0
 11
863.7320327595143
 21
1398.874006796715
 31
0.0
 11
863.7289590685477
 21
1398.004439032715
 31
0.0
 11
863.725846855101
 21
1397.125835311757
 31
0.0
 11
863.7218690216697
 21
1396.005883343836
 31
0.0
 11
863.7173380872198
 21
1394.733653795171
 31
0.0
 11
863.7122285813789
 21
1393.302757976629
 31
0.0
 11
863.7073880462194
 21
1391.950408337832
 31
0.0
 11
863.7029482112006
 21
1390.712440845732
 31
0.0
 11
863.6990456814647
 21
1389.626040497542
 31
0.0
 11
863.6958170621539
 21
1388.728392290472
 31
0.0
 11
863.69339895841
 21
1388.056681221732
 31
0.0
 11
863.6833671845918
 21
1385.270728737427
 31
0.0
 11
863.6733354143562
 21
1382.484777192596
 31
0.0
 11
863.6483017002414
 21
1375.532593083807
 31
0.0
 11
863.6232679855937
 21
1368.580408835307
 31
0.0
 11
863.6147777604242
 21
1366.222564514571
 31
0.0
 11
863.6062875805837
 21
1363.864732081648
 31
0.0
 11
863.6059250475455
 21
1363.764051938532
 31
0.0
 11
863.6055625145073
 21
1363.663371795417
 31
0.0
 11
863.6041123823552
 21
1363.260651222958
 31
0.0
 11
863.6026622502031
 21
1362.857930650499
 31
0.0
 11
863.5997619858994
 21
1362.052489505582
 31
0.0
 11
863.5968617215954
 21
1361.247048360665
 31
0.0
 11
863.5910611929875
 21
1359.63616607083
 31
0.0
 11
863.5852606643793
 21
1358.025283780995
 31
0.0
 11
863.5736596071629
 21
1354.803519201326
 31
0.0
 11
863.5620585499466
 21
1351.581754621656
 31
0.0
 11
863.5388564355193
 21
1345.138225462317
 31
0.0
 11
863.5156543211222
 21
1338.694696302979
 31
0.0
  0
SPLINE
  5
D4
330
1F
100
AcDbEntity
  8
0
  6
Continuous
 62
     7
100
AcDbSpline
210
0.0
220
0.0
230
1.0
 70
     8
 71
     3
 72
    25
 73
    21
 74
    19
 42
0.000000001
 43
0.0000000001
 44
0.00000001
 40
0.0
 40
0.0
 40
0.0
 40
0.0
 40
14.24288774784947
 40
28.56723950866294
 40
43.13836111719496
 40
57.79609862944517
 40
72.66317970959504
 40
87.67068941143654
 40
95.23779391479071
 40
102.8330327184764
 40
106.6238703046494
 40
110.4671432403623
 40
112.3743726232122
 40
114.2970489697352
 40
115.2558719084616
 40
116.2151644203706
 40
116.6954776894199
 40
117.1750066750286
 40
117.7711876669273
 40
118.1353414265321
 40
118.1353414265321
 40
118.1353414265321
 40
118.1353414265321
 10
862.8921799094508
 20
1319.811648106803
 30
0.0
 10
862.5476393016573
 20
1315.075883746573
 30
0.0
 10
861.8565874275083
 20
1305.577268219062
 30
0.0
 10
860.078924189643
 20
1291.302218194677
 30
0.0
 10
857.7586792746714
 20
1276.968225355475
 30
0.0
 10
854.8353488684202
 20
1262.559147993637
 30
0.0
 10
851.3326765516568
 20
1248.13074608779
 30
0.0
 10
847.932742595525
 20
1236.118896645732
 30
0.0
 10
844.9270172405829
 20
1226.521499352525
 30
0.0
 10
842.9283351689096
 20
1220.527830257368
 30
0.0
 10
841.2570052701662
 20
1215.734342998526
 30
0.0
 10
840.1826830722948
 20
1212.740783594068
 30
0.0
 10
839.3023841004842
 20
1210.339311168392
 30
0.0
 10
838.7462436814924
 20
1208.84307609629
 30
0.0
 10
838.2961353558422
 20
1207.644543532697
 30
0.0
 10
838.0133751090011
 20
1206.896739992575
 30
0.0
 10
837.7861160297482
 20
1206.298756399186
 30
0.0
 10
837.6013004970132
 20
1205.81412617538
 30
0.0
 10
837.4297601001342
 20
1205.365873448293
 30
0.0
 10
837.314927391291
 20
1205.067067680441
 30
0.0
 10
837.2713834409819
 20
1204.953762146864
 30
0.0
 11
862.8921799094508
 21
1319.811648106803
 31
0.0
 11
861.7377106168697
 21
1305.615625704299
 31
0.0
 11
860.0034167498329
 21
1291.396649715925
 31
0.0
 11
857.6687096406346
 21
1277.013787425941
 31
0.0
 11
854.7592860238402
 21
1262.647698076233
 31
0.0
 11
851.2538178973166
 21
1248.199798814897
 31
0.0
 11
847.1691050786981
 21
1233.758868489966
 31
0.0
 11
844.9078148329945
 21
1226.537536411223
 31
0.0
 11
842.505410025339
 21
1219.3322533753
 31
0.0
 11
841.2573900805972
 21
1215.752742818957
 31
0.0
 11
839.9592262934723
 21
1212.135351819748
 31
0.0
 11
839.3028159972736
 21
1210.344639826667
 31
0.0
 11
838.6329512246648
 21
1208.542428540397
 31
0.0
 11
838.2958537346626
 21
1207.64481687034
 31
0.0
 11
837.9565717150515
 21
1206.747526596907
 31
0.0
 11
837.7859374067434
 21
1206.298544671516
 31
0.0
 11
837.6150783227051
 21
1205.85048750827
 31
0.0
 11
837.4019546472314
 21
1205.293702025109
 31
0.0
 11
837.2713834409819
 21
1204.953762146864
 31
0.0
  0
SPLINE
  5
D5
330
1F
100
AcDbEntity
  8
0
  6
Continuous
 62
     7
100
AcDbSpline
210
0.0
220
0.0
230
1.0
 70
     8
 71
     3
 72
    25
 73
    21
 74
    19
 42
0.000000001
 43
0.0000000001
 44
0.00000001
 40
0.0
 40
0.0
 40
0.0
 40
0.0
 40
14.24288774784947
 40
28.56723950866294
 40
43.13836111719493
 40
57.79609862944518
 40
72.66317970959497
 40
87.67068941143656
 40
95.23779391479076
 40
102.8330327184764
 40
106.6238703046493
 40
110.4671432403623
 40
112.3743726232122
 40
114.2970489697352
 40
115.2558719084616
 40
116.2151644203706
 40
116.6954776894198
 40
117.1750066750286
 40
117.7711876669274
 40
118.1353414265321
 40
118.1353414265321
 40
118.1353414265321
 40
118.1353414265321
 10
301.9964472214876
 20
1319.811648106803
 30
0.0
 10
302.3409878292809
 20
1315.075883746574
 30
0.0
 10
303.0320397034299
 20
1305.577268219062
 30
0.0
 10
304.8097029412954
 20
1291.302218194677
 30
0.0
 10
307.1299478562667
 20
1276.968225355475
 30
0.0
 10
310.0532782625185
 20
1262.559147993637
 30
0.0
 10
313.5559505792809
 20
1248.13074608779
 30
0.0
 10
316.9558845354135
 20
1236.118896645731
 30
0.0
 10
319.9616098903555
 20
1226.521499352526
 30
0.0
 10
321.960291962029
 20
1220.527830257368
 30
0.0
 10
323.6316218607718
 20
1215.734342998525
 30
0.0
 10
324.7059440586437
 20
1212.740783594068
 30
0.0
 10
325.586243030454
 20
1210.339311168392
 30
0.0
 10
326.1423834494461
 20
1208.84307609629
 30
0.0
 10
326.592491775096
 20
1207.644543532697
 30
0.0
 10
326.8752520219377
 20
1206.896739992574
 30
0.0
 10
327.1025111011897
 20
1206.298756399186
 30
0.0
 10
327.2873266339255
 20
1205.81412617538
 30
0.0
 10
327.4588670308041
 20
1205.365873448293
 30
0.0
 10
327.5736997396475
 20
1205.067067680441
 30
0.0
 10
327.6172436899565
 20
1204.953762146864
 30
0.0
 11
301.9964472214876
 21
1319.811648106803
 31
0.0
 11
303.1509165140687
 21
1305.615625704299
 31
0.0
 11
304.8852103811055
 21
1291.396649715925
 31
0.0
 11
307.2199174903036
 21
1277.013787425941
 31
0.0
 11
310.1293411070981
 21
1262.647698076233
 31
0.0
 11
313.6348092336214
 21
1248.199798814897
 31
0.0
 11
317.7195220522403
 21
1233.758868489966
 31
0.0
 11
319.980812297944
 21
1226.537536411223
 31
0.0
 11
322.3832171055994
 21
1219.3322533753
 31
0.0
 11
323.6312370503409
 21
1215.752742818957
 31
0.0
 11
324.9294008374661
 21
1212.135351819748
 31
0.0
 11
325.5858111336648
 21
1210.344639826667
 31
0.0
 11
326.2556759062736
 21
1208.542428540397
 31
0.0
 11
326.5927733962758
 21
1207.64481687034
 31
0.0
 11
326.9320554158869
 21
1206.747526596907
 31
0.0
 11
327.1026897241949
 21
1206.298544671516
 31
0.0
 11
327.2735488082333
 21
1205.85048750827
 31
0.0
 11
327.4866724837071
 21
1205.293702025109
 31
0.0
 11
327.6172436899565
 21
1204.953762146864
 31
0.0
  0
SPLINE
  5
D6
330
1F
100
AcDbEntity
  8
0
  6
Continuous
 62
     7
100
AcDbSpline
210
0.0
220
0.0
230
1.0
 70
     8
 71
     3
 72
    44
 73
    40
 74
    38
 42
0.000000001
 43
0.0000000001
 44
0.00000001
 40
0.0
 40
0.0
 40
0.0
 40
0.0
 40
1.135417453299699
 40
2.518241952733119
 40
4.144795475408165
 40
6.011399996305379
 40
7.721944422421688
 40
9.588217132438318
 40
11.6077147857301
 40
12.31482682698008
 40
13.12723429272105
 40
13.99680748904453
 40
14.87541672206797
 40
15.99537575417983
 40
17.26761337108283
 40
18.69851831222052
 40
20.050876613979
 40
21.2888520675444
 40
22.37525942497857
 40
23.27291343830389
 40
23.94462885951511
 40
26.73059940517662
 40
29.51656901135649
 40
36.46879819121985
 40
43.4210275107951
 40
45.77888711746149
 40
48.1367348362293
 40
48.23741563205511
 40
48.33809642787933
 40
48.74081961117642
 40
49.14354279447374
 40
49.94898916106678
 40
50.75443552766006
 40
52.36532826084728
 40
53.97622099403497
 40
57.1980064604092
 40
60.41979192678388
 40
66.86336285953345
 40
73.30693379228255
 40
73.30693379228255
 40
73.30693379228255
 40
73.30693379228255
 10
301.1113239873748
 20
1412.001162995219
 30
0.0
 10
301.1125600240844
 20
1411.62269252894
 30
0.0
 10
301.1153014137842
 20
1410.783283020709
 30
0.0
 10
301.1199562320971
 20
1409.401692368398
 30
0.0
 10
301.1254984091112
 20
1407.776374303236
 30
0.0
 10
301.1314832997512
 20
1406.041817137864
 30
0.0
 10
301.1377907366851
 20
1404.227354215042
 30
0.0
 10
301.1443137642311
 20
1402.3619273566
 30
0.0
 10
301.1496935754495
 20
1400.8309760074
 30
0.0
 10
301.1538506420243
 20
1399.651310945235
 30
0.0
 10
301.1566608707375
 20
1398.854951669209
 30
0.0
 10
301.1596776121972
 20
1398.001427035421
 30
0.0
 10
301.1630638942207
 20
1397.045385878648
 30
0.0
 10
301.1669367796508
 20
1395.955124129994
 30
0.0
 10
301.17147550442
 20
1394.680765015736
 30
0.0
 10
301.176302975392
 20
1393.32894001539
 30
0.0
 10
301.1811009560779
 20
1391.988535703721
 30
0.0
 10
301.185496444898
 20
1390.76296321493
 30
0.0
 10
301.1893545352182
 20
1389.688957869732
 30
0.0
 10
301.1925385533016
 20
1388.803704665082
 30
0.0
 10
301.1977655016706
 20
1387.351934081192
 30
0.0
 10
301.2052600666542
 20
1385.270729051025
 30
0.0
 10
301.220292257585
 20
1381.096033004227
 30
0.0
 10
301.240325457321
 20
1375.532593037334
 30
0.0
 10
301.2598446343083
 20
1370.111855477845
 30
0.0
 10
301.2738493469766
 20
1366.222568477147
 30
0.0
 10
301.2796303259915
 20
1364.61711617822
 30
0.0
 10
301.2827020733924
 20
1363.764051938498
 30
0.0
 10
301.2834271394702
 20
1363.562691652268
 30
0.0
 10
301.2845147385829
 20
1363.260651222924
 30
0.0
 10
301.2864482481198
 20
1362.723690459646
 30
0.0
 10
301.2888651350387
 20
1362.052489505548
 30
0.0
 10
301.2927321541115
 20
1360.978567978992
 30
0.0
 10
301.2975659279483
 20
1359.636166070796
 30
0.0
 10
301.3052999661094
 20
1357.488323017683
 30
0.0
 10
301.3149675136617
 20
1354.803519201291
 30
0.0
 10
301.330435590656
 20
1350.507833095068
 30
0.0
 10
301.3497706806656
 20
1345.138225462266
 30
0.0
 10
301.3652387716863
 20
1340.842539356092
 30
0.0
 10
301.3729728098163
 20
1338.694696302979
 30
0.0
 11
301.1113239873748
 21
1412.001162995219
 31
0.0
 11
301.1150497237971
 21
1410.865751654713
 31
0.0
 11
301.1196911484946
 21
1409.482934944731
 31
0.0
 11
301.1252357905818
 21
1407.85639087245
 31
0.0
 11
301.1316711791735
 21
1405.989797445052
 31
0.0
 11
301.1376159175543
 21
1404.279263348986
 31
0.0
 11
301.1441403241107
 21
1402.413002043523
 31
0.0
 11
301.1512357699462
 21
1400.39351685509
 31
0.0
 11
301.1537275061914
 21
1399.68640920407
 31
0.0
 11
301.1565943714241
 21
1398.874006796715
 31
0.0
 11
301.1596680623907
 21
1398.004439032715
 31
0.0
 11
301.1627802758374
 21
1397.125835311757
 31
0.0
 11
301.1667581092687
 21
1396.005883343836
 31
0.0
 11
301.1712890437186
 21
1394.733653795171
 31
0.0
 11
301.1763985495595
 21
1393.302757976629
 31
0.0
 11
301.181239084719
 21
1391.950408337832
 31
0.0
 11
301.1856789197378
 21
1390.712440845732
 31
0.0
 11
301.1895814494737
 21
1389.626040497542
 31
0.0
 11
301.1928100687847
 21
1388.728392290472
 31
0.0
 11
301.1952281725285
 21
1388.056681221732
 31
0.0
 11
301.2052599463466
 21
1385.270728737427
 31
0.0
 11
301.2152917165822
 21
1382.484777192596
 31
0.0
 11
301.2403254306971
 21
1375.532593083807
 31
0.0
 11
301.2653591453448
 21
1368.580408835307
 31
0.0
 11
301.2738493705143
 21
1366.222564514571
 31
0.0
 11
301.2823395503547
 21
1363.864732081648
 31
0.0
 11
301.282702083393
 21
1363.764051938532
 31
0.0
 11
301.2830646164312
 21
1363.663371795417
 31
0.0
 11
301.2845147485832
 21
1363.260651222958
 31
0.0
 11
301.2859648807353
 21
1362.857930650499
 31
0.0
 11
301.288865145039
 21
1362.052489505582
 31
0.0
 11
301.291765409343
 21
1361.247048360665
 31
0.0
 11
301.2975659379509
 21
1359.63616607083
 31
0.0
 11
301.3033664665591
 21
1358.025283780995
 31
0.0
 11
301.3149675237755
 21
1354.803519201326
 31
0.0
 11
301.3265685809918
 21
1351.581754621656
 31
0.0
 11
301.3497706954188
 21
1345.138225462317
 31
0.0
 11
301.3729728098163
 21
1338.694696302979
 31
0.0
  0
SPLINE
  5
D7
330
1F
100
AcDbEntity
  8
0
  6
Continuous
 62
     7
100
AcDbSpline
210
0.0
220
0.0
230
1.0
 70
     8
 71
     3
 72
    15
 73
    11
 74
     9
 42
0.000000001
 43
0.0000000001
 44
0.00000001
 40
0.0
 40
0.0
 40
0.0
 40
0.0
 40
23.84583112969647
 40
47.66412051492413
 40
71.43350905797058
 40
95.1697849334573
 40
118.8747967782212
 40
142.5570714693538
 40
166.2225013286032
 40
189.8781566701285
 40
189.8781566701285
 40
189.8781566701285
 40
189.8781566701285
 10
327.6172436899565
 20
1204.953762146864
 30
0.0
 10
330.3801058733545
 20
1197.499495139024
 30
0.0
 10
335.9026391426324
 20
1182.59957073723
 30
0.0
 10
342.9642159109061
 20
1159.848144461795
 30
0.0
 10
349.1050969867018
 20
1136.874328292512
 30
0.0
 10
354.2261946471767
 20
1113.688544582208
 30
0.0
 10
358.3495605753747
 20
1090.334133928393
 30
0.0
 10
361.4373401763639
 20
1066.846230056908
 30
0.0
 10
363.5796800011636
 20
1043.264357434611
 30
0.0
 10
364.1430903479956
 20
1027.498259445153
 30
0.0
 10
364.4247373258281
 20
1019.616838751767
 30
0.0
 11
327.6172436899565
 21
1204.953762146864
 31
0.0
 11
335.702924664505
 21
1182.520629832063
 31
0.0
 11
342.816971305215
 21
1159.789566292231
 31
0.0
 11
348.9392615893685
 21
1136.822167802055
 31
0.0
 11
354.062891380296
 21
1113.645472390013
 31
0.0
 11
358.1787322480858
 21
1090.300506325964
 31
0.0
 11
361.2807042065671
 21
1066.822263109408
 31
0.0
 11
363.3637908844177
 21
1043.248690611015
 31
0.0
 11
364.4247373258281
 21
1019.616838751767
 31
0.0
  0
SPLINE
  5
D8
330
1F
100
AcDbEntity
  8
0
  6
Continuous
 62
     7
100
AcDbSpline
210
0.0
220
0.0
230
1.0
 70
     8
 71
     3
 72
    11
 73
     7
 74
     5
 42
0.000000001
 43
0.0000000001
 44
0.00000001
 40
0.0
 40
0.0
 40
0.0
 40
0.0
 40
1.674213552964526
 40
2.822638732746813
 40
4.099469162200823
 40
5.229514275776723
 40
5.229514275776723
 40
5.229514275776723
 40
5.229514275776723
 10
-104.1599259840446
 20
517.5299479591501
 30
0.0
 10
-103.601854659383
 20
517.5298279716941
 30
0.0
 10
-102.6609748452047
 20
517.5296256653002
 30
0.0
 10
-101.2944876551459
 20
517.5268547168567
 30
0.0
 10
-100.1093921969962
 20
517.5231507865278
 30
0.0
 10
-99.30711298997163
 20
517.5185971703512
 30
0.0
 10
-98.93043722035992
 20
517.5164592080312
 30
0.0
 11
-104.1599259840446
 21
517.5299479591501
 31
0.0
 11
-102.4857127063311
 21
517.5289879408525
 31
0.0
 11
-101.3372897216178
 21
517.5267425520284
 31
0.0
 11
-100.0604666019549
 21
517.5224220498642
 31
0.0
 11
-98.93043722035992
 21
517.5164592080312
 31
0.0
  0
SPLINE
  5
D9
330
1F
100
AcDbEntity
  8
0
  6
Continuous
 62
     7
100
AcDbSpline
210
0.0
220
0.0
230
1.0
 70
     8
 71
     3
 72
    11
 73
     7
 74
     5
 42
0.000000001
 43
0.0000000001
 44
0.00000001
 40
0.0
 40
0.0
 40
0.0
 40
0.0
 40
37.64820343020315
 40
75.29617676177253
 40
113.009744778315
 40
150.722896891914
 40
150.722896891914
 40
150.722896891914
 40
150.722896891914
 10
-483.3147756354881
 20
1055.947668302744
 30
0.0
 10
-480.0640570328682
 20
1043.825241651463
 30
0.0
 10
-473.5626397099194
 20
1019.580462435113
 30
0.0
 10
-465.3689511898908
 20
982.8031984011398
 30
0.0
 10
-458.2246639159889
 20
945.785653794527
 30
0.0
 10
-454.521892791888
 20
920.9149022380789
 30
0.0
 10
-452.6705174457837
 20
908.4795950273437
 30
0.0
 11
-483.3147756354881
 21
1055.947668302744
 31
0.0
 11
-473.8231522609657
 21
1019.515590304773
 31
0.0
 11
-465.5490362018025
 21
982.7880951623104
 31
0.0
 11
-458.4903508677253
 21
945.7409876649833
 31
0.0
 11
-452.6705174457837
 21
908.4795950273437
 31
0.0
  0
SPLINE
  5
DA
330
1F
100
AcDbEntity
  8
0
  6
Continuous
 62
     7
100
AcDbSpline
210
0.0
220
0.0
230
1.0
 70
     8
 71
     3
 72
    11
 73
     7
 74
     5
 42
0.000000001
 43
0.0000000001
 44
0.00000001
 40
0.0
 40
0.0
 40
0.0
 40
0.0
 40
105.9704568667221
 40
211.9402795205484
 40
318.051584211118
 40
424.1621762901131
 40
424.1621762901131
 40
424.1621762901131
 40
424.1621762901131
 10
-452.6705160480052
 20
908.4795843944127
 30
0.0
 10
-448.4624309999946
 20
873.407074397326
 30
0.0
 10
-440.046286103455
 20
803.26226430368
 30
0.0
 10
-429.1879885257426
 20
697.7986387913627
 30
0.0
 10
-419.5092471029629
 20
592.1733031438906
 30
0.0
 10
-414.2410969237091
 20
521.6279586006624
 30
0.0
 10
-411.6070306864165
 20
486.355404769183
 30
0.0
 11
-452.6705160480052
 21
908.4795843944127
 31
0.0
 11
-440.3413858660525
 21
803.2287873546202
 31
0.0
 11
-429.3899021237431
 21
697.8263760105071
 31
0.0
 11
-419.8060288950574
 21
592.148760797541
 31
0.0
 11
-411.6070306864165
 21
486.355404769183
 31
0.0
  0
SPLINE
  5
DB
330
1F
100
AcDbEntity
  8
0
  6
Continuous
 62
     1
100
AcDbSpline
210
0.0
220
0.0
230
1.0
 70
     8
 71
     3
 72
    39
 73
    35
 74
    33
 42
0.000000001
 43
0.0000000001
 44
0.00000001
 40
0.0
 40
0.0
 40
0.0
 40
0.0
 40
6.915444775984346
 40
13.83088591034491
 40
20.75648678392039
 40
27.66153324854064
 40
34.90360781373266
 40
41.4923514857886
 40
43.23077683618903
 40
44.95048005236144
 40
45.85715477840434
 40
46.67944897472597
 40
47.53694968410205
 40
48.4084234553599
 40
51.8681619631897
 40
55.32418420190086
 40
55.72474598775013
 40
56.18866176256629
 40
56.62090023586082
 40
57.05314033648386
 40
57.91032109932447
 40
58.78212627679102
 40
60.51071487068079
 40
62.24010238820126
 40
65.6976167289842
 40
69.1558928705985
 40
75.74837217447632
 40
82.98616615112198
 40
86.44417529503545
 40
89.90195690297404
 40
93.29867202355037
 40
96.81770702179725
 40
104.0639767620448
 40
110.6502943221666
 40
110.6502943221666
 40
110.6502943221666
 40
110.6502943221666
 10
-607.1916282053957
 20
1291.923340284636
 30
0.0
 10
-608.0391749774989
 20
1294.067633792774
 30
0.0
 10
-609.7342680617279
 20
1298.356219685101
 30
0.0
 10
-611.8297231656995
 20
1304.955535052624
 30
0.0
 10
-613.5875440794588
 20
1311.646502480247
 30
0.0
 10
-614.9940066749103
 20
1318.532299239296
 30
0.0
 10
-616.0009707057543
 20
1325.374164192456
 30
0.0
 10
-616.4762120264154
 20
1330.544722398173
 30
0.0
 10
-616.6734574526168
 20
1333.887917026123
 30
0.0
 10
-616.7393944610429
 20
1335.341411033708
 30
0.0
 10
-616.7796245945468
 20
1336.490271732317
 30
0.0
 10
-616.8039578163604
 20
1337.352090883198
 30
0.0
 10
-616.8223629748184
 20
1338.20232176252
 30
0.0
 10
-616.8480775025857
 20
1339.931708713444
 30
0.0
 10
-616.8426093749636
 20
1342.527794320631
 30
0.0
 10
-616.7713718505679
 20
1344.965861850904
 30
0.0
 10
-616.7075563586204
 20
1346.404613277735
 30
0.0
 10
-616.6869429475757
 20
1346.836361386464
 30
0.0
 10
-616.6642629341402
 20
1347.278579120389
 30
0.0
 10
-616.6329044113211
 20
1347.851609078253
 30
0.0
 10
-616.5898671489792
 20
1348.570737457089
 30
0.0
 10
-616.5131389212513
 20
1349.720712403248
 30
0.0
 10
-616.402226508095
 20
1351.159756922291
 30
0.0
 10
-616.1936216595343
 20
1353.45551781582
 30
0.0
 10
-615.8739042598743
 20
1356.31986355735
 30
0.0
 10
-615.2519766685525
 20
1360.779941474678
 30
0.0
 10
-614.2290985446009
 20
1366.454050489582
 30
0.0
 10
-612.8968589377527
 20
1372.064244450893
 30
0.0
 10
-611.6133306469072
 20
1376.60465601876
 30
0.0
 10
-610.5877075919024
 20
1379.886033659727
 30
0.0
 10
-609.4673389320742
 20
1383.157876366242
 30
0.0
 10
-607.8132195096945
 20
1387.57944784832
 30
0.0
 10
-605.5764620999413
 20
1392.918891992409
 30
0.0
 10
-603.5048502621936
 20
1397.039266970882
 30
0.0
 10
-602.5184625952592
 20
1399.001162995219
 30
0.0
 11
-607.1916282053957
 21
1291.923340284636
 31
0.0
 11
-609.6595668103341
 21
1298.383421979034
 31
0.0
 11
-611.7726406430137
 21
1304.968119775378
 31
0.0
 11
-613.526907877464
 21
1311.667858123848
 31
0.0
 11
-614.9102346424037
 21
1318.432920854301
 31
0.0
 11
-615.9642991991425
 21
1325.597876675883
 31
0.0
 11
-616.5674831068308
 21
1332.15895222454
 31
0.0
 11
-616.6698696734568
 21
1333.89435986837
 31
0.0
 11
-616.7478016958479
 21
1335.61229634914
 31
0.0
 11
-616.7795355776439
 21
1336.518415557463
 31
0.0
 11
-616.8027435492512
 21
1337.340382184182
 31
0.0
 11
-616.8213017760256
 21
1338.197682049392
 31
0.0
 11
-616.8342583146346
 21
1339.069059500437
 31
0.0
 11
-616.8269696958007
 21
1342.528790331016
 31
0.0
 11
-616.7260320819004
 21
1345.983338248476
 31
0.0
 11
-616.7082831000705
 21
1346.383506610477
 31
0.0
 11
-616.6861568200557
 21
1346.846894432805
 31
0.0
 11
-616.6640164075405
 21
1347.278565488068
 31
0.0
 11
-616.6403981339871
 21
1347.710159836692
 31
0.0
 11
-616.5891903140418
 21
1348.565809659604
 31
0.0
 11
-616.5311510977112
 21
1349.435680751731
 31
0.0
 11
-616.3983164789365
 21
1351.159157903116
 31
0.0
 11
-616.2418195130075
 21
1352.881449947393
 31
0.0
 11
-615.8582744940339
 21
1356.317624948268
 31
0.0
 11
-615.3806597063152
 21
1359.742761148149
 31
0.0
 11
-614.2110440709235
 21
1366.230656233874
 31
0.0
 11
-612.5388531882617
 21
1373.272633179872
 31
0.0
 11
-611.598148641151
 21
1376.60023024025
 31
0.0
 11
-610.5667234895044
 21
1379.900596251262
 31
0.0
 11
-609.4658735166471
 21
1383.113974994817
 31
0.0
 11
-608.2346312096887
 21
1386.410586846798
 31
0.0
 11
-605.4122219643338
 21
1393.084598474827
 31
0.0
 11
-602.5184625952592
 21
1399.001162995219
 31
0.0
  0
SPLINE
  5
DC
330
1F
100
AcDbEntity
  8
0
  6
Continuous
 62
     7
100
AcDbSpline
210
0.0
220
0.0
230
1.0
 70
     8
 71
     3
 72
   259
 73
   255
 74
   253
 42
0.000000001
 43
0.0000000001
 44
0.00000001
 40
0.0
 40
0.0
 40
0.0
 40
0.0
 40
0.1349993118989763
 40
0.2724325243822069
 40
0.6503123509507923
 40
1.075738480652421
 40
1.380616286167736
 40
1.735353828654527
 40
1.983525790993142
 40
2.266719279823568
 40
2.59053553950996
 40
2.96057574610958
 40
3.382441024139801
 40
3.755342021522614
 40
4.176451457064796
 40
4.651192501102853
 40
5.184988320162805
 40
5.783262077885837
 40
6.358854715215165
 40
6.999545221282256
 40
7.711095751048806
 40
8.499268459073582
 40
9.171579580444433
 40
9.903890252831639
 40
10.70049765546852
 40
11.56569896754227
 40
12.50379136820156
 40
13.51907203656313
 40
14.28098116846635
 40
15.09123176257503
 40
15.9524475378591
 40
16.86725221328502
 40
17.83826950781667
 40
18.86812314041672
 40
19.95943683004511
 40
21.11483429566042
 40
22.33693925621995
 40
23.62837543067972
 40
24.99176653799469
 40
26.07056727800997
 40
27.20032678682845
 40
28.38302866439741
 40
29.62065651066472
 40
30.91519392557732
 40
32.2686245090826
 40
33.68293186112777
 40
35.16009958165974
 40
36.70211127062539
 40
38.31095052797175
 40
39.98860095364529
 40
41.73704614759284
 40
43.55826970976115
 40
45.45425524009678
 40
47.4269863385461
 40
49.47844660505569
 40
51.61061963957238
 40
53.82548904204189
 40
56.12503841241099
 40
58.03561841664479
 40
59.98334411454272
 40
61.96304166798684
 40
63.96953723885765
 40
65.99765698903705
 40
68.04222708040616
 40
70.09807367484638
 40
72.16002293423891
 40
74.22290102046505
 40
76.28153409540596
 40
78.33074832094344
 40
80.36536985895818
 40
82.38022487133154
 40
84.37013951994523
 40
86.3299399666806
 40
88.25445237341825
 40
90.13850290204059
 40
91.97691771442787
 40
93.76452297246196
 40
95.49614483802459
 40
97.16660947299667
 40
98.77074303925968
 40
100.3033716986955
 40
101.7593216131853
 40
125.1173298444566
 40
148.4755290172016
 40
151.2782364769981
 40
154.0016160865963
 40
156.6490650989048
 40
159.2239807670684
 40
161.7297603435835
 40
164.1698010802695
 40
166.5475002291224
 40
168.8662550424654
 40
171.1294627727603
 40
173.3405206724974
 40
175.5028259941641
 40
177.6197759902398
 40
179.6947679131956
 40
181.7311990154972
 40
183.7324665496062
 40
185.7019677679811
 40
187.6430999230798
 40
189.5592602673568
 40
191.4538460532667
 40
193.330254533263
 40
195.1918829597991
 40
206.87098818346
 40
218.5500893836632
 40
224.3922626358668
 40
230.2344349011205
 40
233.1576950744503
 40
236.0809549273059
 40
236.4464567775887
 40
236.8119586775829
 40
236.9812999115439
 40
237.0973312528912
 40
237.1774663288412
 40
237.3601665533376
 40
237.5428609507255
 40
237.962468589294
 40
238.451643358162
 40
239.0040310022057
 40
239.6443275671368
 40
240.3467129137868
 40
241.1077877829809
 40
241.9241530613404
 40
242.1676947314168
 40
242.3753051247034
 40
242.5397212459312
 40
242.6536800931489
 40
242.8926354275674
 40
243.0984482166672
 40
243.2642054129377
 40
243.3829939626145
 40
243.5614635450958
 40
243.8017895079304
 40
244.0986691880496
 40
244.4468000104195
 40
244.8408795078295
 40
245.8812150606849
 40
246.8542871780505
 40
247.7565223799092
 40
249.1348277171266
 40
250.5671753471757
 40
252.0520801275541
 40
253.588059167781
 40
254.9347477611155
 40
256.357409467449
 40
257.8534175615872
 40
259.4201484551397
 40
261.4299298640834
 40
263.3747242958825
 40
265.2528070283378
 40
269.2636615084712
 40
273.2153757952412
 40
277.107241221696
 40
280.9385302236163
 40
284.7084967449624
 40
288.416376639698
 40
294.9644427515344
 40
301.523661669093
 40
308.0942313936121
 40
314.6763563734717
 40
321.2702477308487
 40
327.8761234842915
 40
334.4942087670775
 40
340.219018330429
 40
346.0185418726157
 40
351.8923054400462
 40
357.8398826394762
 40
362.0265551631925
 40
366.1396244421035
 40
370.1780257289722
 40
374.1406697752409
 40
378.0264434460198
 40
381.8342103272007
 40
382.1581927879386
 40
382.4448295196543
 40
382.689978507706
 40
382.8146506342422
 40
382.8983301551654
 40
382.9689352516984
 40
383.1038827623281
 40
383.3136519627575
 40
383.5055133592882
 40
384.1937650241372
 40
384.9448567388984
 40
385.695004197436
 40
386.4030984916504
 40
387.0673602581521
 40
387.2388514470135
 40
387.4867174460574
 40
387.7972995831861
 40
387.8885414018411
 40
387.9797837370355
 40
388.071025806228
 40
388.1622678609206
 40
388.3447518818974
 40
388.527235894864
 40
389.2571723056366
 40
389.9871087568605
 40
391.4469906620802
 40
392.9068725584732
 40
393.052982119264
 40
393.2822542772303
 40
393.5877111711234
 40
393.962374939694
 40
394.3992677216942
 40
394.8914116558748
 40
395.4318288809869
 40
396.0135415357817
 40
396.6295717590108
 40
397.2729416894252
 40
397.9366734657758
 40
398.6137892268148
 40
399.297311111293
 40
399.9802612579613
 40
400.6556618055711
 40
401.3165348928733
 40
401.9559026586198
 40
402.5667872415618
 40
403.1422107804501
 40
403.6751954140363
 40
404.1587632810716
 40
404.5859365203071
 40
416.2649865296507
 40
427.9440351027741
 40
451.3021282337674
 40
474.6602165552319
 40
486.3392591156663
 40
498.0183006756795
 40
498.6522799480733
 40
499.2873243716098
 40
499.9273117112274
 40
500.5761197318654
 40
501.2376261984627
 40
501.9157088759573
 40
502.6142455292881
 40
503.3371139233944
 40
504.0881918232151
 40
504.8713569936884
 40
505.6904871997532
 40
506.5494602063491
 40
507.4521537784138
 40
508.4024456808874
 40
509.4042136787078
 40
510.4613355368149
 40
511.5776890201462
 40
512.7571518936418
 40
514.0036019222399
 40
515.32091687088
 40
516.7129745045
 40
518.1836525880398
 40
519.7368288864376
 40
521.3763811640022
 40
521.3763811640022
 40
521.3763811640022
 40
521.3763811640022
 10
-440.4444653263112
 20
708.0194935032947
 30
0.0
 10
-440.4498339587002
 20
708.0641720652412
 30
0.0
 10
-440.4606680000186
 20
708.1543347000205
 30
0.0
 10
-440.4883866918159
 20
708.3693282007067
 30
0.0
 10
-440.5317116884152
 20
708.6799099688369
 30
0.0
 10
-440.5867159268221
 20
709.0451906401534
 30
0.0
 10
-440.6424040091255
 20
709.4025586264404
 30
0.0
 10
-440.6898809658953
 20
709.7014070425996
 30
0.0
 10
-440.7366758340268
 20
709.9930443274054
 30
0.0
 10
-440.7821117438452
 20
710.2744606262597
 30
0.0
 10
-440.8342620816985
 20
710.5959415403938
 30
0.0
 10
-440.894022107748
 20
710.9630161272577
 30
0.0
 10
-440.9565730841681
 20
711.3462132878456
 30
0.0
 10
-441.0219768108545
 20
711.746193139849
 30
0.0
 10
-441.0903069450421
 20
712.163553796875
 30
0.0
 10
-441.1673755613893
 20
712.6338294143067
 30
0.0
 10
-441.2540596943213
 20
713.1623717632085
 30
0.0
 10
-441.3462387520601
 20
713.7240792232835
 30
0.0
 10
-441.4442297077642
 20
714.3209410818877
 30
0.0
 10
-441.5483716992665
 20
714.9550574999363
 30
0.0
 10
-441.6640277682401
 20
715.6590922260793
 30
0.0
 10
-441.7814174721936
 20
716.3735236375775
 30
0.0
 10
-441.899947183003
 20
717.0947805725745
 30
0.0
 10
-442.0189464813505
 20
717.8188096142345
 30
0.0
 10
-442.1483861222938
 20
718.606282086717
 30
0.0
 10
-442.288963131556
 20
719.461438261554
 30
0.0
 10
-442.441374531591
 20
720.3885184108108
 30
0.0
 10
-442.5882092351263
 20
721.2816224584628
 30
0.0
 10
-442.7281365326107
 20
722.1326761163394
 30
0.0
 10
-442.8597362416559
 20
722.9330544976599
 30
0.0
 10
-442.9996086585379
 20
723.7837221622538
 30
0.0
 10
-443.1481795061765
 20
724.6872680599325
 30
0.0
 10
-443.3058745065607
 20
725.6462811406603
 30
0.0
 10
-443.4731193821326
 20
726.663350354328
 30
0.0
 10
-443.6503398553427
 20
727.7410646508238
 30
0.0
 10
-443.8379616487656
 20
728.8820129800158
 30
0.0
 10
-444.0364104849832
 20
730.0887842917712
 30
0.0
 10
-444.2461120868377
 20
731.3639675359142
 30
0.0
 10
-444.4480646629102
 20
732.5920154275914
 30
0.0
 10
-444.6412737777854
 20
733.7668850956376
 30
0.0
 10
-444.8247105485789
 20
734.8823230948145
 30
0.0
 10
-445.0167396391828
 20
736.0500015615484
 30
0.0
 10
-445.2176829428297
 20
737.2718778035559
 30
0.0
 10
-445.4278623525416
 20
738.5499091285863
 30
0.0
 10
-445.6475997614187
 20
739.8860528443782
 30
0.0
 10
-445.8772170625528
 20
741.282266258669
 30
0.0
 10
-446.1170361490513
 20
742.7405066791966
 30
0.0
 10
-446.367378914027
 20
744.2627314136951
 30
0.0
 10
-446.6285672505995
 20
745.8508977698996
 30
0.0
 10
-446.9009230518947
 20
747.5069630555429
 30
0.0
 10
-447.1847682110407
 20
749.2328845783577
 30
0.0
 10
-447.4804246211712
 20
751.0306196460763
 30
0.0
 10
-447.7882141754245
 20
752.9021255664297
 30
0.0
 10
-448.1084587669249
 20
754.8493596471512
 30
0.0
 10
-448.4414802888679
 20
756.8742791959631
 30
0.0
 10
-448.7876006341755
 20
758.9788415206315
 30
0.0
 10
-449.1471416968539
 20
761.1650039287448
 30
0.0
 10
-449.4946964168098
 20
763.2782810240824
 30
0.0
 10
-449.8278006498135
 20
765.3036905361323
 30
0.0
 10
-450.1436030880305
 20
767.2238960052383
 30
0.0
 10
-450.4645943118636
 20
769.1756494703336
 30
0.0
 10
-450.7899346782385
 20
771.1538456791837
 30
0.0
 10
-451.1187845430455
 20
773.1533793797228
 30
0.0
 10
-451.4503042624368
 20
775.1691453198432
 30
0.0
 10
-451.7836541924737
 20
777.1960382474506
 30
0.0
 10
-452.1179946892302
 20
779.2289529104512
 30
0.0
 10
-452.4524861087625
 20
781.2627840567517
 30
0.0
 10
-452.7862888071235
 20
783.2924264342607
 30
0.0
 10
-453.1185631403585
 20
785.3127747908875
 30
0.0
 10
-453.4484694645079
 20
787.3187238745421
 30
0.0
 10
-453.7751681356087
 20
789.3051684331355
 30
0.0
 10
-454.0978195096955
 20
791.2670032145792
 30
0.0
 10
-454.4155839427989
 20
793.1991229667843
 30
0.0
 10
-454.72762179095
 20
795.0964224376638
 30
0.0
 10
-455.0330934101785
 20
796.9537963751288
 30
0.0
 10
-455.3311591565108
 20
798.7661395270922
 30
0.0
 10
-455.6209793859913
 20
800.5283466414635
 30
0.0
 10
-455.9017144546046
 20
802.2353124661626
 30
0.0
 10
-456.1725247185614
 20
803.8819317490716
 30
0.0
 10
-456.4325705332913
 20
805.4630992382013
 30
0.0
 10
-456.6810122569899
 20
806.973709681108
 30
0.0
 10
-458.1062250014292
 20
815.6394888278544
 30
0.0
 10
-460.712090296412
 20
831.4840179758609
 30
0.0
 10
-463.3908120012616
 20
847.7715148149214
 30
0.0
 10
-464.9533054992667
 20
857.2719798230493
 30
0.0
 10
-465.3954524144749
 20
859.96037560714
 30
0.0
 10
-465.8252769796222
 20
862.5738473277945
 30
0.0
 10
-466.2433305155344
 20
865.1157472040204
 30
0.0
 10
-466.6501643407812
 20
867.5894274548273
 30
0.0
 10
-467.0463297750497
 20
869.9982402986554
 30
0.0
 10
-467.432378138718
 20
872.3455379537697
 30
0.0
 10
-467.8088607522192
 20
874.6346726386454
 30
0.0
 10
-468.176328935887
 20
876.8689965719398
 30
0.0
 10
-468.535334009979
 20
879.0518619723794
 30
0.0
 10
-468.886427294705
 20
881.1866210587027
 30
0.0
 10
-469.2301601102497
 20
883.2766260496483
 30
0.0
 10
-469.5670837767802
 20
885.3252291639471
 30
0.0
 10
-469.8977496144573
 20
887.3357826203292
 30
0.0
 10
-470.2227089434294
 20
889.3116386375177
 30
0.0
 10
-470.5425130838622
 20
891.2561494342348
 30
0.0
 10
-470.8577133558438
 20
893.1726672292098
 30
0.0
 10
-471.1688610797353
 20
895.0645442411274
 30
0.0
 10
-471.4765075748847
 20
896.9351326888361
 30
0.0
 10
-471.7812041643589
 20
898.787784790575
 30
0.0
 10
-472.6151940529443
 20
903.858708651768
 30
0.0
 10
-473.9794606813689
 20
912.1538816724049
 30
0.0
 10
-475.5590553462785
 20
921.7583140952079
 30
0.0
 10
-476.8229005112867
 20
929.4428939009613
 30
0.0
 10
-477.6130989398582
 20
934.2475493055184
 30
0.0
 10
-478.2453998744639
 20
938.0921311674359
 30
0.0
 10
-478.5814386805696
 20
940.1353562075469
 30
0.0
 10
-478.7791157490294
 20
941.3372970671855
 30
0.0
 10
-478.8278203039537
 20
941.6334336512166
 30
0.0
 10
-478.8630290596586
 20
941.8475158457877
 30
0.0
 10
-478.8828009893082
 20
941.9677366982562
 30
0.0
 10
-478.9032960138762
 20
942.0923514458957
 30
0.0
 10
-478.9274120642243
 20
942.2388902002194
 30
0.0
 10
-478.9699472474367
 20
942.4970773367052
 30
0.0
 10
-479.0291831026279
 20
942.8560483498347
 30
0.0
 10
-479.1086758802131
 20
943.336574234892
 30
0.0
 10
-479.2004286967814
 20
943.8896346725332
 30
0.0
 10
-479.3041405837132
 20
944.5127526036322
 30
0.0
 10
-479.4196837663412
 20
945.2044205654972
 30
0.0
 10
-479.5453814867513
 20
945.9538948833608
 30
0.0
 10
-479.6461967039143
 20
946.5524581691537
 30
0.0
 10
-479.7165661873151
 20
946.9690626242309
 30
0.0
 10
-479.7507809692125
 20
947.1713792992521
 30
0.0
 10
-479.7778194643364
 20
947.331101993527
 30
0.0
 10
-479.8066235721552
 20
947.5011227613029
 30
0.0
 10
-479.8377602651432
 20
947.6847438658067
 30
0.0
 10
-479.8718235920477
 20
947.8853812882788
 30
0.0
 10
-479.8992080722842
 20
948.0465238432583
 30
0.0
 10
-479.9250867098765
 20
948.1986772233168
 30
0.0
 10
-479.9551476737357
 20
948.3753324773518
 30
0.0
 10
-479.9952505534698
 20
948.6104959886427
 30
0.0
 10
-480.0450040961234
 20
948.9013839009052
 30
0.0
 10
-480.1036009862802
 20
949.2427546393552
 30
0.0
 10
-480.204521977027
 20
949.8283032674483
 30
0.0
 10
-480.3418681718986
 20
950.6189588718455
 30
0.0
 10
-480.5099743292559
 20
951.5761912938145
 30
0.0
 10
-480.6994075600549
 20
952.6440572643197
 30
0.0
 10
-480.9181324091337
 20
953.8622072557528
 30
0.0
 10
-481.1748186664479
 20
955.2708657144142
 30
0.0
 10
-481.4448357802385
 20
956.7305131633077
 30
0.0
 10
-481.7136275658123
 20
958.1613442937607
 30
0.0
 10
-481.9823165871638
 20
959.5710784303017
 30
0.0
 10
-482.2520571201137
 20
960.9670442108745
 30
0.0
 10
-482.5396409236591
 20
962.4342611661588
 30
0.0
 10
-482.8695237083542
 20
964.092611319116
 30
0.0
 10
-483.234506678762
 20
965.8964977665136
 30
0.0
 10
-483.626970515483
 20
967.800697953016
 30
0.0
 10
-484.1630286551157
 20
970.3563304595519
 30
0.0
 10
-484.8537170759953
 20
973.5630400943287
 30
0.0
 10
-485.7138519644469
 20
977.4198018056
 30
0.0
 10
-486.5881596058302
 20
981.2119743686642
 30
0.0
 10
-487.4751607814554
 20
984.9389483896177
 30
0.0
 10
-488.3733773347795
 20
988.600118499671
 30
0.0
 10
-489.5183027319683
 20
993.1330977322369
 30
0.0
 10
-490.9416647674087
 20
998.5545633868402
 30
0.0
 10
-492.6829076889213
 20
1004.878667290828
 30
0.0
 10
-494.5026535022348
 20
1011.192451468901
 30
0.0
 10
-496.4010058155752
 20
1017.495118460507
 30
0.0
 10
-498.378069828754
 20
1023.785877990373
 30
0.0
 10
-500.4339497034101
 20
1030.063935901631
 30
0.0
 10
-502.4713672295248
 20
1036.042730538277
 30
0.0
 10
-504.4858165419159
 20
1041.744939284988
 30
0.0
 10
-506.4744288622412
 20
1047.192810972005
 30
0.0
 10
-508.5465035799471
 20
1052.688919007688
 30
0.0
 10
-510.4820190902556
 20
1057.661631993107
 30
0.0
 10
-512.2449484609928
 20
1062.071448951865
 30
0.0
 10
-513.8001224276253
 20
1065.878832415906
 30
0.0
 10
-515.3544200264921
 20
1069.605787689018
 30
0.0
 10
-516.9058117854323
 20
1073.25175253425
 30
0.0
 10
-518.452267091634
 20
1076.816160449759
 30
0.0
 10
-519.5328786302935
 20
1079.26048148231
 30
0.0
 10
-520.1333782320892
 20
1080.605296026413
 30
0.0
 10
-520.2498273668352
 20
1080.865700770234
 30
0.0
 10
-520.3392510277158
 20
1081.065413788362
 30
0.0
 10
-520.4010727919542
 20
1081.203361224176
 30
0.0
 10
-520.4391167960001
 20
1081.288207980879
 30
0.0
 10
-520.4785663922299
 20
1081.376178170382
 30
0.0
 10
-520.5352263035215
 20
1081.502493074393
 30
0.0
 10
-520.6084524808996
 20
1081.665675798043
 30
0.0
 10
-520.757245342896
 20
1081.997101926658
 30
0.0
 10
-520.9801306575084
 20
1082.493055397181
 30
0.0
 10
-521.2797157971138
 20
1083.158563515183
 30
0.0
 10
-521.582454254401
 20
1083.829905447718
 30
0.0
 10
-521.8737032537226
 20
1084.474678269523
 30
0.0
 10
-522.085829621468
 20
1084.943540516848
 30
0.0
 10
-522.2348383952313
 20
1085.272579101299
 30
0.0
 10
-522.3352540049655
 20
1085.494204855744
 30
0.0
 10
-522.4246784375232
 20
1085.691443145406
 30
0.0
 10
-522.4925686718996
 20
1085.84112154581
 30
0.0
 10
-522.5302587293941
 20
1085.924215322339
 30
0.0
 10
-522.5679482923948
 20
1086.007309409551
 30
0.0
 10
-522.6182007466608
 20
1086.118101489255
 30
0.0
 10
-522.6810166375965
 20
1086.256591408498
 30
0.0
 10
-522.8317745583631
 20
1086.588967398237
 30
0.0
 10
-523.0579110970509
 20
1087.087531614269
 30
0.0
 10
-523.4599343386062
 20
1087.97387013249
 30
0.0
 10
-523.9624632732015
 20
1089.081795820161
 30
0.0
 10
-524.3846050433804
 20
1090.012491283369
 30
0.0
 10
-524.6373033506113
 20
1090.569615309736
 30
0.0
 10
-524.7310483641006
 20
1090.776294897635
 30
0.0
 10
-524.8562631240846
 20
1091.052355816192
 30
0.0
 10
-525.0100652814285
 20
1091.391443334013
 30
0.0
 10
-525.1895724771026
 20
1091.787202724194
 30
0.0
 10
-525.3919023556231
 20
1092.233279258224
 30
0.0
 10
-525.6141725602096
 20
1092.723318208175
 30
0.0
 10
-525.8535007344744
 20
1093.250964845947
 30
0.0
 10
-526.1070045218917
 20
1093.809864443497
 30
0.0
 10
-526.3718015659691
 20
1094.393662272772
 30
0.0
 10
-526.6450095102008
 20
1094.996003605722
 30
0.0
 10
-526.9237459980819
 20
1095.610533714297
 30
0.0
 10
-527.2051286731054
 20
1096.230897870448
 30
0.0
 10
-527.4862751787665
 20
1096.850741346127
 30
0.0
 10
-527.764303158559
 20
1097.463709413282
 30
0.0
 10
-528.0363302559753
 20
1098.063447343866
 30
0.0
 10
-528.2994741145229
 20
1098.643600409825
 30
0.0
 10
-528.5508523776707
 20
1099.197813883119
 30
0.0
 10
-528.787582689034
 20
1099.719733035646
 30
0.0
 10
-529.0067826917651
 20
1100.20300313951
 30
0.0
 10
-529.2055700305842
 20
1100.641269466106
 30
0.0
 10
-530.9390647556272
 20
1104.463104462823
 30
0.0
 10
-534.2140713245658
 20
1111.683508755848
 30
0.0
 10
-540.6464486462957
 20
1125.864964824826
 30
0.0
 10
-548.6869185818688
 20
1143.591782169919
 30
0.0
 10
-556.7273882056179
 20
1161.318597455688
 30
0.0
 10
-563.1597630307804
 20
1175.500047603289
 30
0.0
 10
-566.4632430600705
 20
1182.783226725309
 30
0.0
 10
-568.2460691746177
 20
1186.713821439708
 30
0.0
 10
-568.5089219408482
 20
1187.293332626774
 30
0.0
 10
-568.7738164521072
 20
1187.87734533543
 30
0.0
 10
-569.0423544767483
 20
1188.469391052482
 30
0.0
 10
-569.3161377803714
 20
1189.073001265987
 30
0.0
 10
-569.5967681293755
 20
1189.691707463636
 30
0.0
 10
-569.8858472899963
 20
1190.329041133195
 30
0.0
 10
-570.1849770285753
 20
1190.988533762386
 30
0.0
 10
-570.4957591114785
 20
1191.673716838913
 30
0.0
 10
-570.8197953051163
 20
1192.388121850467
 30
0.0
 10
-571.1586873759262
 20
1193.135280284721
 30
0.0
 10
-571.5140370903697
 20
1193.918723629341
 30
0.0
 10
-571.8874462149233
 20
1194.741983371983
 30
0.0
 10
-572.2805165160725
 20
1195.6085910003
 30
0.0
 10
-572.6948497603081
 20
1196.522078001947
 30
0.0
 10
-573.1320477141164
 20
1197.485975864573
 30
0.0
 10
-573.5937121439918
 20
1198.503816075829
 30
0.0
 10
-574.0814448163893
 20
1199.579130123383
 30
0.0
 10
-574.596847497884
 20
1200.715449494847
 30
0.0
 10
-575.1415219545398
 20
1201.916305678067
 30
0.0
 10
-575.7170699544588
 20
1203.185230159961
 30
0.0
 10
-576.3250932574385
 20
1204.525754431217
 30
0.0
 10
-576.9671936568161
 20
1205.941409967079
 30
0.0
 10
-577.4067974476403
 20
1206.910616533963
 30
0.0
 10
-577.6325458633845
 20
1207.40833025645
 30
0.0
 11
-440.4444653263112
 21
708.0194935032947
 31
0.0
 11
-440.4607622665782
 21
708.1535055324122
 31
0.0
 11
-440.478263727969
 21
708.2898198263771
 31
0.0
 11
-440.5301584274022
 21
708.6641193100346
 31
0.0
 11
-440.5931178479881
 21
709.0848609209567
 31
0.0
 11
-440.6399826056049
 21
709.3861152500184
 31
0.0
 11
-440.6955607839408
 21
709.7364719113394
 31
0.0
 11
-440.7348635012123
 21
709.9815119474607
 31
0.0
 11
-440.7799858542877
 21
710.2610875640031
 31
0.0
 11
-440.8318230528739
 21
710.5807277912528
 31
0.0
 11
-440.8912703066778
 21
710.9459616594959
 31
0.0
 11
-440.9592228254059
 21
711.3623181990175
 31
0.0
 11
-441.0193949570834
 21
711.7303324221346
 31
0.0
 11
-441.0874287092002
 21
712.1459098099621
 31
0.0
 11
-441.1642011227764
 21
712.6144021315705
 31
0.0
 11
-441.250589238832
 21
713.141161156029
 31
0.0
 11
-441.3474700983874
 21
713.7315386524078
 31
0.0
 11
-441.4407190312598
 21
714.2995276669716
 31
0.0
 11
-441.5445481547424
 21
714.9317490187786
 31
0.0
 11
-441.6598914320614
 21
715.6338886664187
 31
0.0
 11
-441.7876828264433
 21
716.4116325684823
 31
0.0
 11
-441.8967059628321
 21
717.0750451095541
 31
0.0
 11
-442.0154724348471
 21
717.7976608068774
 31
0.0
 11
-442.1446792675015
 21
718.5837199320916
 31
0.0
 11
-442.285023485808
 21
719.4374627568367
 31
0.0
 11
-442.4372021147799
 21
720.3631295527525
 31
0.0
 11
-442.6019121794298
 21
721.3649605914785
 31
0.0
 11
-442.7255228940362
 21
722.1167756728075
 31
0.0
 11
-442.8569805955792
 21
722.9162910872685
 31
0.0
 11
-442.9967110067607
 21
723.7660957847089
 31
0.0
 11
-443.1451398502825
 21
724.6687787149756
 31
0.0
 11
-443.3026928488465
 21
725.6269288279155
 31
0.0
 11
-443.4697957251547
 21
726.6431350733762
 31
0.0
 11
-443.6468742019085
 21
727.7199864012047
 31
0.0
 11
-443.8343540018102
 21
728.8600717612479
 31
0.0
 11
-444.0326608475613
 21
730.0659801033532
 31
0.0
 11
-444.2422204618639
 21
731.3403003773678
 31
0.0
 11
-444.4634585674197
 21
732.6856215331387
 31
0.0
 11
-444.6385175899467
 21
733.7501239405083
 31
0.0
 11
-444.8218470395705
 21
734.8649095076346
 31
0.0
 11
-445.0137688094209
 21
736.03193554225
 31
0.0
 11
-445.2146047926278
 21
737.2531593520877
 31
0.0
 11
-445.424676882321
 21
738.5305382448796
 31
0.0
 11
-445.6443069716302
 21
739.8660295283587
 31
0.0
 11
-445.8738169536853
 21
741.2615905102576
 31
0.0
 11
-446.1135287216161
 21
742.7191784983089
 31
0.0
 11
-446.3637641685526
 21
744.240750800245
 31
0.0
 11
-446.6248451876244
 21
745.828264723799
 31
0.0
 11
-446.8970936719613
 21
747.4836775767029
 31
0.0
 11
-447.1808315146931
 21
749.2089466666896
 31
0.0
 11
-447.4763806089499
 21
751.0060293014918
 31
0.0
 11
-447.7840628478612
 21
752.8768827888421
 31
0.0
 11
-448.1042001245569
 21
754.8234644364729
 31
0.0
 11
-448.4371143321669
 21
756.847731552117
 31
0.0
 11
-448.7831273638209
 21
758.9516414435072
 31
0.0
 11
-449.1425611126489
 21
761.1371514183757
 31
0.0
 11
-449.5157374717805
 21
763.4062187844553
 31
0.0
 11
-449.8257913471554
 21
765.2914727585884
 31
0.0
 11
-450.1418736538052
 21
767.213379980522
 31
0.0
 11
-450.4631447477274
 21
769.166835198174
 31
0.0
 11
-450.7887649849191
 21
771.1467331594611
 31
0.0
 11
-451.1178947213775
 21
773.1479686123012
 31
0.0
 11
-451.4496943131001
 21
775.1654363046113
 31
0.0
 11
-451.7833241160839
 21
777.194030984309
 31
0.0
 11
-452.1179444863265
 21
779.2286473993116
 31
0.0
 11
-452.4527157798248
 21
781.2641802975363
 31
0.0
 11
-452.7867983525762
 21
783.2955244269006
 31
0.0
 11
-453.1193525605781
 21
785.3175745353219
 31
0.0
 11
-453.4495387598276
 21
787.3252253707174
 31
0.0
 11
-453.7765173063219
 21
789.3133716810042
 31
0.0
 11
-454.0994485560585
 21
791.2769082141002
 31
0.0
 11
-454.4174928650346
 21
793.2107297179227
 31
0.0
 11
-454.7298105892473
 21
795.1097309403885
 31
0.0
 11
-455.0355620846941
 21
796.9688066294159
 31
0.0
 11
-455.333907707372
 21
798.7828515329211
 31
0.0
 11
-455.6240078132784
 21
800.546760398822
 31
0.0
 11
-455.9050227584107
 21
802.2554279750364
 31
0.0
 11
-456.176112898766
 21
803.9037490094809
 31
0.0
 11
-456.4364385903414
 21
805.4866182500731
 31
0.0
 11
-456.6851601891346
 21
806.9989304447307
 31
0.0
 11
-456.9214380511425
 21
808.4355803413706
 31
0.0
 11
-460.7120808670054
 21
831.4839550262504
 31
0.0
 11
-464.5027599389986
 21
854.5325172579984
 31
0.0
 11
-464.957596748584
 21
857.2980719201176
 31
0.0
 11
-465.3995598875374
 21
859.9853502997966
 31
0.0
 11
-465.8292006760065
 21
862.597704615749
 31
0.0
 11
-466.2470704341391
 21
865.1384870866893
 31
0.0
 11
-466.653720482083
 21
867.6110499313328
 31
0.0
 11
-467.049702139986
 21
870.0187453683931
 31
0.0
 11
-467.435566727996
 21
872.3649256165855
 31
0.0
 11
-467.8118655662607
 21
874.652942894624
 31
0.0
 11
-468.179149974928
 21
876.8861494212233
 31
0.0
 11
-468.5379712741455
 21
879.0678974150978
 31
0.0
 11
-468.8888807840612
 21
881.2015390949621
 31
0.0
 11
-469.2324298248229
 21
883.2904266795307
 31
0.0
 11
-469.5691697165784
 21
885.3379123875181
 31
0.0
 11
-469.8996517794752
 21
887.347348437639
 31
0.0
 11
-470.2244273336615
 21
889.3220870486075
 31
0.0
 11
-470.5440476992848
 21
891.2654804391381
 31
0.0
 11
-470.8590641964932
 21
893.180880827946
 31
0.0
 11
-471.1700281454343
 21
895.0716404337451
 31
0.0
 11
-471.4774908662559
 21
896.94111147525
 31
0.0
 11
-471.7820036791059
 21
898.7926461711751
 31
0.0
 11
-472.0841179041321
 21
900.6295967402353
 31
0.0
 11
-473.979460993165
 21
912.1538829823445
 31
0.0
 11
-475.8748037841018
 21
923.6781651961415
 31
0.0
 11
-476.8229006156222
 21
929.4428942188882
 31
0.0
 11
-477.77099785487
 21
935.2076221743861
 31
0.0
 11
-478.245399619896
 21
938.0921313191302
 31
0.0
 11
-478.7198003652374
 21
940.9766403068003
 31
0.0
 11
-478.7791158326631
 21
941.3372970381688
 31
0.0
 11
-478.8384314675117
 21
941.6979537923813
 31
0.0
 11
-478.8659128136243
 21
941.8650502589348
 31
0.0
 11
-478.8847428491034
 21
941.9795434986411
 31
0.0
 11
-478.897748493588
 21
942.0586161463071
 31
0.0
 11
-478.9274174721667
 21
942.2388912797574
 31
0.0
 11
-478.9571149370312
 21
942.419155817082
 31
0.0
 11
-479.0254332114667
 21
942.833164492981
 31
0.0
 11
-479.1052715360079
 21
943.3157800712904
 31
0.0
 11
-479.195677080409
 21
943.8607194686807
 31
0.0
 11
-479.3008021976945
 21
944.4923272589831
 31
0.0
 11
-479.4165320244622
 21
945.1851127830643
 31
0.0
 11
-479.5424168873697
 21
945.9357045214946
 31
0.0
 11
-479.6780071130742
 21
946.7407309548454
 31
0.0
 11
-479.7185695233591
 21
946.9808709888559
 31
0.0
 11
-479.7531880589336
 21
947.1855747562727
 31
0.0
 11
-479.7806307896721
 21
947.3476844643372
 31
0.0
 11
-479.7996657854495
 21
947.460042320292
 31
0.0
 11
-479.839615636072
 21
947.6956344705886
 31
0.0
 11
-479.8740643921683
 21
947.8985437788025
 31
0.0
 11
-479.9018354789848
 21
948.0619580219152
 31
0.0
 11
-479.9217523217684
 21
948.1790649769079
 31
0.0
 11
-479.9516975931916
 21
948.355004377242
 31
0.0
 11
-479.9920990043896
 21
948.5919100428238
 31
0.0
 11
-480.0421505798395
 21
948.8845401579204
 31
0.0
 11
-480.1010463440189
 21
949.2276529068004
 31
0.0
 11
-480.1679803214046
 21
949.6160064737315
 31
0.0
 11
-480.3460318205057
 21
950.6409921937244
 31
0.0
 11
-480.5143442151018
 21
951.599397266441
 31
0.0
 11
-480.671934882503
 21
952.4877629237086
 31
0.0
 11
-480.9155209979207
 21
953.8443731871815
 31
0.0
 11
-481.1722953448568
 21
955.2535171358419
 31
0.0
 11
-481.4424021462224
 21
956.7136488157364
 31
0.0
 11
-481.7259856249288
 21
958.2232222729114
 31
0.0
 11
-481.9781196445362
 21
959.5460974006409
 31
0.0
 11
-482.2480259512192
 21
960.9429212679456
 31
0.0
 11
-482.535777141247
 21
962.4109946551978
 31
0.0
 11
-482.841445810889
 21
963.9476183427693
 31
0.0
 11
-483.2400107595892
 21
965.9174831334082
 31
0.0
 11
-483.632589386526
 21
967.8222422792395
 31
0.0
 11
-484.0181370294285
 21
969.6603249120395
 31
0.0
 11
-484.8626577471771
 21
973.5812608230341
 31
0.0
 11
-485.7228332172477
 21
977.4382212797926
 31
0.0
 11
-486.5971846248349
 21
981.2305986494314
 31
0.0
 11
-487.4842331551328
 21
984.9577852990651
 31
0.0
 11
-488.3824999933362
 21
988.6191735958097
 31
0.0
 11
-489.2905063246393
 21
992.2141559067801
 31
0.0
 11
-490.9532820113775
 21
998.5475867953974
 31
0.0
 11
-492.6944520708668
 21
1004.871484298738
 31
0.0
 11
-494.514121133736
 21
1011.185056267662
 31
0.0
 11
-496.4123938306148
 21
1017.487510553032
 31
0.0
 11
-498.389374792132
 21
1023.778055005709
 31
0.0
 11
-500.4451686489168
 21
1030.055897476555
 31
0.0
 11
-502.5798800315984
 21
1036.320245816432
 31
0.0
 11
-504.4868064939653
 21
1041.718122806888
 31
0.0
 11
-506.475427179781
 21
1047.166045446266
 31
0.0
 11
-508.547504620012
 21
1052.662188960411
 31
0.0
 11
-510.704801345625
 21
1058.204728575169
 31
0.0
 11
-512.2589310720074
 21
1062.092260904882
 31
0.0
 11
-513.8142215605262
 21
1065.899938726019
 31
0.0
 11
-515.3686425472148
 21
1069.627197819515
 31
0.0
 11
-516.9201637681066
 21
1073.273473966305
 31
0.0
 11
-518.4667549592345
 21
1076.838202947325
 31
0.0
 11
-520.0063858566317
 21
1080.320820543511
 31
0.0
 11
-520.1384824392919
 21
1080.616650102067
 31
0.0
 11
-520.2554953702559
 21
1080.878315135949
 31
0.0
 11
-520.3556787644683
 21
1081.102058993668
 31
0.0
 11
-520.4066652980491
 21
1081.215828552551
 31
0.0
 11
-520.4409005363917
 21
1081.292184368817
 31
0.0
 11
-520.469791172782
 21
1081.356608050685
 31
0.0
 11
-520.5250211722413
 21
1081.479735942671
 31
0.0
 11
-520.6109021510397
 21
1081.671119262032
 31
0.0
 11
-520.68948203419
 21
1081.846150680477
 31
0.0
 11
-520.9716068804839
 21
1082.473921279719
 31
0.0
 11
-521.2799195348794
 21
1083.158816944126
 31
0.0
 11
-521.5882909523115
 21
1083.842650460754
 31
0.0
 11
-521.8797842646284
 21
1084.487963701261
 31
0.0
 11
-522.1535944863989
 21
1085.093167515601
 31
0.0
 11
-522.2243400427349
 21
1085.249386253644
 31
0.0
 11
-522.3266345321316
 21
1085.47515912828
 31
0.0
 11
-522.4548803663937
 21
1085.758027065484
 31
0.0
 11
-522.4925687128684
 21
1085.841121337317
 31
0.0
 11
-522.5302586687889
 21
1085.924215446341
 31
0.0
 11
-522.567948255984
 21
1086.007309430525
 31
0.0
 11
-522.605637655713
 21
1086.090403483818
 31
0.0
 11
-522.6810166085154
 21
1086.256591423773
 31
0.0
 11
-522.7563955561772
 21
1086.422779357263
 31
0.0
 11
-523.0579112645781
 21
1087.08753152263
 31
0.0
 11
-523.3594275175423
 21
1087.752283485414
 31
0.0
 11
-523.9624633205298
 21
1089.08179580108
 31
0.0
 11
-524.5654989615487
 21
1090.411308180519
 31
0.0
 11
-524.6258526463961
 21
1090.544369957449
 31
0.0
 11
-524.7205584400174
 21
1090.753167790468
 31
0.0
 11
-524.8467339859001
 21
1091.031346951528
 31
0.0
 11
-525.0014969275325
 21
1091.372552712583
 31
0.0
 11
-525.1819649084025
 21
1091.770430345587
 31
0.0
 11
-525.385255571998
 21
1092.218625122494
 31
0.0
 11
-525.6084865618067
 21
1092.710782315256
 31
0.0
 11
-525.848775521317
 21
1093.240547195827
 31
0.0
 11
-526.1032400940167
 21
1093.801565036161
 31
0.0
 11
-526.3689979233936
 21
1094.387481108212
 31
0.0
 11
-526.6431666529357
 21
1094.991940683932
 31
0.0
 11
-526.9228639261314
 21
1095.608589035276
 31
0.0
 11
-527.2052073864681
 21
1096.231071434197
 31
0.0
 11
-527.4873146774343
 21
1096.853033152649
 31
0.0
 11
-527.7663034425175
 21
1097.468119462584
 31
0.0
 11
-528.0392913252056
 21
1098.069975635957
 31
0.0
 11
-528.3033959689868
 21
1098.65224694472
 31
0.0
 11
-528.5557350173493
 21
1099.208578660829
 31
0.0
 11
-528.7934261137807
 21
1099.732616056236
 31
0.0
 11
-529.013586901769
 21
1100.218004402895
 31
0.0
 11
-529.2133350248024
 21
1100.658388972759
 31
0.0
 11
-529.3897881263687
 21
1101.047415037781
 31
0.0
 11
-534.2140715566543
 21
1111.683509175448
 31
0.0
 11
-539.0383547443961
 21
1122.319601846074
 31
0.0
 11
-548.6869193379332
 21
1143.591783586593
 31
0.0
 11
-558.33548227234
 21
1164.863960798512
 31
0.0
 11
-563.1597631494492
 21
1175.500047914904
 31
0.0
 11
-567.984043656585
 21
1186.136134100587
 31
0.0
 11
-568.2459225045699
 21
1186.713498099122
 31
0.0
 11
-568.5082413332046
 21
1187.291832130637
 31
0.0
 11
-568.7726019088898
 21
1187.874667682826
 31
0.0
 11
-569.0406059980268
 21
1188.46553624338
 31
0.0
 11
-569.3138553670168
 21
1189.067969299991
 31
0.0
 11
-569.5939517822608
 21
1189.68549834035
 31
0.0
 11
-569.8824970101598
 21
1190.321654852149
 31
0.0
 11
-570.1810928171154
 21
1190.97997032308
 31
0.0
 11
-570.4913409695283
 21
1191.663976240836
 31
0.0
 11
-570.8148432337998
 21
1192.377204093106
 31
0.0
 11
-571.153201376331
 21
1193.123185367585
 31
0.0
 11
-571.508017163523
 21
1193.905451551962
 31
0.0
 11
-571.8808923617769
 21
1194.727534133931
 31
0.0
 11
-572.2734287374941
 21
1195.592964601183
 31
0.0
 11
-572.6872280570755
 21
1196.505274441409
 31
0.0
 11
-573.1238920869222
 21
1197.467995142302
 31
0.0
 11
-573.5850225934354
 21
1198.484658191552
 31
0.0
 11
-574.072221343016
 21
1199.558795076853
 31
0.0
 11
-574.5870901020656
 21
1200.693937285896
 31
0.0
 11
-575.1312306369853
 21
1201.893616306373
 31
0.0
 11
-575.7062447141757
 21
1203.161363625974
 31
0.0
 11
-576.3137341000383
 21
1204.500710732393
 31
0.0
 11
-576.9553005609741
 21
1205.915189113321
 31
0.0
 11
-577.6325458633845
 21
1207.40833025645
 31
0.0
  0
SPLINE
  5
DD
330
1F
100
AcDbEntity
  8
0
  6
Continuous
 62
     7
100
AcDbSpline
210
0.0
220
0.0
230
1.0
 70
     8
 71
     3
 72
    19
 73
    15
 74
    13
 42
0.000000001
 43
0.0000000001
 44
0.00000001
 40
0.0
 40
0.0
 40
0.0
 40
0.0
 40
0.929716079627146
 40
1.741385871972041
 40
2.421970367122172
 40
3.971784601038634
 40
5.411023253932814
 40
6.71059099171203
 40
7.828457433576514
 40
8.735194479895124
 40
9.412152384616082
 40
9.687202441174371
 40
9.85812811188679
 40
9.950626483884946
 40
9.950626483884946
 40
9.950626483884946
 40
9.950626483884946
 10
-430.5068977223276
 20
709.1402046505806
 30
0.0
 10
-430.8146328905521
 20
709.1035931768463
 30
0.0
 10
-431.3910300127018
 20
709.0350187835681
 30
0.0
 10
-432.1927373764084
 20
708.9399583044572
 30
0.0
 10
-433.1997361357878
 20
708.8208120390261
 30
0.0
 10
-434.4145369233477
 20
708.6776060865191
 30
0.0
 10
-435.8343567517684
 20
708.5111807465353
 30
0.0
 10
-437.1112914368626
 20
708.3625332925932
 30
0.0
 10
-438.2120402720932
 20
708.2354729376204
 30
0.0
 10
-439.1067726760998
 20
708.1335462195029
 30
0.0
 10
-439.7225014558933
 20
708.0645232191495
 30
0.0
 10
-440.0946598374622
 20
708.0244560583296
 30
0.0
 10
-440.2731705270798
 20
708.0056766812163
 30
0.0
 10
-440.3606144075143
 20
707.9976808928589
 30
0.0
 10
-440.3913193361085
 20
707.9948732557215
 30
0.0
 11
-430.5068977223276
 21
709.1402046505806
 31
0.0
 11
-431.4301108910821
 21
709.0304347392675
 31
0.0
 11
-432.2361328539239
 21
708.9348499746471
 31
0.0
 11
-432.912003404041
 21
708.8548858919345
 31
0.0
 11
-434.4511626250317
 21
708.673466344785
 31
0.0
 11
-435.8806203764644
 21
708.5059598170078
 31
0.0
 11
-437.1714783606448
 21
708.3557533932236
 31
0.0
 11
-438.2819871486679
 21
708.2277080357944
 31
0.0
 11
-439.1829095802349
 21
708.1251856311644
 31
0.0
 11
-439.8557125957613
 21
708.0502983355636
 31
0.0
 11
-440.129184618699
 21
708.0208774879484
 31
0.0
 11
-440.2992188055501
 21
708.0034430334339
 31
0.0
 11
-440.3913193361085
 21
707.9948732557215
 31
0.0
  0
SPLINE
  5
DE
330
1F
100
AcDbEntity
  8
0
  6
Continuous
 62
     7
100
AcDbSpline
210
0.0
220
0.0
230
1.0
 70
     8
 71
     3
 72
    15
 73
    11
 74
     9
 42
0.000000001
 43
0.0000000001
 44
0.00000001
 40
0.0
 40
0.0
 40
0.0
 40
0.0
 40
3.723891035541262
 40
7.447679023835068
 40
11.17835501867995
 40
14.90892294024972
 40
18.63938112229423
 40
22.36972814345607
 40
26.09296172527325
 40
29.81608337263663
 40
29.81608337263663
 40
29.81608337263663
 40
29.81608337263663
 10
196.54113713053
 20
878.4477460250451
 30
0.0
 10
196.0555472264499
 20
877.3052657434624
 30
0.0
 10
195.0843808420627
 20
875.0203368007437
 30
0.0
 10
193.4946592353881
 20
871.6493870207703
 30
0.0
 10
191.8090272297278
 20
868.3233378670025
 30
0.0
 10
190.0191003244538
 20
865.0495185658174
 30
0.0
 10
188.1307853962448
 20
861.8315719587258
 30
0.0
 10
186.1441720055035
 20
858.6764400793861
 30
0.0
 10
184.0698595935316
 20
855.58069421102
 30
0.0
 10
182.6091705969369
 20
853.5736412118156
 30
0.0
 10
181.8788370713143
 20
852.5701298016063
 30
0.0
 11
196.54113713053
 21
878.4477460250451
 31
0.0
 11
195.0623668410639
 21
875.030056326325
 31
0.0
 11
193.4798459551777
 21
871.6592664144833
 31
0.0
 11
191.7917952553425
 21
868.3323416759941
 31
0.0
 11
190.0026752832892
 21
865.0587829480479
 31
0.0
 11
188.1141661898241
 21
861.8416644152378
 31
0.0
 11
186.1280415521575
 21
858.6840074002627
 31
0.0
 11
184.0501629574871
 21
855.5945270470536
 31
0.0
 11
181.8788370713143
 21
852.5701298016063
 31
0.0
  0
SPLINE
  5
DF
330
1F
100
AcDbEntity
  8
0
  6
Continuous
 62
     7
100
AcDbSpline
210
0.0
220
0.0
230
1.0
 70
     8
 71
     3
 72
    23
 73
    19
 74
    17
 42
0.000000001
 43
0.0000000001
 44
0.00000001
 40
0.0
 40
0.0
 40
0.0
 40
0.0
 40
3.498394428210069
 40
6.996824883473225
 40
12.91798441195902
 40
18.26550170528958
 40
24.32346117605075
 40
29.78232421869056
 40
41.50949244834406
 40
53.2379420207286
 40
64.96774772514098
 40
76.69890092687479
 40
82.16044950116293
 40
88.22195879905688
 40
93.5730589439599
 40
99.4986268951431
 40
102.9998511107129
 40
106.5011629421366
 40
106.5011629421366
 40
106.5011629421366
 40
106.5011629421366
 10
107.4416385797768
 20
926.3990435201255
 30
0.0
 10
108.606486072237
 20
926.4565805937739
 30
0.0
 10
110.9361930535576
 20
926.5716553190819
 30
0.0
 10
115.2434394785166
 20
926.5862799153344
 30
0.0
 10
120.1643439604908
 20
926.3746953799416
 30
0.0
 10
125.9124795870244
 20
925.783802235138
 30
0.0
 10
131.4647154679832
 20
924.8790888489746
 30
0.0
 10
139.0266666545868
 20
923.1766606497972
 30
0.0
 10
148.2281160279514
 20
920.2213478649397
 30
0.0
 10
158.9011456724691
 20
915.2904292520298
 30
0.0
 10
168.8966578786254
 20
909.0978287479377
 30
0.0
 10
176.4339893602568
 20
903.0447058776521
 30
0.0
 10
182.0233716191279
 20
897.669494172162
 30
0.0
 10
185.8398223020398
 20
893.5321894269146
 30
0.0
 10
189.5028805238587
 20
889.0581949040618
 30
0.0
 10
192.3935744333376
 20
885.0657873952533
 30
0.0
 10
194.7573165966331
 20
881.4610196403374
 30
0.0
 10
195.9465253302461
 20
879.4521789441914
 30
0.0
 10
196.54113713053
 20
878.4477460250451
 30
0.0
 11
107.4416385797768
 21
926.3990435201255
 31
0.0
 11
110.9369925248939
 21
926.5448666272395
 31
0.0
 11
114.43537362677
 21
926.563449444841
 31
0.0
 11
120.3508878319754
 21
926.3049501984325
 31
0.0
 11
125.6704661679088
 21
925.7590312148392
 31
0.0
 11
131.6495278687361
 21
924.7845086991141
 31
0.0
 11
136.9750933740948
 21
923.585535066845
 31
0.0
 11
148.1403860117521
 21
919.9990723217877
 31
0.0
 11
158.7876328643562
 21
915.0804684702158
 31
0.0
 11
168.7587831565984
 21
908.9027258622918
 31
0.0
 11
177.9058285746324
 21
901.5575563215367
 31
0.0
 11
181.8424363432019
 21
897.7718421075294
 31
0.0
 11
185.9525269678944
 21
893.3166148370366
 31
0.0
 11
189.341742563221
 21
889.1756619979692
 31
0.0
 11
192.8202269003242
 21
884.3785271998814
 31
0.0
 11
194.7345217996433
 21
881.4469668558328
 31
0.0
 11
196.54113713053
 21
878.4477460250451
 31
0.0
  0
SPLINE
  5
E0
330
1F
100
AcDbEntity
  8
0
  6
Continuous
 62
     4
100
AcDbSpline
210
0.0
220
0.0
230
1.0
 70
     8
 71
     3
 72
    90
 73
    86
 74
    84
 42
0.000000001
 43
0.0000000001
 44
0.00000001
 40
0.0
 40
0.0
 40
0.0
 40
0.0
 40
0.1559809969390607
 40
0.3119708621808002
 40
0.4476598723474483
 40
0.5833786034230045
 40
0.6903349258318859
 40
0.7973620719784712
 40
0.8957065792846209
 40
0.9943133046992398
 40
1.10985548054068
 40
1.206246220757765
 40
1.290221651265184
 40
1.36327603349413
 40
1.400730021948445
 40
1.435811474715383
 40
1.473245537110461
 40
1.510623718397191
 40
1.592541314471498
 40
1.714646638907948
 40
1.819540855549796
 40
1.96161033674182
 40
2.148322851757551
 40
2.387146401897263
 40
2.743410385874546
 40
3.154880064752669
 40
3.618922175222306
 40
4.132902480971386
 40
4.694186181031877
 40
5.44372560762663
 40
6.257126554311693
 40
7.130088014098656
 40
8.05830877775514
 40
9.037487502521707
 40
9.88292942470304
 40
10.68035084497938
 40
11.41651206255174
 40
12.07817325888493
 40
12.8862034741744
 40
13.64628071776855
 40
14.35172575412486
 40
14.99585929211214
 40
15.57200199319312
 40
17.27039206438617
 40
18.93774284696666
 40
20.5558517466423
 40
22.10651629641394
 40
22.88612320565168
 40
23.57662203728926
 40
24.17911942075149
 40
24.6947218798254
 40
25.25148686835148
 40
25.84239304069369
 40
26.44981770155835
 40
27.01863818402976
 40
27.5370732438299
 40
28.00297331026444
 40
28.40354941857284
 40
28.75685748537114
 40
28.99568103549123
 40
29.18239355050433
 40
29.32446303170217
 40
29.42935724834978
 40
29.55146257280461
 40
29.63338016885174
 40
29.67075834996512
 40
29.70819241252905
 40
29.74327386556505
 40
29.78072785374629
 40
29.85378223610799
 40
29.93775766647308
 40
30.05216223785911
 40
30.14969127885737
 40
30.24829800418165
 40
30.34664251156605
 40
30.44365238654523
 40
30.56062330900252
 40
30.62388573456822
 40
30.69498323616108
 40
30.76767706991901
 40
30.83218668771073
 40
30.9049288563785
 40
30.98827928751102
 40
31.06102828515192
 40
31.14439394032796
 40
31.14439394032796
 40
31.14439394032796
 40
31.14439394032796
 10
-381.1962932460644
 20
473.3208863291618
 30
0.0
 10
-381.1986139309591
 20
473.2688398471745
 30
0.0
 10
-381.2032554183304
 20
473.1647439229962
 30
0.0
 10
-381.2392832593852
 20
473.018970205825
 30
0.0
 10
-381.2918888774363
 20
472.8862442181387
 30
0.0
 10
-381.3542942863993
 20
472.7761343626559
 30
0.0
 10
-381.4236757245059
 20
472.6822146607568
 30
0.0
 10
-381.4942639029058
 20
472.6054093783584
 30
0.0
 10
-381.5702233125884
 20
472.5381064027804
 30
0.0
 10
-381.6547165557184
 20
472.4769100216893
 30
0.0
 10
-381.7447484104265
 20
472.4253441710262
 30
0.0
 10
-381.8351493669168
 20
472.385524735743
 30
0.0
 10
-381.9152634774809
 20
472.3584401980305
 30
0.0
 10
-381.9781343179986
 20
472.3424051375141
 30
0.0
 10
-382.0257234412572
 20
472.3328551892809
 30
0.0
 10
-382.0618840203546
 20
472.3268102605833
 30
0.0
 10
-382.0981845363612
 20
472.3218602160307
 30
0.0
 10
-382.1501256910891
 20
472.3162012966059
 30
0.0
 10
-382.2303835975662
 20
472.3101712447328
 30
0.0
 10
-382.3332360461362
 20
472.3051071513715
 30
0.0
 10
-382.4561689317088
 20
472.3003794070834
 30
0.0
 10
-382.6006584371193
 20
472.2958690789071
 30
0.0
 10
-382.7897977043521
 20
472.290980069604
 30
0.0
 10
-383.0503374893154
 20
472.2853478435937
 30
0.0
 10
-383.3858031166455
 20
472.2793221842421
 30
0.0
 10
-383.796348615989
 20
472.2731220180746
 30
0.0
 10
-384.2594742288865
 20
472.2671342586243
 30
0.0
 10
-384.7725441885393
 20
472.2613790062052
 30
0.0
 10
-385.3807828339594
 20
472.2554060803035
 30
0.0
 10
-386.0888321055594
 20
472.2493814857704
 30
0.0
 10
-386.9007777815584
 20
472.2434372264307
 30
0.0
 10
-387.7722883268672
 20
472.2379442642039
 30
0.0
 10
-388.6990618579084
 20
472.2329307918071
 30
0.0
 10
-389.6166660075565
 20
472.2287018098885
 30
0.0
 10
-390.4906732863736
 20
472.2252562704552
 30
0.0
 10
-391.2836769321756
 20
472.2225624849233
 30
0.0
 10
-392.0154217705452
 20
472.2204222117842
 30
0.0
 10
-392.7507036660427
 20
472.2185708853919
 30
0.0
 10
-393.4939582586539
 20
472.217004250342
 30
0.0
 10
-394.2518080318396
 20
472.2157256029682
 30
0.0
 10
-394.9550260544302
 20
472.2148079688091
 30
0.0
 10
-395.5969328636974
 20
472.2141924837301
 30
0.0
 10
-396.569821438094
 20
472.2135619020598
 30
0.0
 10
-397.8837828022831
 20
472.2134661935671
 30
0.0
 10
-399.5450657385575
 20
472.2147900029813
 30
0.0
 10
-401.1571050360662
 20
472.2175371352059
 30
0.0
 10
-402.4732273498261
 20
472.2210672569444
 30
0.0
 10
-403.4801445576395
 20
472.2246228364736
 30
0.0
 10
-404.1710064120755
 20
472.2274769842475
 30
0.0
 10
-404.7738659485186
 20
472.2303241179033
 30
0.0
 10
-405.3321464161664
 20
472.2332823799568
 30
0.0
 10
-405.8865612878674
 20
472.2365639890941
 30
0.0
 10
-406.4715802241776
 20
472.2404752977727
 30
0.0
 10
-407.0606135667156
 20
472.2449781047752
 30
0.0
 10
-407.6254851386803
 20
472.2499620622941
 30
0.0
 10
-408.1431767345154
 20
472.2552635561075
 30
0.0
 10
-408.6047810096057
 20
472.2607918322117
 30
0.0
 10
-409.0113354054015
 20
472.2665461730729
 30
0.0
 10
-409.342190966323
 20
472.2721624112454
 30
0.0
 10
-409.6017511784574
 20
472.2775126190897
 30
0.0
 10
-409.7908952617358
 20
472.2822116151249
 30
0.0
 10
-409.9353892253057
 20
472.2865767897481
 30
0.0
 10
-410.058326798088
 20
472.2911810347907
 30
0.0
 10
-410.1611842827731
 20
472.2961418020041
 30
0.0
 10
-410.2414482048042
 20
472.302091223866
 30
0.0
 10
-410.2933950208483
 20
472.3076979628237
 30
0.0
 10
-410.3297004836357
 20
472.3126115329194
 30
0.0
 10
-410.3658671451057
 20
472.3186201502201
 30
0.0
 10
-410.4134656930476
 20
472.3281221925841
 30
0.0
 10
-410.4763537615406
 20
472.3440948295054
 30
0.0
 10
-410.5621856167328
 20
472.3730144620283
 30
0.0
 10
-410.6523432694111
 20
472.413581081655
 30
0.0
 10
-410.7418864563539
 20
472.4658225684658
 30
0.0
 10
-410.8215739484442
 20
472.5234132047641
 30
0.0
 10
-410.8950979479408
 20
472.5884289705651
 30
0.0
 10
-410.9661087238294
 20
472.6647680258852
 30
0.0
 10
-411.021613019816
 20
472.7389528588786
 30
0.0
 10
-411.0655893737722
 20
472.8103127632378
 30
0.0
 10
-411.0978062800675
 20
472.8714185873947
 30
0.0
 10
-411.1257221977876
 20
472.9350614264761
 30
0.0
 10
-411.1493865082626
 20
473.0009688179896
 30
0.0
 10
-411.1694813402801
 20
473.0717771288888
 30
0.0
 10
-411.1844219600881
 20
473.1466549710357
 30
0.0
 10
-411.1943444855701
 20
473.225966650928
 30
0.0
 10
-411.1956123899051
 20
473.2780205945097
 30
0.0
 10
-411.1962894615925
 20
473.3058175436468
 30
0.0
 11
-381.1962932460644
 21
473.3208863291618
 31
0.0
 11
-381.2083715177987
 21
473.1653736699928
 31
0.0
 11
-381.2444711904245
 21
473.0136184351203
 31
0.0
 11
-381.2947242964616
 21
472.8875782326106
 31
0.0
 11
-381.3615784133815
 21
472.7694676874987
 31
0.0
 11
-381.4251374635517
 21
472.6834450046962
 31
0.0
 11
-381.4975580469858
 21
472.6046410135357
 31
0.0
 11
-381.5711644786406
 21
472.5394203475793
 31
0.0
 11
-381.6510245335754
 21
472.4815786856325
 31
0.0
 11
-381.7512823881398
 21
472.4241473622088
 31
0.0
 11
-381.8394897633045
 21
472.3852804905903
 31
0.0
 11
-381.9190365774119
 21
472.3583699489111
 31
0.0
 11
-381.9898167809517
 21
472.3402838901803
 31
0.0
 11
-382.0265367235585
 21
472.3329050651587
 31
0.0
 11
-382.0611358962251
 21
472.3271080337863
 31
0.0
 11
-382.0982232657384
 21
472.3220251170002
 31
0.0
 11
-382.135377515943
 21
472.3179397624997
 31
0.0
 11
-382.2170382356736
 21
472.3114575275409
 31
0.0
 11
-382.3389758691401
 21
472.3050603607298
 31
0.0
 11
-382.4437900291781
 21
472.3009629829769
 31
0.0
 11
-382.585787592052
 21
472.2964430750577
 31
0.0
 11
-382.7724358332543
 21
472.2915443774429
 31
0.0
 11
-383.0112020282775
 21
472.2863106306035
 31
0.0
 11
-383.367406703433
 21
472.2798102091652
 31
0.0
 11
-383.7788284018058
 21
472.2735266969257
 31
0.0
 11
-384.2428310502859
 21
472.2674750647585
 31
0.0
 11
-384.7567785757636
 21
472.2616702835373
 31
0.0
 11
-385.3180349051289
 21
472.2561273241356
 31
0.0
 11
-386.0675468157183
 21
472.2497049117666
 31
0.0
 11
-386.8809257121335
 21
472.2437157284171
 31
0.0
 11
-387.7538696595287
 21
472.2381863295624
 31
0.0
 11
-388.682076723058
 21
472.2331432706775
 31
0.0
 11
-389.6612449678756
 21
472.2286131072377
 31
0.0
 11
-390.5066802887185
 21
472.2252722575016
 31
0.0
 11
-391.3040970904103
 21
472.2225583713536
 31
0.0
 11
-392.04025514987
 21
472.2204021898617
 31
0.0
 11
-392.7019142440165
 21
472.2187344540935
 31
0.0
 11
-393.5099426588968
 21
472.2170289431928
 31
0.0
 11
-394.270018817786
 21
472.2157451221473
 31
0.0
 11
-394.975463252127
 21
472.2148238473208
 31
0.0
 11
-395.6195964933629
 21
472.2142059750763
 31
0.0
 11
-396.1957390729366
 21
472.2138323617776
 31
0.0
 11
-397.8941291389206
 21
472.2137139015981
 31
0.0
 11
-399.5614793779164
 21
472.215058994862
 31
0.0
 11
-401.1795858784985
 21
472.217844841456
 31
0.0
 11
-402.7302447292407
 21
472.2220486412664
 31
0.0
 11
-403.5098467461844
 21
472.2248104321102
 31
0.0
 11
-404.20033965267
 21
472.2276708721836
 31
0.0
 11
-404.802830283772
 21
472.2305232688985
 31
0.0
 11
-405.3184254745649
 21
472.2332609296675
 31
0.0
 11
-405.8751806549521
 21
472.2365656650982
 31
0.0
 11
-406.4660735179999
 21
472.2405315942822
 31
0.0
 11
-407.0734802408057
 21
472.2451997181056
 31
0.0
 11
-407.6422782956017
 21
472.2502508402791
 31
0.0
 11
-408.160685749862
 21
472.2556008242742
 31
0.0
 11
-408.6265517547279
 21
472.2612343998753
 31
0.0
 11
-409.0270868093141
 21
472.2669692399186
 31
0.0
 11
-409.380342275353
 21
472.2730655983128
 31
0.0
 11
-409.619113607625
 21
472.2780594814358
 31
0.0
 11
-409.8057666758062
 21
472.2827706724481
 31
0.0
 11
-409.9477687076716
 21
472.2871479293835
 31
0.0
 11
-410.0525869309961
 21
472.291140010276
 31
0.0
 11
-410.1745309294579
 21
472.2974146770731
 31
0.0
 11
-410.2561981199195
 21
472.3038148735784
 31
0.0
 11
-410.2933564552944
 21
472.3078629013731
 31
0.0
 11
-410.3304489124882
 21
472.3129085581785
 31
0.0
 11
-410.3650538915771
 21
472.3186708288445
 31
0.0
 11
-410.4017812280497
 21
472.3260127617697
 31
0.0
 11
-410.4725795649994
 21
472.3440277066414
 31
0.0
 11
-410.5521533727776
 21
472.3708583231211
 31
0.0
 11
-410.6564761676578
 21
472.4178174579472
 31
0.0
 11
-410.7407152471857
 21
472.4669671401202
 31
0.0
 11
-410.8206333686563
 21
472.5247285465682
 31
0.0
 11
-410.8943052829758
 21
472.5898752357077
 31
0.0
 11
-410.9603757993111
 21
472.6609076413169
 31
0.0
 11
-411.030450430464
 21
472.7545652233212
 31
0.0
 11
-411.0636412491207
 21
472.8084215508442
 31
0.0
 11
-411.0967992751522
 21
472.8713135217326
 31
0.0
 11
-411.1259986110393
 21
472.9378852289872
 31
0.0
 11
-411.1478028646488
 21
472.9985982035183
 31
0.0
 11
-411.1676403209444
 21
473.0685831903468
 31
0.0
 11
-411.1840525574966
 21
473.1503018099078
 31
0.0
 11
-411.192775169396
 21
473.2225259923304
 31
0.0
 11
-411.1962894615925
 21
473.3058175436468
 31
0.0
  0
ARC
  5
E1
330
1F
100
AcDbEntity
  8
1
  6
Continuous
 62
     7
100
AcDbCircle
 10
851.2566425628797
 20
32.72432799210765
 30
0.0
 40
30.00000000000091
100
AcDbArc
 50
5.82958789628365
 51
90.0
  0
ARC
  5
E2
330
1F
100
AcDbEntity
  8
1
  6
Continuous
 62
     7
100
AcDbCircle
 10
799.1116244527266
 20
-584.192297147742
 30
0.0
 40
30.0
100
AcDbArc
 50
270.0
 51
0.0
  0
ARC
  5
E3
330
1F
100
AcDbEntity
  8
1
  6
Continuous
 62
     7
100
AcDbCircle
 10
784.7266212084121
 20
-94.33372476328896
 30
0.0
 40
20.0000000000001
100
AcDbArc
 50
261.7214802091339
 51
352.8696428894487
  0
ARC
  5
E4
330
1F
100
AcDbEntity
  8
1
  6
Continuous
 62
     7
100
AcDbCircle
 10
843.1020594420211
 20
152.2410086829167
 30
0.0
 40
20.0000000000001
100
AcDbArc
 50
356.8512989577521
 51
74.07878527679279
  0
ARC
  5
E5
330
1F
100
AcDbEntity
  8
1
  6
Continuous
 62
     7
100
AcDbCircle
 10
894.5011500962662
 20
-484.4709758735412
 30
0.0
 40
10.00000000000001
100
AcDbArc
 50
291.0369920155798
 51
359.3197537967424
  0
ARC
  5
E6
330
1F
100
AcDbEntity
  8
1
  6
Continuous
 62
     7
100
AcDbCircle
 10
837.9490522474468
 20
-484.2076569337506
 30
0.0
 40
10.0000000000004
100
AcDbArc
 50
186.8442217593802
 51
248.429448471686
  0
ARC
  5
E7
330
1F
100
AcDbEntity
  8
1
  6
Continuous
 62
     7
100
AcDbCircle
 10
326.9395748834915
 20
-484.2076569337506
 30
0.0
 40
10.00000000000006
100
AcDbArc
 50
291.5705515283142
 51
353.1557782406199
  0
ARC
  5
E8
330
1F
100
AcDbEntity
  8
1
  6
Continuous
 62
     7
100
AcDbCircle
 10
270.3874770346721
 20
-484.4709758735412
 30
0.0
 40
9.999999999999137
100
AcDbArc
 50
180.6802462032576
 51
248.9630079844208
  0
ARC
  5
E9
330
1F
100
AcDbEntity
  8
1
  6
Continuous
 62
     7
100
AcDbCircle
 10
321.7865676889173
 20
152.2410086829167
 30
0.0
 40
19.99999999999995
100
AcDbArc
 50
105.9212147232069
 51
183.148701042248
  0
ARC
  5
EA
330
1F
100
AcDbEntity
  8
1
  6
Continuous
 62
     7
100
AcDbCircle
 10
380.1620059225263
 20
-94.33372476328896
 30
0.0
 40
19.99999999999982
100
AcDbArc
 50
187.1303571105513
 51
278.2785197908659
  0
ARC
  5
EB
330
1F
100
AcDbEntity
  8
1
  6
Continuous
 62
     7
100
AcDbCircle
 10
365.7770026782118
 20
-584.192297147742
 30
0.0
 40
30.0
100
AcDbArc
 50
180.0
 51
270.0
  0
ARC
  5
EC
330
1F
100
AcDbEntity
  8
1
  6
Continuous
 62
     7
100
AcDbCircle
 10
313.6319845680587
 20
32.72432799210765
 30
0.0
 40
30.0
100
AcDbArc
 50
90.0
 51
174.1704121037164
  0
ENDSEC
  0
SECTION
  2
OBJECTS
  0
DICTIONARY
  5
C
330
0
100
AcDbDictionary
281
     1
  3
ACAD_GROUP
350
D
  3
ACAD_LAYOUT
350
1A
  3
ACAD_MATERIAL
350
43
  3
ACAD_MLEADERSTYLE
350
EF
  3
ACAD_MLINESTYLE
350
17
  3
ACAD_PLOTSETTINGS
350
19
  3
ACAD_PLOTSTYLENAME
350
E
  3
ACAD_SCALELIST
350
47
  3
ACAD_VISUALSTYLE
350
2A
  3
AcDbVariableDictionary
350
ED
  0
DICTIONARY
  5
D
102
{ACAD_REACTORS
330
C
102
}
330
C
100
AcDbDictionary
281
     1
  0
DICTIONARY
  5
1A
102
{ACAD_REACTORS
330
C
102
}
330
C
100
AcDbDictionary
281
     1
  3
Layout1
350
1E
  3
Layout2
350
26
  3
Model
350
22
  0
DICTIONARY
  5
43
102
{ACAD_REACTORS
330
C
102
}
330
C
100
AcDbDictionary
281
     1
  3
ByBlock
350
45
  3
ByLayer
350
44
  3
Global
350
46
  0
DICTIONARY
  5
EF
102
{ACAD_REACTORS
330
C
102
}
330
C
100
AcDbDictionary
281
     1
  0
DICTIONARY
  5
17
102
{ACAD_REACTORS
330
C
102
}
330
C
100
AcDbDictionary
281
     1
  3
Standard
350
18
  0
DICTIONARY
  5
19
102
{ACAD_REACTORS
330
C
102
}
330
C
100
AcDbDictionary
281
     1
  0
ACDBDICTIONARYWDFLT
  5
E
102
{ACAD_REACTORS
330
C
102
}
330
C
100
AcDbDictionary
281
     1
  3
Normal
350
F
100
AcDbDictionaryWithDefault
340
F
  0
DICTIONARY
  5
47
102
{ACAD_REACTORS
330
C
102
}
330
C
100
AcDbDictionary
281
     1
  3
A0
350
48
  3
A1
350
49
  3
A2
350
4A
  3
A3
350
4B
  3
A4
350
4C
  3
A5
350
4D
  3
A6
350
4E
  3
A7
350
4F
  3
A8
350
50
  3
A9
350
51
  3
B0
350
52
  3
B1
350
53
  3
B2
350
54
  3
B3
350
55
  3
B4
350
56
  3
B5
350
57
  3
B6
350
58
  3
B7
350
59
  3
B8
350
5A
  3
B9
350
5B
  3
C0
350
5C
  3
C1
350
5D
  3
C2
350
5E
  3
C3
350
5F
  3
C4
350
60
  3
C5
350
61
  3
C6
350
62
  3
C7
350
63
  3
C8
350
64
  3
C9
350
65
  3
D0
350
66
  3
D1
350
67
  3
D2
350
68
  0
DICTIONARY
  5
2A
102
{ACAD_REACTORS
330
C
102
}
330
C
100
AcDbDictionary
281
     1
  3
2dWireframe
350
2F
  3
Basic
350
32
  3
Brighten
350
36
  3
ColorChange
350
3A
  3
Conceptual
350
34
  3
Dim
350
35
  3
EdgeColorOff
350
3D
  3
Facepattern
350
39
  3
Flat
350
2B
  3
FlatWithEdges
350
2C
  3
Gouraud
350
2D
  3
GouraudWithEdges
350
2E
  3
Hidden
350
31
  3
JitterOff
350
3B
  3
Linepattern
350
38
  3
OverhangOff
350
3C
  3
Realistic
350
33
  3
Shaded
350
42
  3
Shaded with edges
350
41
  3
Shades of Gray
350
3E
  3
Sketchy
350
3F
  3
Thicken
350
37
  3
Wireframe
350
30
  3
X-Ray
350
40
  0
DICTIONARY
  5
ED
102
{ACAD_REACTORS
330
C
102
}
330
C
100
AcDbDictionary
281
     1
  3
CANNOSCALE
350
F4
  3
DIMASSOC
350
F2
  3
HIDETEXT
350
F3
  3
MSLTSCALE
350
F5
  0
LAYOUT
  5
1E
102
{ACAD_REACTORS
330
1A
102
}
330
1A
100
AcDbPlotSettings
  1

  2
none_device
  4

  6

 40
0.0
 41
0.0
 42
0.0
 43
0.0
 44
0.0
 45
0.0
 46
0.0
 47
0.0
 48
0.0
 49
0.0
140
0.0
141
0.0
142
1.0
143
1.0
 70
   688
 72
     0
 73
     0
 74
     5
  7

 75
    16
147
1.0
148
0.0
149
0.0
100
AcDbLayout
  1
Layout1
 70
     1
 71
     1
 10
0.0
 20
0.0
 11
12.0
 21
9.0
 12
0.0
 22
0.0
 32
0.0
 14
1.00000000000000E+20
 24
1.00000000000000E+20
 34
1.00000000000000E+20
 15
-1.00000000000000E+20
 25
-1.00000000000000E+20
 35
-1.00000000000000E+20
146
0.0
 13
0.0
 23
0.0
 33
0.0
 16
1.0
 26
0.0
 36
0.0
 17
0.0
 27
1.0
 37
0.0
 76
     0
330
1B
  0
LAYOUT
  5
26
102
{ACAD_REACTORS
330
1A
102
}
330
1A
100
AcDbPlotSettings
  1

  2
none_device
  4

  6

 40
0.0
 41
0.0
 42
0.0
 43
0.0
 44
0.0
 45
0.0
 46
0.0
 47
0.0
 48
0.0
 49
0.0
140
0.0
141
0.0
142
1.0
143
1.0
 70
   688
 72
     0
 73
     0
 74
     5
  7

 75
    16
147
1.0
148
0.0
149
0.0
100
AcDbLayout
  1
Layout2
 70
     1
 71
     2
 10
0.0
 20
0.0
 11
0.0
 21
0.0
 12
0.0
 22
0.0
 32
0.0
 14
0.0
 24
0.0
 34
0.0
 15
0.0
 25
0.0
 35
0.0
146
0.0
 13
0.0
 23
0.0
 33
0.0
 16
1.0
 26
0.0
 36
0.0
 17
0.0
 27
1.0
 37
0.0
 76
     0
330
23
  0
LAYOUT
  5
22
102
{ACAD_REACTORS
330
1A
102
}
330
1A
100
AcDbPlotSettings
  1

  2
none_device
  4
Letter_(8.50_x_11.00_Inches)
  6

 40
6.35
 41
6.35
 42
6.35000508
 43
6.35000508
 44
215.9
 45
279.4
 46
0.0
 47
0.0
 48
0.0
 49
0.0
140
0.0
141
0.0
142
1.0
143
1.0
 70
  1712
 72
     0
 73
     0
 74
     0
  7

 75
     0
147
1.0
148
0.0
149
0.0
100
AcDbLayout
  1
Model
 70
     1
 71
     0
 10
0.0
 20
0.0
 11
12.0
 21
9.0
 12
0.0
 22
0.0
 32
0.0
 14
-626.4893193949891
 24
-614.192297147742
 34
0.0
 15
905.565681537159
 25
1413.033898634781
 35
0.0
146
0.0
 13
0.0
 23
0.0
 33
0.0
 16
1.0
 26
0.0
 36
0.0
 17
0.0
 27
1.0
 37
0.0
 76
     0
330
1F
331
29
  0
MATERIAL
  5
45
102
{ACAD_REACTORS
330
43
102
}
102
{ACAD_XDICTIONARY
360
128
102
}
330
43
100
AcDbMaterial
  1
ByBlock
  0
MATERIAL
  5
44
102
{ACAD_REACTORS
330
43
102
}
102
{ACAD_XDICTIONARY
360
126
102
}
330
43
100
AcDbMaterial
  1
ByLayer
  0
MATERIAL
  5
46
102
{ACAD_REACTORS
330
43
102
}
102
{ACAD_XDICTIONARY
360
12A
102
}
330
43
100
AcDbMaterial
  1
Global
  0
MLINESTYLE
  5
18
102
{ACAD_REACTORS
330
17
102
}
330
17
100
AcDbMlineStyle
  2
Standard
 70
     0
  3

 62
   256
 51
90.0
 52
90.0
 71
     2
 49
0.5
 62
   256
  6
BYLAYER
 49
-0.5
 62
   256
  6
BYLAYER
  0
ACDBPLACEHOLDER
  5
F
102
{ACAD_REACTORS
330
E
102
}
330
E
  0
SCALE
  5
48
102
{ACAD_REACTORS
330
47
102
}
330
47
100
AcDbScale
 70
     0
300
1:1
140
1.0
141
1.0
290
     1
  0
SCALE
  5
49
102
{ACAD_REACTORS
330
47
102
}
330
47
100
AcDbScale
 70
     0
300
1:2
140
1.0
141
2.0
290
     0
  0
SCALE
  5
4A
102
{ACAD_REACTORS
330
47
102
}
330
47
100
AcDbScale
 70
     0
300
1:4
140
1.0
141
4.0
290
     0
  0
SCALE
  5
4B
102
{ACAD_REACTORS
330
47
102
}
330
47
100
AcDbScale
 70
     0
300
1:5
140
1.0
141
5.0
290
     0
  0
SCALE
  5
4C
102
{ACAD_REACTORS
330
47
102
}
330
47
100
AcDbScale
 70
     0
300
1:8
140
1.0
141
8.0
290
     0
  0
SCALE
  5
4D
102
{ACAD_REACTORS
330
47
102
}
330
47
100
AcDbScale
 70
     0
300
1:10
140
1.0
141
10.0
290
     0
  0
SCALE
  5
4E
102
{ACAD_REACTORS
330
47
102
}
330
47
100
AcDbScale
 70
     0
300
1:16
140
1.0
141
16.0
290
     0
  0
SCALE
  5
4F
102
{ACAD_REACTORS
330
47
102
}
330
47
100
AcDbScale
 70
     0
300
1:20
140
1.0
141
20.0
290
     0
  0
SCALE
  5
50
102
{ACAD_REACTORS
330
47
102
}
330
47
100
AcDbScale
 70
     0
300
1:30
140
1.0
141
30.0
290
     0
  0
SCALE
  5
51
102
{ACAD_REACTORS
330
47
102
}
330
47
100
AcDbScale
 70
     0
300
1:40
140
1.0
141
40.0
290
     0
  0
SCALE
  5
52
102
{ACAD_REACTORS
330
47
102
}
330
47
100
AcDbScale
 70
     0
300
1:50
140
1.0
141
50.0
290
     0
  0
SCALE
  5
53
102
{ACAD_REACTORS
330
47
102
}
330
47
100
AcDbScale
 70
     0
300
1:100
140
1.0
141
100.0
290
     0
  0
SCALE
  5
54
102
{ACAD_REACTORS
330
47
102
}
330
47
100
AcDbScale
 70
     0
300
2:1
140
2.0
141
1.0
290
     0
  0
SCALE
  5
55
102
{ACAD_REACTORS
330
47
102
}
330
47
100
AcDbScale
 70
     0
300
4:1
140
4.0
141
1.0
290
     0
  0
SCALE
  5
56
102
{ACAD_REACTORS
330
47
102
}
330
47
100
AcDbScale
 70
     0
300
8:1
140
8.0
141
1.0
290
     0
  0
SCALE
  5
57
102
{ACAD_REACTORS
330
47
102
}
330
47
100
AcDbScale
 70
     0
300
10:1
140
10.0
141
1.0
290
     0
  0
SCALE
  5
58
102
{ACAD_REACTORS
330
47
102
}
330
47
100
AcDbScale
 70
     0
300
100:1
140
100.0
141
1.0
290
     0
  0
SCALE
  5
59
102
{ACAD_REACTORS
330
47
102
}
330
47
100
AcDbScale
 70
     0
300
1/128" = 1'-0"
140
0.0078125
141
12.0
290
     0
  0
SCALE
  5
5A
102
{ACAD_REACTORS
330
47
102
}
330
47
100
AcDbScale
 70
     0
300
1/64" = 1'-0"
140
0.015625
141
12.0
290
     0
  0
SCALE
  5
5B
102
{ACAD_REACTORS
330
47
102
}
330
47
100
AcDbScale
 70
     0
300
1/32" = 1'-0"
140
0.03125
141
12.0
290
     0
  0
SCALE
  5
5C
102
{ACAD_REACTORS
330
47
102
}
330
47
100
AcDbScale
 70
     0
300
1/16" = 1'-0"
140
0.0625
141
12.0
290
     0
  0
SCALE
  5
5D
102
{ACAD_REACTORS
330
47
102
}
330
47
100
AcDbScale
 70
     0
300
3/32" = 1'-0"
140
0.09375
141
12.0
290
     0
  0
SCALE
  5
5E
102
{ACAD_REACTORS
330
47
102
}
330
47
100
AcDbScale
 70
     0
300
1/8" = 1'-0"
140
0.125
141
12.0
290
     0
  0
SCALE
  5
5F
102
{ACAD_REACTORS
330
47
102
}
330
47
100
AcDbScale
 70
     0
300
3/16" = 1'-0"
140
0.1875
141
12.0
290
     0
  0
SCALE
  5
60
102
{ACAD_REACTORS
330
47
102
}
330
47
100
AcDbScale
 70
     0
300
1/4" = 1'-0"
140
0.25
141
12.0
290
     0
  0
SCALE
  5
61
102
{ACAD_REACTORS
330
47
102
}
330
47
100
AcDbScale
 70
     0
300
3/8" = 1'-0"
140
0.375
141
12.0
290
     0
  0
SCALE
  5
62
102
{ACAD_REACTORS
330
47
102
}
330
47
100
AcDbScale
 70
     0
300
1/2" = 1'-0"
140
0.5
141
12.0
290
     0
  0
SCALE
  5
63
102
{ACAD_REACTORS
330
47
102
}
330
47
100
AcDbScale
 70
     0
300
3/4" = 1'-0"
140
0.75
141
12.0
290
     0
  0
SCALE
  5
64
102
{ACAD_REACTORS
330
47
102
}
330
47
100
AcDbScale
 70
     0
300
1" = 1'-0"
140
1.0
141
12.0
290
     0
  0
SCALE
  5
65
102
{ACAD_REACTORS
330
47
102
}
330
47
100
AcDbScale
 70
     0
300
1-1/2" = 1'-0"
140
1.5
141
12.0
290
     0
  0
SCALE
  5
66
102
{ACAD_REACTORS
330
47
102
}
330
47
100
AcDbScale
 70
     0
300
3" = 1'-0"
140
3.0
141
12.0
290
     0
  0
SCALE
  5
67
102
{ACAD_REACTORS
330
47
102
}
330
47
100
AcDbScale
 70
     0
300
6" = 1'-0"
140
6.0
141
12.0
290
     0
  0
SCALE
  5
68
102
{ACAD_REACTORS
330
47
102
}
330
47
100
AcDbScale
 70
     0
300
1'-0" = 1'-0"
140
12.0
141
12.0
290
     0
  0
VISUALSTYLE
  5
2F
102
{ACAD_REACTORS
330
2A
102
}
102
{ACAD_XDICTIONARY
360
FE
102
}
330
2A
100
AcDbVisualStyle
  2
2dWireframe
 70
     4
 71
     0
 72
     2
 73
     0
 90
        0
 40
0.6
 41
30.0
 62
     5
 63
     7
 74
     1
 91
        4
 64
     7
 65
   257
 75
     1
175
     1
 42
1.0
 92
        0
 66
   257
 43
1.0
 76
     1
 77
     6
 78
     2
 67
     7
 79
     5
170
     0
171
     0
290
     0
174
     0
 93
        1
 44
0.0
173
     0
291
     0
 45
0.0
1001
ACAD
1000
AcDbSavedByObjectVersion
1070
     0
  0
VISUALSTYLE
  5
32
102
{ACAD_REACTORS
330
2A
102
}
102
{ACAD_XDICTIONARY
360
104
102
}
330
2A
100
AcDbVisualStyle
  2
Basic
 70
     7
 71
     1
 72
     0
 73
     1
 90
        0
 40
0.6
 41
30.0
 62
     5
 63
     7
 74
     0
 91
        4
 64
     7
 65
   257
 75
     1
175
     1
 42
1.0
 92
        8
 66
     7
 43
1.0
 76
     1
 77
     6
 78
     2
 67
     7
 79
     5
170
     0
171
     0
290
     0
174
     0
 93
        1
 44
0.0
173
     0
291
     1
 45
0.0
1001
ACAD
1000
AcDbSavedByObjectVersion
1070
     0
  0
VISUALSTYLE
  5
36
102
{ACAD_REACTORS
330
2A
102
}
102
{ACAD_XDICTIONARY
360
10C
102
}
330
2A
100
AcDbVisualStyle
  2
Brighten
 70
    12
 71
     2
 72
     2
 73
     0
 90
        0
 40
0.6
 41
30.0
 62
     5
 63
     7
 74
     1
 91
        4
 64
     7
 65
   257
 75
     1
175
     1
 42
1.0
 92
        8
 66
     7
 43
1.0
 76
     1
 77
     6
 78
     2
 67
     7
 79
     5
170
     0
171
     0
290
     0
174
     0
 93
        1
 44
50.0
173
     0
291
     1
 45
0.0
1001
ACAD
1000
AcDbSavedByObjectVersion
1070
     0
  0
VISUALSTYLE
  5
3A
102
{ACAD_REACTORS
330
2A
102
}
102
{ACAD_XDICTIONARY
360
114
102
}
330
2A
100
AcDbVisualStyle
  2
ColorChange
 70
    16
 71
     2
 72
     2
 73
     3
 90
        0
 40
0.6
 41
30.0
 62
     5
 63
     8
 74
     1
 91
        4
 64
     7
 65
   257
 75
     1
175
     1
 42
1.0
 92
        8
 66
     8
 43
1.0
 76
     1
 77
     6
 78
     2
 67
     7
 79
     5
170
     0
171
     0
290
     0
174
     0
 93
        1
 44
0.0
173
     0
291
     1
 45
0.0
1001
ACAD
1000
AcDbSavedByObjectVersion
1070
     0
  0
VISUALSTYLE
  5
34
102
{ACAD_REACTORS
330
2A
102
}
102
{ACAD_XDICTIONARY
360
108
102
}
330
2A
100
AcDbVisualStyle
  2
Conceptual
 70
     9
 71
     3
 72
     2
 73
     0
 90
        0
 40
0.6
 41
30.0
 62
     5
 63
     7
 74
     2
 91
        2
 64
     7
 65
   257
 75
     1
175
     1
 42
179.0
 92
        8
 66
     7
 43
1.0
 76
     1
 77
     6
 78
     2
 67
     7
 79
     3
170
     0
171
     0
290
     0
174
     0
 93
        1
 44
0.0
173
     0
291
     0
 45
0.0
1001
ACAD
1000
AcDbSavedByObjectVersion
1070
     0
  0
VISUALSTYLE
  5
35
102
{ACAD_REACTORS
330
2A
102
}
102
{ACAD_XDICTIONARY
360
10A
102
}
330
2A
100
AcDbVisualStyle
  2
Dim
 70
    11
 71
     2
 72
     2
 73
     0
 90
        0
 40
0.6
 41
30.0
 62
     5
 63
     7
 74
     1
 91
        4
 64
     7
 65
   257
 75
     1
175
     1
 42
1.0
 92
        8
 66
     7
 43
1.0
 76
     1
 77
     6
 78
     2
 67
     7
 79
     5
170
     0
171
     0
290
     0
174
     0
 93
        1
 44
-50.0
173
     0
291
     1
 45
0.0
1001
ACAD
1000
AcDbSavedByObjectVersion
1070
     0
  0
VISUALSTYLE
  5
3D
102
{ACAD_REACTORS
330
2A
102
}
102
{ACAD_XDICTIONARY
360
11A
102
}
330
2A
100
AcDbVisualStyle
  2
EdgeColorOff
 70
    22
 71
     2
 72
     2
 73
     0
 90
        0
 40
0.6
 41
30.0
 62
     5
 63
     7
 74
     1
 91
        4
 64
     7
 65
   257
 75
     1
175
     1
 42
1.0
 92
        8
 66
     7
 43
1.0
 76
     1
 77
     6
 78
     2
 67
     7
 79
     5
170
     0
171
     0
290
     0
174
     0
 93
        1
 44
0.0
173
     0
291
     1
 45
0.0
1001
ACAD
1000
AcDbSavedByObjectVersion
1070
     0
  0
VISUALSTYLE
  5
39
102
{ACAD_REACTORS
330
2A
102
}
102
{ACAD_XDICTIONARY
360
112
102
}
330
2A
100
AcDbVisualStyle
  2
Facepattern
 70
    15
 71
     2
 72
     2
 73
     0
 90
        0
 40
0.6
 41
30.0
 62
     5
 63
     7
 74
     1
 91
        4
 64
     7
 65
   257
 75
     1
175
     1
 42
1.0
 92
        8
 66
     7
 43
1.0
 76
     1
 77
     6
 78
     2
 67
     7
 79
     5
170
     0
171
     0
290
     0
174
     0
 93
        1
 44
0.0
173
     0
291
     1
 45
0.0
1001
ACAD
1000
AcDbSavedByObjectVersion
1070
     0
  0
VISUALSTYLE
  5
2B
102
{ACAD_REACTORS
330
2A
102
}
102
{ACAD_XDICTIONARY
360
F6
102
}
330
2A
100
AcDbVisualStyle
  2
Flat
 70
     0
 71
     2
 72
     1
 73
     1
 90
        2
 40
0.6
 41
30.0
 62
     5
 63
     7
 74
     0
 91
        0
 64
     7
 65
   257
 75
     1
175
     1
 42
1.0
 92
        8
 66
     7
 43
1.0
 76
     1
 77
     6
 78
     2
 67
     7
 79
     5
170
     0
171
     0
290
     0
174
     0
 93
       13
 44
0.0
173
     0
291
     1
 45
0.0
1001
ACAD
1000
AcDbSavedByObjectVersion
1070
     0
  0
VISUALSTYLE
  5
2C
102
{ACAD_REACTORS
330
2A
102
}
102
{ACAD_XDICTIONARY
360
F8
102
}
330
2A
100
AcDbVisualStyle
  2
FlatWithEdges
 70
     1
 71
     2
 72
     1
 73
     1
 90
        2
 40
0.6
 41
30.0
 62
     5
 63
     7
 74
     1
 91
        0
 64
     7
 65
   257
 75
     1
175
     1
 42
1.0
 92
        0
 66
   257
 43
1.0
 76
     1
 77
     6
 78
     2
 67
     7
 79
     5
170
     0
171
     0
290
     0
174
     0
 93
       13
 44
0.0
173
     0
291
     1
 45
0.0
1001
ACAD
1000
AcDbSavedByObjectVersion
1070
     0
  0
VISUALSTYLE
  5
2D
102
{ACAD_REACTORS
330
2A
102
}
102
{ACAD_XDICTIONARY
360
FA
102
}
330
2A
100
AcDbVisualStyle
  2
Gouraud
 70
     2
 71
     2
 72
     2
 73
     1
 90
        2
 40
0.6
 41
30.0
 62
     5
 63
     7
 74
     0
 91
        0
 64
     7
 65
   257
 75
     1
175
     1
 42
1.0
 92
        0
 66
     7
 43
1.0
 76
     1
 77
     6
 78
     2
 67
     7
 79
     5
170
     0
171
     0
290
     0
174
     0
 93
       13
 44
0.0
173
     0
291
     1
 45
0.0
1001
ACAD
1000
AcDbSavedByObjectVersion
1070
     0
  0
VISUALSTYLE
  5
2E
102
{ACAD_REACTORS
330
2A
102
}
102
{ACAD_XDICTIONARY
360
FC
102
}
330
2A
100
AcDbVisualStyle
  2
GouraudWithEdges
 70
     3
 71
     2
 72
     2
 73
     1
 90
        2
 40
0.6
 41
30.0
 62
     5
 63
     7
 74
     1
 91
        0
 64
     7
 65
   257
 75
     1
175
     1
 42
1.0
 92
        0
 66
   257
 43
1.0
 76
     1
 77
     6
 78
     2
 67
     7
 79
     5
170
     0
171
     0
290
     0
174
     0
 93
       13
 44
0.0
173
     0
291
     1
 45
0.0
1001
ACAD
1000
AcDbSavedByObjectVersion
1070
     0
  0
VISUALSTYLE
  5
31
102
{ACAD_REACTORS
330
2A
102
}
102
{ACAD_XDICTIONARY
360
102
102
}
330
2A
100
AcDbVisualStyle
  2
Hidden
 70
     6
 71
     1
 72
     2
 73
     2
 90
        0
 40
0.6
 41
30.0
 62
     5
 63
     7
 74
     2
 91
        2
 64
     7
 65
   257
 75
     2
175
     1
 42
40.0
 92
        0
 66
   257
 43
1.0
 76
     1
 77
     6
 78
     2
 67
     7
 79
     3
170
     0
171
     0
290
     0
174
     0
 93
        1
 44
0.0
173
     0
291
     0
 45
0.0
1001
ACAD
1000
AcDbSavedByObjectVersion
1070
     0
  0
VISUALSTYLE
  5
3B
102
{ACAD_REACTORS
330
2A
102
}
102
{ACAD_XDICTIONARY
360
116
102
}
330
2A
100
AcDbVisualStyle
  2
JitterOff
 70
    20
 71
     2
 72
     2
 73
     0
 90
        0
 40
0.6
 41
30.0
 62
     5
 63
     7
 74
     1
 91
        4
 64
     7
 65
   257
 75
     1
175
     1
 42
1.0
 92
       10
 66
     7
 43
1.0
 76
     1
 77
     6
 78
     2
 67
     7
 79
     5
170
     0
171
     0
290
     0
174
     0
 93
        1
 44
0.0
173
     0
291
     1
 45
0.0
1001
ACAD
1000
AcDbSavedByObjectVersion
1070
     0
  0
VISUALSTYLE
  5
38
102
{ACAD_REACTORS
330
2A
102
}
102
{ACAD_XDICTIONARY
360
110
102
}
330
2A
100
AcDbVisualStyle
  2
Linepattern
 70
    14
 71
     2
 72
     2
 73
     0
 90
        0
 40
0.6
 41
30.0
 62
     5
 63
     7
 74
     1
 91
        4
 64
     7
 65
   257
 75
     7
175
     7
 42
1.0
 92
        8
 66
     7
 43
1.0
 76
     1
 77
     6
 78
     2
 67
     7
 79
     5
170
     0
171
     0
290
     0
174
     0
 93
        1
 44
0.0
173
     0
291
     1
 45
0.0
1001
ACAD
1000
AcDbSavedByObjectVersion
1070
     0
  0
VISUALSTYLE
  5
3C
102
{ACAD_REACTORS
330
2A
102
}
102
{ACAD_XDICTIONARY
360
118
102
}
330
2A
100
AcDbVisualStyle
  2
OverhangOff
 70
    21
 71
     2
 72
     2
 73
     0
 90
        0
 40
0.6
 41
30.0
 62
     5
 63
     7
 74
     1
 91
        4
 64
     7
 65
   257
 75
     1
175
     1
 42
1.0
 92
        9
 66
     7
 43
1.0
 76
     1
 77
     6
 78
     2
 67
     7
 79
     5
170
     0
171
     0
290
     0
174
     0
 93
        1
 44
0.0
173
     0
291
     1
 45
0.0
1001
ACAD
1000
AcDbSavedByObjectVersion
1070
     0
  0
VISUALSTYLE
  5
33
102
{ACAD_REACTORS
330
2A
102
}
102
{ACAD_XDICTIONARY
360
106
102
}
330
2A
100
AcDbVisualStyle
  2
Realistic
 70
     8
 71
     2
 72
     3
 73
     0
 90
        2
 40
0.6
 41
30.0
 62
     5
 63
     7
 74
     0
 91
        0
 64
     7
 65
   257
 75
     1
175
     1
 42
1.0
 92
        8
 66
   257
 43
1.0
 76
     1
 77
     6
 78
     2
 67
     7
 79
     3
170
     0
171
     0
290
     0
174
     0
 93
       13
 44
0.0
173
     0
291
     0
 45
0.0
1001
ACAD
1000
AcDbSavedByObjectVersion
1070
     0
  0
VISUALSTYLE
  5
42
102
{ACAD_REACTORS
330
2A
102
}
102
{ACAD_XDICTIONARY
360
124
102
}
330
2A
100
AcDbVisualStyle
  2
Shaded
 70
    27
 71
     2
 72
     2
 73
     1
 90
        2
 40
0.6
 41
30.0
 62
     5
 63
     7
 74
     0
 91
        4
 64
     7
 65
   257
 75
     1
175
     1
 42
1.0
 92
        8
 66
   257
 43
1.0
 76
     1
 77
     6
 78
     2
 67
     8
 79
     3
170
     0
171
     0
290
     0
174
     0
 93
        5
 44
0.0
173
     0
291
     0
 45
0.0
1001
ACAD
1000
AcDbSavedByObjectVersion
1070
     0
  0
VISUALSTYLE
  5
41
102
{ACAD_REACTORS
330
2A
102
}
102
{ACAD_XDICTIONARY
360
122
102
}
330
2A
100
AcDbVisualStyle
  2
Shaded with edges
 70
    26
 71
     2
 72
     2
 73
     1
 90
        2
 40
0.6
 41
30.0
 62
     5
 63
     7
 74
     1
 91
       10
 64
     7
 65
   257
 75
     2
175
     1
 42
1.0
 92
        8
 66
   257
 43
1.0
 76
     1
 77
     6
 78
     2
 67
     7
 79
     3
170
     0
171
     0
290
     0
174
     0
 93
        5
 44
0.0
173
     0
291
     0
 45
0.0
1001
ACAD
1000
AcDbSavedByObjectVersion
1070
     0
  0
VISUALSTYLE
  5
3E
102
{ACAD_REACTORS
330
2A
102
}
102
{ACAD_XDICTIONARY
360
11C
102
}
330
2A
100
AcDbVisualStyle
  2
Shades of Gray
 70
    23
 71
     2
 72
     2
 73
     3
 90
        0
 40
0.6
 41
30.0
 62
     5
 63
     7
 74
     2
 91
        2
 64
     7
 65
     7
 75
     1
175
     1
 42
40.0
 92
        8
 66
     7
 43
1.0
 76
     1
 77
     6
 78
     2
 67
     7
 79
     3
170
     0
171
     0
290
     0
174
     0
 93
        1
 44
0.0
173
     0
291
     0
 45
0.0
1001
ACAD
1000
AcDbSavedByObjectVersion
1070
     0
  0
VISUALSTYLE
  5
3F
102
{ACAD_REACTORS
330
2A
102
}
102
{ACAD_XDICTIONARY
360
11E
102
}
330
2A
100
AcDbVisualStyle
  2
Sketchy
 70
    24
 71
     1
 72
     2
 73
     2
 90
        0
 40
0.6
 41
30.0
 62
     5
 63
     7
 74
     2
 91
        2
 64
     7
 65
     7
 75
     1
175
     1
 42
40.0
 92
       11
 66
     7
 43
1.0
 76
     1
 77
     6
 78
     2
 67
     7
 79
     6
170
     0
171
     0
290
     0
174
     0
 93
        1
 44
0.0
173
     0
291
     0
 45
0.0
1001
ACAD
1000
AcDbSavedByObjectVersion
1070
     0
  0
VISUALSTYLE
  5
37
102
{ACAD_REACTORS
330
2A
102
}
102
{ACAD_XDICTIONARY
360
10E
102
}
330
2A
100
AcDbVisualStyle
  2
Thicken
 70
    13
 71
     2
 72
     2
 73
     0
 90
        0
 40
0.6
 41
30.0
 62
     5
 63
     7
 74
     1
 91
        4
 64
     7
 65
   257
 75
     1
175
     1
 42
1.0
 92
       12
 66
     7
 43
1.0
 76
     1
 77
     6
 78
     2
 67
     7
 79
     5
170
     0
171
     0
290
     0
174
     0
 93
        1
 44
0.0
173
     0
291
     1
 45
0.0
1001
ACAD
1000
AcDbSavedByObjectVersion
1070
     0
  0
VISUALSTYLE
  5
30
102
{ACAD_REACTORS
330
2A
102
}
102
{ACAD_XDICTIONARY
360
100
102
}
330
2A
100
AcDbVisualStyle
  2
Wireframe
 70
     5
 71
     0
 72
     2
 73
     0
 90
        0
 40
0.6
 41
30.0
 62
     5
 63
     7
 74
     1
 91
        4
 64
     7
 65
   257
 75
     1
175
     1
 42
1.0
 92
        0
 66
   257
 43
1.0
 76
     1
 77
     6
 78
     2
 67
     7
 79
     3
170
     0
171
     0
290
     0
174
     0
 93
        1
 44
0.0
173
     0
291
     0
 45
0.0
1001
ACAD
1000
AcDbSavedByObjectVersion
1070
     0
  0
VISUALSTYLE
  5
40
102
{ACAD_REACTORS
330
2A
102
}
102
{ACAD_XDICTIONARY
360
120
102
}
330
2A
100
AcDbVisualStyle
  2
X-Ray
 70
    25
 71
     2
 72
     2
 73
     1
 90
        1
 40
0.5
 41
30.0
 62
     5
 63
     7
 74
     1
 91
        0
 64
     7
 65
   257
 75
     1
175
     1
 42
1.0
 92
        8
 66
     7
 43
1.0
 76
     1
 77
     6
 78
     2
 67
     7
 79
     3
170
     0
171
     0
290
     0
174
     0
 93
       13
 44
0.0
173
     0
291
     0
 45
0.0
1001
ACAD
1000
AcDbSavedByObjectVersion
1070
     0
  0
DICTIONARYVAR
  5
F4
102
{ACAD_REACTORS
330
ED
102
}
330
ED
100
DictionaryVariables
280
     0
  1
1:1
  0
DICTIONARYVAR
  5
F2
102
{ACAD_REACTORS
330
ED
102
}
330
ED
100
DictionaryVariables
280
     0
  1
2
  0
DICTIONARYVAR
  5
F3
102
{ACAD_REACTORS
330
ED
102
}
330
ED
100
DictionaryVariables
280
     0
  1
1
  0
DICTIONARYVAR
  5
F5
102
{ACAD_REACTORS
330
ED
102
}
330
ED
100
DictionaryVariables
280
     0
  1
1
  0
DICTIONARY
  5
128
330
45
100
AcDbDictionary
280
     1
281
     1
  3
ACAD_XREC_ROUNDTRIP
360
129
  0
DICTIONARY
  5
126
330
44
100
AcDbDictionary
280
     1
281
     1
  3
ACAD_XREC_ROUNDTRIP
360
127
  0
DICTIONARY
  5
12A
330
46
100
AcDbDictionary
280
     1
281
     1
  3
ACAD_XREC_ROUNDTRIP
360
12B
  0
DICTIONARY
  5
FE
330
2F
100
AcDbDictionary
280
     1
281
     1
  3
ACAD_XREC_ROUNDTRIP
360
FF
  0
DICTIONARY
  5
104
330
32
100
AcDbDictionary
280
     1
281
     1
  3
ACAD_XREC_ROUNDTRIP
360
105
  0
DICTIONARY
  5
10C
330
36
100
AcDbDictionary
280
     1
281
     1
  3
ACAD_XREC_ROUNDTRIP
360
10D
  0
DICTIONARY
  5
114
330
3A
100
AcDbDictionary
280
     1
281
     1
  3
ACAD_XREC_ROUNDTRIP
360
115
  0
DICTIONARY
  5
108
330
34
100
AcDbDictionary
280
     1
281
     1
  3
ACAD_XREC_ROUNDTRIP
360
109
  0
DICTIONARY
  5
10A
330
35
100
AcDbDictionary
280
     1
281
     1
  3
ACAD_XREC_ROUNDTRIP
360
10B
  0
DICTIONARY
  5
11A
330
3D
100
AcDbDictionary
280
     1
281
     1
  3
ACAD_XREC_ROUNDTRIP
360
11B
  0
DICTIONARY
  5
112
330
39
100
AcDbDictionary
280
     1
281
     1
  3
ACAD_XREC_ROUNDTRIP
360
113
  0
DICTIONARY
  5
F6
330
2B
100
AcDbDictionary
280
     1
281
     1
  3
ACAD_XREC_ROUNDTRIP
360
F7
  0
DICTIONARY
  5
F8
330
2C
100
AcDbDictionary
280
     1
281
     1
  3
ACAD_XREC_ROUNDTRIP
360
F9
  0
DICTIONARY
  5
FA
330
2D
100
AcDbDictionary
280
     1
281
     1
  3
ACAD_XREC_ROUNDTRIP
360
FB
  0
DICTIONARY
  5
FC
330
2E
100
AcDbDictionary
280
     1
281
     1
  3
ACAD_XREC_ROUNDTRIP
360
FD
  0
DICTIONARY
  5
102
330
31
100
AcDbDictionary
280
     1
281
     1
  3
ACAD_XREC_ROUNDTRIP
360
103
  0
DICTIONARY
  5
116
330
3B
100
AcDbDictionary
280
     1
281
     1
  3
ACAD_XREC_ROUNDTRIP
360
117
  0
DICTIONARY
  5
110
330
38
100
AcDbDictionary
280
     1
281
     1
  3
ACAD_XREC_ROUNDTRIP
360
111
  0
DICTIONARY
  5
118
330
3C
100
AcDbDictionary
280
     1
281
     1
  3
ACAD_XREC_ROUNDTRIP
360
119
  0
DICTIONARY
  5
106
330
33
100
AcDbDictionary
280
     1
281
     1
  3
ACAD_XREC_ROUNDTRIP
360
107
  0
DICTIONARY
  5
124
330
42
100
AcDbDictionary
280
     1
281
     1
  3
ACAD_XREC_ROUNDTRIP
360
125
  0
DICTIONARY
  5
122
330
41
100
AcDbDictionary
280
     1
281
     1
  3
ACAD_XREC_ROUNDTRIP
360
123
  0
DICTIONARY
  5
11C
330
3E
100
AcDbDictionary
280
     1
281
     1
  3
ACAD_XREC_ROUNDTRIP
360
11D
  0
DICTIONARY
  5
11E
330
3F
100
AcDbDictionary
280
     1
281
     1
  3
ACAD_XREC_ROUNDTRIP
360
11F
  0
DICTIONARY
  5
10E
330
37
100
AcDbDictionary
280
     1
281
     1
  3
ACAD_XREC_ROUNDTRIP
360
10F
  0
DICTIONARY
  5
100
330
30
100
AcDbDictionary
280
     1
281
     1
  3
ACAD_XREC_ROUNDTRIP
360
101
  0
DICTIONARY
  5
120
330
40
100
AcDbDictionary
280
     1
281
     1
  3
ACAD_XREC_ROUNDTRIP
360
121
  0
XRECORD
  5
129
102
{ACAD_REACTORS
330
128
102
}
330
128
100
AcDbXrecord
280
     1
102
MATERIAL
148
0.0
149
0.0
149
0.0
 93
        0
 94
      127
282
     0
 72
     1
 77
     1
171
     1
175
     1
179
     1
273
     0
  0
XRECORD
  5
127
102
{ACAD_REACTORS
330
126
102
}
330
126
100
AcDbXrecord
280
     1
102
MATERIAL
148
0.0
149
0.0
149
0.0
 93
        0
 94
      127
282
     0
 72
     1
 77
     1
171
     1
175
     1
179
     1
273
     0
  0
XRECORD
  5
12B
102
{ACAD_REACTORS
330
12A
102
}
330
12A
100
AcDbXrecord
280
     1
102
MATERIAL
148
0.0
149
0.0
149
0.0
 93
        0
 94
      127
282
     0
 72
     1
 77
     1
171
     1
175
     1
179
     1
273
     0
  0
XRECORD
  5
FF
102
{ACAD_REACTORS
330
FE
102
}
330
FE
100
AcDbXrecord
280
     1
102
RTVSPropertyOp0
 70
     1
102
RTVSPropertyOp1
 70
     1
102
RTVSPropertyOp2
 70
     1
102
RTVSPropertyOp3
 70
     1
102
RTVSPropertyOp4
 70
     1
102
RTVSPropertyOp5
 70
     1
102
RTVSPropertyOp6
 70
     1
102
RTVSPropertyOp7
 70
     1
102
RTVSPropertyOp8
 70
     1
102
RTVSPropertyOp9
 70
     1
102
RTVSPropertyOp10
 70
     1
102
RTVSPropertyOp11
 70
     1
102
RTVSPropertyOp12
 70
     1
102
RTVSPropertyOp13
 70
     1
102
RTVSPropertyOp14
 70
     1
102
RTVSPropertyOp15
 70
     1
102
RTVSPropertyOp16
 70
     1
102
RTVSPropertyOp17
 70
     1
102
RTVSPropertyOp18
 70
     1
102
RTVSPropertyOp19
 70
     1
102
RTVSPropertyOp20
 70
     1
102
RTVSPropertyOp21
 70
     1
102
RTVSPropertyOp22
 70
     1
102
RTVSPropertyOp23
 70
     1
102
RTVSPropertyOp24
 70
     1
102
RTVSPropertyOp25
 70
     1
102
RTVSPropertyOp26
 70
     1
102
RTVSPropertyOp27
 70
     1
102
RTVSPropertyOp28
 70
     1
102
RTVSPropertyOp29
 70
     1
102
RTVSPropertyOp30
 70
     1
102
RTVSPropertyOp31
 70
     1
102
RTVSPropertyOp32
 70
     1
102
RTVSPropertyOp33
 70
     1
102
RTVSPropertyOp34
 70
     1
102
RTVSPropertyOp35
 70
     1
102
RTVSPropertyOp36
 70
     1
102
RTVSPropertyOp37
 70
     1
102
RTVSPropertyOp38
 70
     1
102
RTVSPropertyOp39
 70
     1
102
RTVSPropertyOp40
 70
     1
102
RTVSPropertyOp41
 70
     1
102
RTVSPropertyOp42
 70
     1
102
RTVSPropertyOp43
 70
     1
102
RTVSPropertyOp44
 70
     1
102
RTVSPropertyOp45
 70
     1
102
RTVSPropertyOp46
 70
     1
102
RTVSPropertyOp47
 70
     1
102
RTVSPropertyOp48
 70
     1
102
RTVSPropertyOp49
 70
     1
102
RTVSPropertyOp50
 70
     1
102
RTVSPropertyOp51
 70
     0
102
RTVSPropertyOp52
 70
     0
102
RTVSPropertyOp53
 70
     1
102
RTVSPropertyOp54
 70
     1
102
RTVSPropertyOp55
 70
     1
102
RTVSPropertyOp56
 70
     1
102
RTVSPropertyOp57
 70
     1
102
RTVSPost2010Prop28
280
     1
102
RTVSPost2010PropOp28
 70
     1
102
RTVSPost2010Prop29
280
     1
102
RTVSPost2010PropOp29
 70
     1
102
RTVSPost2010Prop30
280
     0
102
RTVSPost2010PropOp30
 70
     1
102
RTVSPost2010Prop31
280
     0
102
RTVSPost2010PropOp31
 70
     1
102
RTVSPost2010Prop32
280
     0
102
RTVSPost2010PropOp32
 70
     1
102
RTVSPost2010Prop33
280
     0
102
RTVSPost2010PropOp33
 70
     1
102
RTVSPost2010Prop34
280
     0
102
RTVSPost2010PropOp34
 70
     1
102
RTVSPost2010Prop35
280
     0
102
RTVSPost2010PropOp35
 70
     1
102
RTVSPost2010Prop36
280
     0
102
RTVSPost2010PropOp36
 70
     1
102
RTVSPost2010Prop37
 90
       50
102
RTVSPost2010PropOp37
 70
     1
102
RTVSPost2010Prop38
140
0.0
102
RTVSPost2010PropOp38
 70
     1
102
RTVSPost2010Prop39
140
1.0
102
RTVSPost2010PropOp39
 70
     1
102
RTVSPost2010Prop40
 90
        0
102
RTVSPost2010PropOp40
 70
     1
102
RTVSPost2010Prop41ColorIndex
 90
       18
102
RTVSPost2010Prop41ColorRGB
 90
        0
102
RTVSPost2010PropOp41
 70
     1
102
RTVSPost2010Prop42
 90
       50
102
RTVSPost2010PropOp42
 70
     1
102
RTVSPost2010Prop43
 90
        3
102
RTVSPost2010PropOp43
 70
     1
102
RTVSPost2010Prop44ColorIndex
 90
        5
102
RTVSPost2010Prop44ColorRGB
 90
      255
102
RTVSPost2010PropOp44
 70
     1
102
RTVSPost2010Prop45
280
     0
102
RTVSPost2010PropOp45
 70
     1
102
RTVSPost2010Prop46
 90
       50
102
RTVSPost2010PropOp46
 70
     1
102
RTVSPost2010Prop47
 90
       50
102
RTVSPost2010PropOp47
 70
     1
102
RTVSPost2010Prop48
 90
       50
102
RTVSPost2010PropOp48
 70
     1
102
RTVSPost2010Prop49
280
     0
102
RTVSPost2010PropOp49
 70
     1
102
RTVSPost2010Prop50
 90
       50
102
RTVSPost2010PropOp50
 70
     1
102
RTVSPost2010Prop51ColorIndex
 90
      256
102
RTVSPost2010Prop51ColorRGB
 90
-16777216
102
RTVSPost2010PropOp51
 70
     0
102
RTVSPost2010Prop52
140
1.0
102
RTVSPost2010PropOp52
 70
     0
102
RTVSPost2010Prop53
 90
        2
102
RTVSPost2010PropOp53
 70
     1
102
RTVSPost2010Prop54
  1
strokes_ogs.tif
102
RTVSPost2010PropOp54
 70
     1
102
RTVSPost2010Prop55
280
     0
102
RTVSPost2010PropOp55
 70
     1
102
RTVSPost2010Prop56
140
1.0
102
RTVSPost2010PropOp56
 70
     1
102
RTVSPost2010Prop57
140
1.0
102
RTVSPost2010PropOp57
 70
     1
  0
XRECORD
  5
105
102
{ACAD_REACTORS
330
104
102
}
330
104
100
AcDbXrecord
280
     1
102
RTVSPropertyOp0
 70
     1
102
RTVSPropertyOp1
 70
     1
102
RTVSPropertyOp2
 70
     1
102
RTVSPropertyOp3
 70
     1
102
RTVSPropertyOp4
 70
     1
102
RTVSPropertyOp5
 70
     1
102
RTVSPropertyOp6
 70
     1
102
RTVSPropertyOp7
 70
     1
102
RTVSPropertyOp8
 70
     1
102
RTVSPropertyOp9
 70
     1
102
RTVSPropertyOp10
 70
     1
102
RTVSPropertyOp11
 70
     1
102
RTVSPropertyOp12
 70
     1
102
RTVSPropertyOp13
 70
     1
102
RTVSPropertyOp14
 70
     1
102
RTVSPropertyOp15
 70
     1
102
RTVSPropertyOp16
 70
     1
102
RTVSPropertyOp17
 70
     1
102
RTVSPropertyOp18
 70
     1
102
RTVSPropertyOp19
 70
     1
102
RTVSPropertyOp20
 70
     1
102
RTVSPropertyOp21
 70
     1
102
RTVSPropertyOp22
 70
     1
102
RTVSPropertyOp23
 70
     1
102
RTVSPropertyOp24
 70
     1
102
RTVSPropertyOp25
 70
     1
102
RTVSPropertyOp26
 70
     1
102
RTVSPropertyOp27
 70
     1
102
RTVSPropertyOp28
 70
     1
102
RTVSPropertyOp29
 70
     1
102
RTVSPropertyOp30
 70
     1
102
RTVSPropertyOp31
 70
     1
102
RTVSPropertyOp32
 70
     1
102
RTVSPropertyOp33
 70
     1
102
RTVSPropertyOp34
 70
     1
102
RTVSPropertyOp35
 70
     1
102
RTVSPropertyOp36
 70
     1
102
RTVSPropertyOp37
 70
     1
102
RTVSPropertyOp38
 70
     1
102
RTVSPropertyOp39
 70
     1
102
RTVSPropertyOp40
 70
     1
102
RTVSPropertyOp41
 70
     1
102
RTVSPropertyOp42
 70
     1
102
RTVSPropertyOp43
 70
     1
102
RTVSPropertyOp44
 70
     1
102
RTVSPropertyOp45
 70
     1
102
RTVSPropertyOp46
 70
     1
102
RTVSPropertyOp47
 70
     1
102
RTVSPropertyOp48
 70
     1
102
RTVSPropertyOp49
 70
     1
102
RTVSPropertyOp50
 70
     1
102
RTVSPropertyOp51
 70
     0
102
RTVSPropertyOp52
 70
     0
102
RTVSPropertyOp53
 70
     1
102
RTVSPropertyOp54
 70
     1
102
RTVSPropertyOp55
 70
     1
102
RTVSPropertyOp56
 70
     1
102
RTVSPropertyOp57
 70
     1
102
RTVSPost2010Prop28
280
     0
102
RTVSPost2010PropOp28
 70
     1
102
RTVSPost2010Prop29
280
     1
102
RTVSPost2010PropOp29
 70
     1
102
RTVSPost2010Prop30
280
     1
102
RTVSPost2010PropOp30
 70
     1
102
RTVSPost2010Prop31
280
     0
102
RTVSPost2010PropOp31
 70
     1
102
RTVSPost2010Prop32
280
     0
102
RTVSPost2010PropOp32
 70
     1
102
RTVSPost2010Prop33
280
     0
102
RTVSPost2010PropOp33
 70
     1
102
RTVSPost2010Prop34
280
     0
102
RTVSPost2010PropOp34
 70
     1
102
RTVSPost2010Prop35
280
     0
102
RTVSPost2010PropOp35
 70
     1
102
RTVSPost2010Prop36
280
     0
102
RTVSPost2010PropOp36
 70
     1
102
RTVSPost2010Prop37
 90
       50
102
RTVSPost2010PropOp37
 70
     1
102
RTVSPost2010Prop38
140
0.0
102
RTVSPost2010PropOp38
 70
     1
102
RTVSPost2010Prop39
140
1.0
102
RTVSPost2010PropOp39
 70
     1
102
RTVSPost2010Prop40
 90
        0
102
RTVSPost2010PropOp40
 70
     1
102
RTVSPost2010Prop41ColorIndex
 90
       18
102
RTVSPost2010Prop41ColorRGB
 90
        0
102
RTVSPost2010PropOp41
 70
     1
102
RTVSPost2010Prop42
 90
       50
102
RTVSPost2010PropOp42
 70
     1
102
RTVSPost2010Prop43
 90
        3
102
RTVSPost2010PropOp43
 70
     1
102
RTVSPost2010Prop44ColorIndex
 90
        5
102
RTVSPost2010Prop44ColorRGB
 90
      255
102
RTVSPost2010PropOp44
 70
     1
102
RTVSPost2010Prop45
280
     0
102
RTVSPost2010PropOp45
 70
     1
102
RTVSPost2010Prop46
 90
       50
102
RTVSPost2010PropOp46
 70
     1
102
RTVSPost2010Prop47
 90
       50
102
RTVSPost2010PropOp47
 70
     1
102
RTVSPost2010Prop48
 90
       50
102
RTVSPost2010PropOp48
 70
     1
102
RTVSPost2010Prop49
280
     0
102
RTVSPost2010PropOp49
 70
     1
102
RTVSPost2010Prop50
 90
       50
102
RTVSPost2010PropOp50
 70
     1
102
RTVSPost2010Prop51ColorIndex
 90
      256
102
RTVSPost2010Prop51ColorRGB
 90
-16777216
102
RTVSPost2010PropOp51
 70
     0
102
RTVSPost2010Prop52
140
1.0
102
RTVSPost2010PropOp52
 70
     0
102
RTVSPost2010Prop53
 90
        2
102
RTVSPost2010PropOp53
 70
     1
102
RTVSPost2010Prop54
  1
strokes_ogs.tif
102
RTVSPost2010PropOp54
 70
     1
102
RTVSPost2010Prop55
280
     0
102
RTVSPost2010PropOp55
 70
     1
102
RTVSPost2010Prop56
140
1.0
102
RTVSPost2010PropOp56
 70
     1
102
RTVSPost2010Prop57
140
1.0
102
RTVSPost2010PropOp57
 70
     1
  0
XRECORD
  5
10D
102
{ACAD_REACTORS
330
10C
102
}
330
10C
100
AcDbXrecord
280
     1
102
RTVSPropertyOp0
 70
     1
102
RTVSPropertyOp1
 70
     1
102
RTVSPropertyOp2
 70
     1
102
RTVSPropertyOp3
 70
     1
102
RTVSPropertyOp4
 70
     1
102
RTVSPropertyOp5
 70
     1
102
RTVSPropertyOp6
 70
     1
102
RTVSPropertyOp7
 70
     1
102
RTVSPropertyOp8
 70
     1
102
RTVSPropertyOp9
 70
     1
102
RTVSPropertyOp10
 70
     1
102
RTVSPropertyOp11
 70
     1
102
RTVSPropertyOp12
 70
     1
102
RTVSPropertyOp13
 70
     1
102
RTVSPropertyOp14
 70
     1
102
RTVSPropertyOp15
 70
     1
102
RTVSPropertyOp16
 70
     1
102
RTVSPropertyOp17
 70
     1
102
RTVSPropertyOp18
 70
     1
102
RTVSPropertyOp19
 70
     1
102
RTVSPropertyOp20
 70
     1
102
RTVSPropertyOp21
 70
     1
102
RTVSPropertyOp22
 70
     1
102
RTVSPropertyOp23
 70
     1
102
RTVSPropertyOp24
 70
     1
102
RTVSPropertyOp25
 70
     1
102
RTVSPropertyOp26
 70
     1
102
RTVSPropertyOp27
 70
     1
102
RTVSPropertyOp28
 70
     1
102
RTVSPropertyOp29
 70
     1
102
RTVSPropertyOp30
 70
     1
102
RTVSPropertyOp31
 70
     1
102
RTVSPropertyOp32
 70
     1
102
RTVSPropertyOp33
 70
     1
102
RTVSPropertyOp34
 70
     1
102
RTVSPropertyOp35
 70
     1
102
RTVSPropertyOp36
 70
     1
102
RTVSPropertyOp37
 70
     1
102
RTVSPropertyOp38
 70
     1
102
RTVSPropertyOp39
 70
     1
102
RTVSPropertyOp40
 70
     1
102
RTVSPropertyOp41
 70
     1
102
RTVSPropertyOp42
 70
     1
102
RTVSPropertyOp43
 70
     1
102
RTVSPropertyOp44
 70
     1
102
RTVSPropertyOp45
 70
     1
102
RTVSPropertyOp46
 70
     1
102
RTVSPropertyOp47
 70
     1
102
RTVSPropertyOp48
 70
     1
102
RTVSPropertyOp49
 70
     1
102
RTVSPropertyOp50
 70
     1
102
RTVSPropertyOp51
 70
     0
102
RTVSPropertyOp52
 70
     0
102
RTVSPropertyOp53
 70
     1
102
RTVSPropertyOp54
 70
     1
102
RTVSPropertyOp55
 70
     1
102
RTVSPropertyOp56
 70
     1
102
RTVSPropertyOp57
 70
     1
102
RTVSPost2010Prop28
280
     0
102
RTVSPost2010PropOp28
 70
     1
102
RTVSPost2010Prop29
280
     1
102
RTVSPost2010PropOp29
 70
     1
102
RTVSPost2010Prop30
280
     1
102
RTVSPost2010PropOp30
 70
     1
102
RTVSPost2010Prop31
280
     0
102
RTVSPost2010PropOp31
 70
     1
102
RTVSPost2010Prop32
280
     0
102
RTVSPost2010PropOp32
 70
     1
102
RTVSPost2010Prop33
280
     0
102
RTVSPost2010PropOp33
 70
     1
102
RTVSPost2010Prop34
280
     0
102
RTVSPost2010PropOp34
 70
     1
102
RTVSPost2010Prop35
280
     0
102
RTVSPost2010PropOp35
 70
     1
102
RTVSPost2010Prop36
280
     0
102
RTVSPost2010PropOp36
 70
     1
102
RTVSPost2010Prop37
 90
       50
102
RTVSPost2010PropOp37
 70
     1
102
RTVSPost2010Prop38
140
0.0
102
RTVSPost2010PropOp38
 70
     1
102
RTVSPost2010Prop39
140
1.0
102
RTVSPost2010PropOp39
 70
     1
102
RTVSPost2010Prop40
 90
        0
102
RTVSPost2010PropOp40
 70
     1
102
RTVSPost2010Prop41ColorIndex
 90
       18
102
RTVSPost2010Prop41ColorRGB
 90
        0
102
RTVSPost2010PropOp41
 70
     1
102
RTVSPost2010Prop42
 90
       50
102
RTVSPost2010PropOp42
 70
     1
102
RTVSPost2010Prop43
 90
        3
102
RTVSPost2010PropOp43
 70
     1
102
RTVSPost2010Prop44ColorIndex
 90
        5
102
RTVSPost2010Prop44ColorRGB
 90
      255
102
RTVSPost2010PropOp44
 70
     1
102
RTVSPost2010Prop45
280
     0
102
RTVSPost2010PropOp45
 70
     1
102
RTVSPost2010Prop46
 90
       50
102
RTVSPost2010PropOp46
 70
     1
102
RTVSPost2010Prop47
 90
       50
102
RTVSPost2010PropOp47
 70
     1
102
RTVSPost2010Prop48
 90
       50
102
RTVSPost2010PropOp48
 70
     1
102
RTVSPost2010Prop49
280
     0
102
RTVSPost2010PropOp49
 70
     1
102
RTVSPost2010Prop50
 90
       50
102
RTVSPost2010PropOp50
 70
     1
102
RTVSPost2010Prop51ColorIndex
 90
      256
102
RTVSPost2010Prop51ColorRGB
 90
-16777216
102
RTVSPost2010PropOp51
 70
     0
102
RTVSPost2010Prop52
140
1.0
102
RTVSPost2010PropOp52
 70
     0
102
RTVSPost2010Prop53
 90
        2
102
RTVSPost2010PropOp53
 70
     1
102
RTVSPost2010Prop54
  1
strokes_ogs.tif
102
RTVSPost2010PropOp54
 70
     1
102
RTVSPost2010Prop55
280
     0
102
RTVSPost2010PropOp55
 70
     1
102
RTVSPost2010Prop56
140
1.0
102
RTVSPost2010PropOp56
 70
     1
102
RTVSPost2010Prop57
140
1.0
102
RTVSPost2010PropOp57
 70
     1
  0
XRECORD
  5
115
102
{ACAD_REACTORS
330
114
102
}
330
114
100
AcDbXrecord
280
     1
102
RTVSPropertyOp0
 70
     1
102
RTVSPropertyOp1
 70
     1
102
RTVSPropertyOp2
 70
     1
102
RTVSPropertyOp3
 70
     1
102
RTVSPropertyOp4
 70
     1
102
RTVSPropertyOp5
 70
     1
102
RTVSPropertyOp6
 70
     1
102
RTVSPropertyOp7
 70
     1
102
RTVSPropertyOp8
 70
     1
102
RTVSPropertyOp9
 70
     1
102
RTVSPropertyOp10
 70
     1
102
RTVSPropertyOp11
 70
     1
102
RTVSPropertyOp12
 70
     1
102
RTVSPropertyOp13
 70
     1
102
RTVSPropertyOp14
 70
     1
102
RTVSPropertyOp15
 70
     1
102
RTVSPropertyOp16
 70
     1
102
RTVSPropertyOp17
 70
     1
102
RTVSPropertyOp18
 70
     1
102
RTVSPropertyOp19
 70
     1
102
RTVSPropertyOp20
 70
     1
102
RTVSPropertyOp21
 70
     1
102
RTVSPropertyOp22
 70
     1
102
RTVSPropertyOp23
 70
     1
102
RTVSPropertyOp24
 70
     1
102
RTVSPropertyOp25
 70
     1
102
RTVSPropertyOp26
 70
     1
102
RTVSPropertyOp27
 70
     1
102
RTVSPropertyOp28
 70
     1
102
RTVSPropertyOp29
 70
     1
102
RTVSPropertyOp30
 70
     1
102
RTVSPropertyOp31
 70
     1
102
RTVSPropertyOp32
 70
     1
102
RTVSPropertyOp33
 70
     1
102
RTVSPropertyOp34
 70
     1
102
RTVSPropertyOp35
 70
     1
102
RTVSPropertyOp36
 70
     1
102
RTVSPropertyOp37
 70
     1
102
RTVSPropertyOp38
 70
     1
102
RTVSPropertyOp39
 70
     1
102
RTVSPropertyOp40
 70
     1
102
RTVSPropertyOp41
 70
     1
102
RTVSPropertyOp42
 70
     1
102
RTVSPropertyOp43
 70
     1
102
RTVSPropertyOp44
 70
     1
102
RTVSPropertyOp45
 70
     1
102
RTVSPropertyOp46
 70
     1
102
RTVSPropertyOp47
 70
     1
102
RTVSPropertyOp48
 70
     1
102
RTVSPropertyOp49
 70
     1
102
RTVSPropertyOp50
 70
     1
102
RTVSPropertyOp51
 70
     0
102
RTVSPropertyOp52
 70
     0
102
RTVSPropertyOp53
 70
     1
102
RTVSPropertyOp54
 70
     1
102
RTVSPropertyOp55
 70
     1
102
RTVSPropertyOp56
 70
     1
102
RTVSPropertyOp57
 70
     1
102
RTVSPost2010Prop28
280
     0
102
RTVSPost2010PropOp28
 70
     1
102
RTVSPost2010Prop29
280
     1
102
RTVSPost2010PropOp29
 70
     1
102
RTVSPost2010Prop30
280
     1
102
RTVSPost2010PropOp30
 70
     1
102
RTVSPost2010Prop31
280
     0
102
RTVSPost2010PropOp31
 70
     1
102
RTVSPost2010Prop32
280
     0
102
RTVSPost2010PropOp32
 70
     1
102
RTVSPost2010Prop33
280
     0
102
RTVSPost2010PropOp33
 70
     1
102
RTVSPost2010Prop34
280
     0
102
RTVSPost2010PropOp34
 70
     1
102
RTVSPost2010Prop35
280
     0
102
RTVSPost2010PropOp35
 70
     1
102
RTVSPost2010Prop36
280
     0
102
RTVSPost2010PropOp36
 70
     1
102
RTVSPost2010Prop37
 90
       50
102
RTVSPost2010PropOp37
 70
     1
102
RTVSPost2010Prop38
140
0.0
102
RTVSPost2010PropOp38
 70
     1
102
RTVSPost2010Prop39
140
1.0
102
RTVSPost2010PropOp39
 70
     1
102
RTVSPost2010Prop40
 90
        0
102
RTVSPost2010PropOp40
 70
     1
102
RTVSPost2010Prop41ColorIndex
 90
       18
102
RTVSPost2010Prop41ColorRGB
 90
        0
102
RTVSPost2010PropOp41
 70
     1
102
RTVSPost2010Prop42
 90
       50
102
RTVSPost2010PropOp42
 70
     1
102
RTVSPost2010Prop43
 90
        3
102
RTVSPost2010PropOp43
 70
     1
102
RTVSPost2010Prop44ColorIndex
 90
        5
102
RTVSPost2010Prop44ColorRGB
 90
      255
102
RTVSPost2010PropOp44
 70
     1
102
RTVSPost2010Prop45
280
     0
102
RTVSPost2010PropOp45
 70
     1
102
RTVSPost2010Prop46
 90
       50
102
RTVSPost2010PropOp46
 70
     1
102
RTVSPost2010Prop47
 90
       50
102
RTVSPost2010PropOp47
 70
     1
102
RTVSPost2010Prop48
 90
       50
102
RTVSPost2010PropOp48
 70
     1
102
RTVSPost2010Prop49
280
     0
102
RTVSPost2010PropOp49
 70
     1
102
RTVSPost2010Prop50
 90
       50
102
RTVSPost2010PropOp50
 70
     1
102
RTVSPost2010Prop51ColorIndex
 90
      256
102
RTVSPost2010Prop51ColorRGB
 90
-16777216
102
RTVSPost2010PropOp51
 70
     0
102
RTVSPost2010Prop52
140
1.0
102
RTVSPost2010PropOp52
 70
     0
102
RTVSPost2010Prop53
 90
        2
102
RTVSPost2010PropOp53
 70
     1
102
RTVSPost2010Prop54
  1
strokes_ogs.tif
102
RTVSPost2010PropOp54
 70
     1
102
RTVSPost2010Prop55
280
     0
102
RTVSPost2010PropOp55
 70
     1
102
RTVSPost2010Prop56
140
1.0
102
RTVSPost2010PropOp56
 70
     1
102
RTVSPost2010Prop57
140
1.0
102
RTVSPost2010PropOp57
 70
     1
  0
XRECORD
  5
109
102
{ACAD_REACTORS
330
108
102
}
330
108
100
AcDbXrecord
280
     1
102
RTVSPropertyOp0
 70
     1
102
RTVSPropertyOp1
 70
     1
102
RTVSPropertyOp2
 70
     1
102
RTVSPropertyOp3
 70
     1
102
RTVSPropertyOp4
 70
     1
102
RTVSPropertyOp5
 70
     1
102
RTVSPropertyOp6
 70
     1
102
RTVSPropertyOp7
 70
     1
102
RTVSPropertyOp8
 70
     1
102
RTVSPropertyOp9
 70
     1
102
RTVSPropertyOp10
 70
     1
102
RTVSPropertyOp11
 70
     1
102
RTVSPropertyOp12
 70
     1
102
RTVSPropertyOp13
 70
     1
102
RTVSPropertyOp14
 70
     1
102
RTVSPropertyOp15
 70
     1
102
RTVSPropertyOp16
 70
     1
102
RTVSPropertyOp17
 70
     1
102
RTVSPropertyOp18
 70
     1
102
RTVSPropertyOp19
 70
     1
102
RTVSPropertyOp20
 70
     1
102
RTVSPropertyOp21
 70
     1
102
RTVSPropertyOp22
 70
     1
102
RTVSPropertyOp23
 70
     1
102
RTVSPropertyOp24
 70
     1
102
RTVSPropertyOp25
 70
     1
102
RTVSPropertyOp26
 70
     1
102
RTVSPropertyOp27
 70
     1
102
RTVSPropertyOp28
 70
     1
102
RTVSPropertyOp29
 70
     1
102
RTVSPropertyOp30
 70
     1
102
RTVSPropertyOp31
 70
     1
102
RTVSPropertyOp32
 70
     1
102
RTVSPropertyOp33
 70
     1
102
RTVSPropertyOp34
 70
     1
102
RTVSPropertyOp35
 70
     1
102
RTVSPropertyOp36
 70
     1
102
RTVSPropertyOp37
 70
     1
102
RTVSPropertyOp38
 70
     1
102
RTVSPropertyOp39
 70
     1
102
RTVSPropertyOp40
 70
     1
102
RTVSPropertyOp41
 70
     1
102
RTVSPropertyOp42
 70
     1
102
RTVSPropertyOp43
 70
     1
102
RTVSPropertyOp44
 70
     1
102
RTVSPropertyOp45
 70
     1
102
RTVSPropertyOp46
 70
     1
102
RTVSPropertyOp47
 70
     1
102
RTVSPropertyOp48
 70
     1
102
RTVSPropertyOp49
 70
     1
102
RTVSPropertyOp50
 70
     1
102
RTVSPropertyOp51
 70
     0
102
RTVSPropertyOp52
 70
     0
102
RTVSPropertyOp53
 70
     1
102
RTVSPropertyOp54
 70
     1
102
RTVSPropertyOp55
 70
     1
102
RTVSPropertyOp56
 70
     1
102
RTVSPropertyOp57
 70
     1
102
RTVSPost2010Prop28
280
     0
102
RTVSPost2010PropOp28
 70
     1
102
RTVSPost2010Prop29
280
     1
102
RTVSPost2010PropOp29
 70
     1
102
RTVSPost2010Prop30
280
     1
102
RTVSPost2010PropOp30
 70
     1
102
RTVSPost2010Prop31
280
     0
102
RTVSPost2010PropOp31
 70
     1
102
RTVSPost2010Prop32
280
     0
102
RTVSPost2010PropOp32
 70
     1
102
RTVSPost2010Prop33
280
     0
102
RTVSPost2010PropOp33
 70
     1
102
RTVSPost2010Prop34
280
     0
102
RTVSPost2010PropOp34
 70
     1
102
RTVSPost2010Prop35
280
     0
102
RTVSPost2010PropOp35
 70
     1
102
RTVSPost2010Prop36
280
     0
102
RTVSPost2010PropOp36
 70
     1
102
RTVSPost2010Prop37
 90
       50
102
RTVSPost2010PropOp37
 70
     1
102
RTVSPost2010Prop38
140
0.0
102
RTVSPost2010PropOp38
 70
     1
102
RTVSPost2010Prop39
140
1.0
102
RTVSPost2010PropOp39
 70
     1
102
RTVSPost2010Prop40
 90
        0
102
RTVSPost2010PropOp40
 70
     1
102
RTVSPost2010Prop41ColorIndex
 90
       18
102
RTVSPost2010Prop41ColorRGB
 90
        0
102
RTVSPost2010PropOp41
 70
     1
102
RTVSPost2010Prop42
 90
       50
102
RTVSPost2010PropOp42
 70
     1
102
RTVSPost2010Prop43
 90
        3
102
RTVSPost2010PropOp43
 70
     1
102
RTVSPost2010Prop44ColorIndex
 90
        5
102
RTVSPost2010Prop44ColorRGB
 90
      255
102
RTVSPost2010PropOp44
 70
     1
102
RTVSPost2010Prop45
280
     0
102
RTVSPost2010PropOp45
 70
     1
102
RTVSPost2010Prop46
 90
       50
102
RTVSPost2010PropOp46
 70
     1
102
RTVSPost2010Prop47
 90
       50
102
RTVSPost2010PropOp47
 70
     1
102
RTVSPost2010Prop48
 90
       50
102
RTVSPost2010PropOp48
 70
     1
102
RTVSPost2010Prop49
280
     0
102
RTVSPost2010PropOp49
 70
     1
102
RTVSPost2010Prop50
 90
       50
102
RTVSPost2010PropOp50
 70
     1
102
RTVSPost2010Prop51ColorIndex
 90
      256
102
RTVSPost2010Prop51ColorRGB
 90
-16777216
102
RTVSPost2010PropOp51
 70
     0
102
RTVSPost2010Prop52
140
1.0
102
RTVSPost2010PropOp52
 70
     0
102
RTVSPost2010Prop53
 90
        2
102
RTVSPost2010PropOp53
 70
     1
102
RTVSPost2010Prop54
  1
strokes_ogs.tif
102
RTVSPost2010PropOp54
 70
     1
102
RTVSPost2010Prop55
280
     0
102
RTVSPost2010PropOp55
 70
     1
102
RTVSPost2010Prop56
140
1.0
102
RTVSPost2010PropOp56
 70
     1
102
RTVSPost2010Prop57
140
1.0
102
RTVSPost2010PropOp57
 70
     1
  0
XRECORD
  5
10B
102
{ACAD_REACTORS
330
10A
102
}
330
10A
100
AcDbXrecord
280
     1
102
RTVSPropertyOp0
 70
     1
102
RTVSPropertyOp1
 70
     1
102
RTVSPropertyOp2
 70
     1
102
RTVSPropertyOp3
 70
     1
102
RTVSPropertyOp4
 70
     1
102
RTVSPropertyOp5
 70
     1
102
RTVSPropertyOp6
 70
     1
102
RTVSPropertyOp7
 70
     1
102
RTVSPropertyOp8
 70
     1
102
RTVSPropertyOp9
 70
     1
102
RTVSPropertyOp10
 70
     1
102
RTVSPropertyOp11
 70
     1
102
RTVSPropertyOp12
 70
     1
102
RTVSPropertyOp13
 70
     1
102
RTVSPropertyOp14
 70
     1
102
RTVSPropertyOp15
 70
     1
102
RTVSPropertyOp16
 70
     1
102
RTVSPropertyOp17
 70
     1
102
RTVSPropertyOp18
 70
     1
102
RTVSPropertyOp19
 70
     1
102
RTVSPropertyOp20
 70
     1
102
RTVSPropertyOp21
 70
     1
102
RTVSPropertyOp22
 70
     1
102
RTVSPropertyOp23
 70
     1
102
RTVSPropertyOp24
 70
     1
102
RTVSPropertyOp25
 70
     1
102
RTVSPropertyOp26
 70
     1
102
RTVSPropertyOp27
 70
     1
102
RTVSPropertyOp28
 70
     1
102
RTVSPropertyOp29
 70
     1
102
RTVSPropertyOp30
 70
     1
102
RTVSPropertyOp31
 70
     1
102
RTVSPropertyOp32
 70
     1
102
RTVSPropertyOp33
 70
     1
102
RTVSPropertyOp34
 70
     1
102
RTVSPropertyOp35
 70
     1
102
RTVSPropertyOp36
 70
     1
102
RTVSPropertyOp37
 70
     1
102
RTVSPropertyOp38
 70
     1
102
RTVSPropertyOp39
 70
     1
102
RTVSPropertyOp40
 70
     1
102
RTVSPropertyOp41
 70
     1
102
RTVSPropertyOp42
 70
     1
102
RTVSPropertyOp43
 70
     1
102
RTVSPropertyOp44
 70
     1
102
RTVSPropertyOp45
 70
     1
102
RTVSPropertyOp46
 70
     1
102
RTVSPropertyOp47
 70
     1
102
RTVSPropertyOp48
 70
     1
102
RTVSPropertyOp49
 70
     1
102
RTVSPropertyOp50
 70
     1
102
RTVSPropertyOp51
 70
     0
102
RTVSPropertyOp52
 70
     0
102
RTVSPropertyOp53
 70
     1
102
RTVSPropertyOp54
 70
     1
102
RTVSPropertyOp55
 70
     1
102
RTVSPropertyOp56
 70
     1
102
RTVSPropertyOp57
 70
     1
102
RTVSPost2010Prop28
280
     0
102
RTVSPost2010PropOp28
 70
     1
102
RTVSPost2010Prop29
280
     1
102
RTVSPost2010PropOp29
 70
     1
102
RTVSPost2010Prop30
280
     1
102
RTVSPost2010PropOp30
 70
     1
102
RTVSPost2010Prop31
280
     0
102
RTVSPost2010PropOp31
 70
     1
102
RTVSPost2010Prop32
280
     0
102
RTVSPost2010PropOp32
 70
     1
102
RTVSPost2010Prop33
280
     0
102
RTVSPost2010PropOp33
 70
     1
102
RTVSPost2010Prop34
280
     0
102
RTVSPost2010PropOp34
 70
     1
102
RTVSPost2010Prop35
280
     0
102
RTVSPost2010PropOp35
 70
     1
102
RTVSPost2010Prop36
280
     0
102
RTVSPost2010PropOp36
 70
     1
102
RTVSPost2010Prop37
 90
       50
102
RTVSPost2010PropOp37
 70
     1
102
RTVSPost2010Prop38
140
0.0
102
RTVSPost2010PropOp38
 70
     1
102
RTVSPost2010Prop39
140
1.0
102
RTVSPost2010PropOp39
 70
     1
102
RTVSPost2010Prop40
 90
        0
102
RTVSPost2010PropOp40
 70
     1
102
RTVSPost2010Prop41ColorIndex
 90
       18
102
RTVSPost2010Prop41ColorRGB
 90
        0
102
RTVSPost2010PropOp41
 70
     1
102
RTVSPost2010Prop42
 90
       50
102
RTVSPost2010PropOp42
 70
     1
102
RTVSPost2010Prop43
 90
        3
102
RTVSPost2010PropOp43
 70
     1
102
RTVSPost2010Prop44ColorIndex
 90
        5
102
RTVSPost2010Prop44ColorRGB
 90
      255
102
RTVSPost2010PropOp44
 70
     1
102
RTVSPost2010Prop45
280
     0
102
RTVSPost2010PropOp45
 70
     1
102
RTVSPost2010Prop46
 90
       50
102
RTVSPost2010PropOp46
 70
     1
102
RTVSPost2010Prop47
 90
       50
102
RTVSPost2010PropOp47
 70
     1
102
RTVSPost2010Prop48
 90
       50
102
RTVSPost2010PropOp48
 70
     1
102
RTVSPost2010Prop49
280
     0
102
RTVSPost2010PropOp49
 70
     1
102
RTVSPost2010Prop50
 90
       50
102
RTVSPost2010PropOp50
 70
     1
102
RTVSPost2010Prop51ColorIndex
 90
      256
102
RTVSPost2010Prop51ColorRGB
 90
-16777216
102
RTVSPost2010PropOp51
 70
     0
102
RTVSPost2010Prop52
140
1.0
102
RTVSPost2010PropOp52
 70
     0
102
RTVSPost2010Prop53
 90
        2
102
RTVSPost2010PropOp53
 70
     1
102
RTVSPost2010Prop54
  1
strokes_ogs.tif
102
RTVSPost2010PropOp54
 70
     1
102
RTVSPost2010Prop55
280
     0
102
RTVSPost2010PropOp55
 70
     1
102
RTVSPost2010Prop56
140
1.0
102
RTVSPost2010PropOp56
 70
     1
102
RTVSPost2010Prop57
140
1.0
102
RTVSPost2010PropOp57
 70
     1
  0
XRECORD
  5
11B
102
{ACAD_REACTORS
330
11A
102
}
330
11A
100
AcDbXrecord
280
     1
102
RTVSPropertyOp0
 70
     0
102
RTVSPropertyOp1
 70
     0
102
RTVSPropertyOp2
 70
     0
102
RTVSPropertyOp3
 70
     0
102
RTVSPropertyOp4
 70
     0
102
RTVSPropertyOp5
 70
     0
102
RTVSPropertyOp6
 70
     0
102
RTVSPropertyOp7
 70
     0
102
RTVSPropertyOp8
 70
     0
102
RTVSPropertyOp9
 70
     0
102
RTVSPropertyOp10
 70
     0
102
RTVSPropertyOp11
 70
     0
102
RTVSPropertyOp12
 70
     0
102
RTVSPropertyOp13
 70
     0
102
RTVSPropertyOp14
 70
     2
102
RTVSPropertyOp15
 70
     0
102
RTVSPropertyOp16
 70
     0
102
RTVSPropertyOp17
 70
     0
102
RTVSPropertyOp18
 70
     0
102
RTVSPropertyOp19
 70
     0
102
RTVSPropertyOp20
 70
     0
102
RTVSPropertyOp21
 70
     0
102
RTVSPropertyOp22
 70
     0
102
RTVSPropertyOp23
 70
     0
102
RTVSPropertyOp24
 70
     0
102
RTVSPropertyOp25
 70
     0
102
RTVSPropertyOp26
 70
     0
102
RTVSPropertyOp27
 70
     0
102
RTVSPropertyOp28
 70
     0
102
RTVSPropertyOp29
 70
     0
102
RTVSPropertyOp30
 70
     0
102
RTVSPropertyOp31
 70
     0
102
RTVSPropertyOp32
 70
     0
102
RTVSPropertyOp33
 70
     0
102
RTVSPropertyOp34
 70
     0
102
RTVSPropertyOp35
 70
     0
102
RTVSPropertyOp36
 70
     0
102
RTVSPropertyOp37
 70
     0
102
RTVSPropertyOp38
 70
     0
102
RTVSPropertyOp39
 70
     0
102
RTVSPropertyOp40
 70
     0
102
RTVSPropertyOp41
 70
     0
102
RTVSPropertyOp42
 70
     0
102
RTVSPropertyOp43
 70
     0
102
RTVSPropertyOp44
 70
     0
102
RTVSPropertyOp45
 70
     0
102
RTVSPropertyOp46
 70
     0
102
RTVSPropertyOp47
 70
     0
102
RTVSPropertyOp48
 70
     0
102
RTVSPropertyOp49
 70
     0
102
RTVSPropertyOp50
 70
     0
102
RTVSPropertyOp51
 70
     0
102
RTVSPropertyOp52
 70
     0
102
RTVSPropertyOp53
 70
     0
102
RTVSPropertyOp54
 70
     0
102
RTVSPropertyOp55
 70
     0
102
RTVSPropertyOp56
 70
     0
102
RTVSPropertyOp57
 70
     0
102
RTVSPost2010Prop28
280
     0
102
RTVSPost2010PropOp28
 70
     0
102
RTVSPost2010Prop29
280
     1
102
RTVSPost2010PropOp29
 70
     0
102
RTVSPost2010Prop30
280
     1
102
RTVSPost2010PropOp30
 70
     0
102
RTVSPost2010Prop31
280
     0
102
RTVSPost2010PropOp31
 70
     0
102
RTVSPost2010Prop32
280
     0
102
RTVSPost2010PropOp32
 70
     0
102
RTVSPost2010Prop33
280
     0
102
RTVSPost2010PropOp33
 70
     0
102
RTVSPost2010Prop34
280
     0
102
RTVSPost2010PropOp34
 70
     0
102
RTVSPost2010Prop35
280
     0
102
RTVSPost2010PropOp35
 70
     0
102
RTVSPost2010Prop36
280
     0
102
RTVSPost2010PropOp36
 70
     0
102
RTVSPost2010Prop37
 90
       50
102
RTVSPost2010PropOp37
 70
     0
102
RTVSPost2010Prop38
140
0.0
102
RTVSPost2010PropOp38
 70
     0
102
RTVSPost2010Prop39
140
1.0
102
RTVSPost2010PropOp39
 70
     0
102
RTVSPost2010Prop40
 90
        0
102
RTVSPost2010PropOp40
 70
     0
102
RTVSPost2010Prop41ColorIndex
 90
       18
102
RTVSPost2010Prop41ColorRGB
 90
        0
102
RTVSPost2010PropOp41
 70
     0
102
RTVSPost2010Prop42
 90
       50
102
RTVSPost2010PropOp42
 70
     0
102
RTVSPost2010Prop43
 90
        3
102
RTVSPost2010PropOp43
 70
     0
102
RTVSPost2010Prop44ColorIndex
 90
        5
102
RTVSPost2010Prop44ColorRGB
 90
      255
102
RTVSPost2010PropOp44
 70
     0
102
RTVSPost2010Prop45
280
     0
102
RTVSPost2010PropOp45
 70
     0
102
RTVSPost2010Prop46
 90
       50
102
RTVSPost2010PropOp46
 70
     0
102
RTVSPost2010Prop47
 90
       50
102
RTVSPost2010PropOp47
 70
     0
102
RTVSPost2010Prop48
 90
       50
102
RTVSPost2010PropOp48
 70
     0
102
RTVSPost2010Prop49
280
     0
102
RTVSPost2010PropOp49
 70
     0
102
RTVSPost2010Prop50
 90
       50
102
RTVSPost2010PropOp50
 70
     0
102
RTVSPost2010Prop51ColorIndex
 90
      256
102
RTVSPost2010Prop51ColorRGB
 90
-16777216
102
RTVSPost2010PropOp51
 70
     0
102
RTVSPost2010Prop52
140
1.0
102
RTVSPost2010PropOp52
 70
     0
102
RTVSPost2010Prop53
 90
        2
102
RTVSPost2010PropOp53
 70
     0
102
RTVSPost2010Prop54
  1
strokes_ogs.tif
102
RTVSPost2010PropOp54
 70
     0
102
RTVSPost2010Prop55
280
     0
102
RTVSPost2010PropOp55
 70
     0
102
RTVSPost2010Prop56
140
1.0
102
RTVSPost2010PropOp56
 70
     0
102
RTVSPost2010Prop57
140
1.0
102
RTVSPost2010PropOp57
 70
     0
  0
XRECORD
  5
113
102
{ACAD_REACTORS
330
112
102
}
330
112
100
AcDbXrecord
280
     1
102
RTVSPropertyOp0
 70
     1
102
RTVSPropertyOp1
 70
     1
102
RTVSPropertyOp2
 70
     1
102
RTVSPropertyOp3
 70
     1
102
RTVSPropertyOp4
 70
     1
102
RTVSPropertyOp5
 70
     1
102
RTVSPropertyOp6
 70
     1
102
RTVSPropertyOp7
 70
     1
102
RTVSPropertyOp8
 70
     1
102
RTVSPropertyOp9
 70
     1
102
RTVSPropertyOp10
 70
     1
102
RTVSPropertyOp11
 70
     1
102
RTVSPropertyOp12
 70
     1
102
RTVSPropertyOp13
 70
     1
102
RTVSPropertyOp14
 70
     1
102
RTVSPropertyOp15
 70
     1
102
RTVSPropertyOp16
 70
     1
102
RTVSPropertyOp17
 70
     1
102
RTVSPropertyOp18
 70
     1
102
RTVSPropertyOp19
 70
     1
102
RTVSPropertyOp20
 70
     1
102
RTVSPropertyOp21
 70
     1
102
RTVSPropertyOp22
 70
     1
102
RTVSPropertyOp23
 70
     1
102
RTVSPropertyOp24
 70
     1
102
RTVSPropertyOp25
 70
     1
102
RTVSPropertyOp26
 70
     1
102
RTVSPropertyOp27
 70
     1
102
RTVSPropertyOp28
 70
     1
102
RTVSPropertyOp29
 70
     1
102
RTVSPropertyOp30
 70
     1
102
RTVSPropertyOp31
 70
     1
102
RTVSPropertyOp32
 70
     1
102
RTVSPropertyOp33
 70
     1
102
RTVSPropertyOp34
 70
     1
102
RTVSPropertyOp35
 70
     1
102
RTVSPropertyOp36
 70
     1
102
RTVSPropertyOp37
 70
     1
102
RTVSPropertyOp38
 70
     1
102
RTVSPropertyOp39
 70
     1
102
RTVSPropertyOp40
 70
     1
102
RTVSPropertyOp41
 70
     1
102
RTVSPropertyOp42
 70
     1
102
RTVSPropertyOp43
 70
     1
102
RTVSPropertyOp44
 70
     1
102
RTVSPropertyOp45
 70
     1
102
RTVSPropertyOp46
 70
     1
102
RTVSPropertyOp47
 70
     1
102
RTVSPropertyOp48
 70
     1
102
RTVSPropertyOp49
 70
     1
102
RTVSPropertyOp50
 70
     1
102
RTVSPropertyOp51
 70
     0
102
RTVSPropertyOp52
 70
     0
102
RTVSPropertyOp53
 70
     1
102
RTVSPropertyOp54
 70
     1
102
RTVSPropertyOp55
 70
     1
102
RTVSPropertyOp56
 70
     1
102
RTVSPropertyOp57
 70
     1
102
RTVSPost2010Prop28
280
     0
102
RTVSPost2010PropOp28
 70
     1
102
RTVSPost2010Prop29
280
     1
102
RTVSPost2010PropOp29
 70
     1
102
RTVSPost2010Prop30
280
     1
102
RTVSPost2010PropOp30
 70
     1
102
RTVSPost2010Prop31
280
     0
102
RTVSPost2010PropOp31
 70
     1
102
RTVSPost2010Prop32
280
     0
102
RTVSPost2010PropOp32
 70
     1
102
RTVSPost2010Prop33
280
     0
102
RTVSPost2010PropOp33
 70
     1
102
RTVSPost2010Prop34
280
     0
102
RTVSPost2010PropOp34
 70
     1
102
RTVSPost2010Prop35
280
     0
102
RTVSPost2010PropOp35
 70
     1
102
RTVSPost2010Prop36
280
     0
102
RTVSPost2010PropOp36
 70
     1
102
RTVSPost2010Prop37
 90
       50
102
RTVSPost2010PropOp37
 70
     1
102
RTVSPost2010Prop38
140
0.0
102
RTVSPost2010PropOp38
 70
     1
102
RTVSPost2010Prop39
140
1.0
102
RTVSPost2010PropOp39
 70
     1
102
RTVSPost2010Prop40
 90
        0
102
RTVSPost2010PropOp40
 70
     1
102
RTVSPost2010Prop41ColorIndex
 90
       18
102
RTVSPost2010Prop41ColorRGB
 90
        0
102
RTVSPost2010PropOp41
 70
     1
102
RTVSPost2010Prop42
 90
       50
102
RTVSPost2010PropOp42
 70
     1
102
RTVSPost2010Prop43
 90
        3
102
RTVSPost2010PropOp43
 70
     1
102
RTVSPost2010Prop44ColorIndex
 90
        5
102
RTVSPost2010Prop44ColorRGB
 90
      255
102
RTVSPost2010PropOp44
 70
     1
102
RTVSPost2010Prop45
280
     0
102
RTVSPost2010PropOp45
 70
     1
102
RTVSPost2010Prop46
 90
       50
102
RTVSPost2010PropOp46
 70
     1
102
RTVSPost2010Prop47
 90
       50
102
RTVSPost2010PropOp47
 70
     1
102
RTVSPost2010Prop48
 90
       50
102
RTVSPost2010PropOp48
 70
     1
102
RTVSPost2010Prop49
280
     0
102
RTVSPost2010PropOp49
 70
     1
102
RTVSPost2010Prop50
 90
       50
102
RTVSPost2010PropOp50
 70
     1
102
RTVSPost2010Prop51ColorIndex
 90
      256
102
RTVSPost2010Prop51ColorRGB
 90
-16777216
102
RTVSPost2010PropOp51
 70
     0
102
RTVSPost2010Prop52
140
1.0
102
RTVSPost2010PropOp52
 70
     0
102
RTVSPost2010Prop53
 90
        2
102
RTVSPost2010PropOp53
 70
     1
102
RTVSPost2010Prop54
  1
strokes_ogs.tif
102
RTVSPost2010PropOp54
 70
     1
102
RTVSPost2010Prop55
280
     0
102
RTVSPost2010PropOp55
 70
     1
102
RTVSPost2010Prop56
140
1.0
102
RTVSPost2010PropOp56
 70
     1
102
RTVSPost2010Prop57
140
1.0
102
RTVSPost2010PropOp57
 70
     1
  0
XRECORD
  5
F7
102
{ACAD_REACTORS
330
F6
102
}
330
F6
100
AcDbXrecord
280
     1
102
RTVSPropertyOp0
 70
     1
102
RTVSPropertyOp1
 70
     1
102
RTVSPropertyOp2
 70
     1
102
RTVSPropertyOp3
 70
     1
102
RTVSPropertyOp4
 70
     1
102
RTVSPropertyOp5
 70
     1
102
RTVSPropertyOp6
 70
     1
102
RTVSPropertyOp7
 70
     1
102
RTVSPropertyOp8
 70
     1
102
RTVSPropertyOp9
 70
     1
102
RTVSPropertyOp10
 70
     1
102
RTVSPropertyOp11
 70
     1
102
RTVSPropertyOp12
 70
     1
102
RTVSPropertyOp13
 70
     1
102
RTVSPropertyOp14
 70
     1
102
RTVSPropertyOp15
 70
     1
102
RTVSPropertyOp16
 70
     1
102
RTVSPropertyOp17
 70
     1
102
RTVSPropertyOp18
 70
     1
102
RTVSPropertyOp19
 70
     1
102
RTVSPropertyOp20
 70
     1
102
RTVSPropertyOp21
 70
     1
102
RTVSPropertyOp22
 70
     1
102
RTVSPropertyOp23
 70
     1
102
RTVSPropertyOp24
 70
     1
102
RTVSPropertyOp25
 70
     1
102
RTVSPropertyOp26
 70
     1
102
RTVSPropertyOp27
 70
     1
102
RTVSPropertyOp28
 70
     1
102
RTVSPropertyOp29
 70
     1
102
RTVSPropertyOp30
 70
     1
102
RTVSPropertyOp31
 70
     1
102
RTVSPropertyOp32
 70
     1
102
RTVSPropertyOp33
 70
     1
102
RTVSPropertyOp34
 70
     1
102
RTVSPropertyOp35
 70
     1
102
RTVSPropertyOp36
 70
     1
102
RTVSPropertyOp37
 70
     1
102
RTVSPropertyOp38
 70
     1
102
RTVSPropertyOp39
 70
     1
102
RTVSPropertyOp40
 70
     1
102
RTVSPropertyOp41
 70
     1
102
RTVSPropertyOp42
 70
     1
102
RTVSPropertyOp43
 70
     1
102
RTVSPropertyOp44
 70
     1
102
RTVSPropertyOp45
 70
     1
102
RTVSPropertyOp46
 70
     1
102
RTVSPropertyOp47
 70
     1
102
RTVSPropertyOp48
 70
     1
102
RTVSPropertyOp49
 70
     1
102
RTVSPropertyOp50
 70
     1
102
RTVSPropertyOp51
 70
     0
102
RTVSPropertyOp52
 70
     0
102
RTVSPropertyOp53
 70
     1
102
RTVSPropertyOp54
 70
     1
102
RTVSPropertyOp55
 70
     1
102
RTVSPropertyOp56
 70
     1
102
RTVSPropertyOp57
 70
     1
102
RTVSPost2010Prop28
280
     0
102
RTVSPost2010PropOp28
 70
     1
102
RTVSPost2010Prop29
280
     1
102
RTVSPost2010PropOp29
 70
     1
102
RTVSPost2010Prop30
280
     1
102
RTVSPost2010PropOp30
 70
     1
102
RTVSPost2010Prop31
280
     0
102
RTVSPost2010PropOp31
 70
     1
102
RTVSPost2010Prop32
280
     0
102
RTVSPost2010PropOp32
 70
     1
102
RTVSPost2010Prop33
280
     0
102
RTVSPost2010PropOp33
 70
     1
102
RTVSPost2010Prop34
280
     0
102
RTVSPost2010PropOp34
 70
     1
102
RTVSPost2010Prop35
280
     0
102
RTVSPost2010PropOp35
 70
     1
102
RTVSPost2010Prop36
280
     0
102
RTVSPost2010PropOp36
 70
     1
102
RTVSPost2010Prop37
 90
       50
102
RTVSPost2010PropOp37
 70
     1
102
RTVSPost2010Prop38
140
0.0
102
RTVSPost2010PropOp38
 70
     1
102
RTVSPost2010Prop39
140
1.0
102
RTVSPost2010PropOp39
 70
     1
102
RTVSPost2010Prop40
 90
        0
102
RTVSPost2010PropOp40
 70
     1
102
RTVSPost2010Prop41ColorIndex
 90
       18
102
RTVSPost2010Prop41ColorRGB
 90
        0
102
RTVSPost2010PropOp41
 70
     1
102
RTVSPost2010Prop42
 90
       50
102
RTVSPost2010PropOp42
 70
     1
102
RTVSPost2010Prop43
 90
        3
102
RTVSPost2010PropOp43
 70
     1
102
RTVSPost2010Prop44ColorIndex
 90
        5
102
RTVSPost2010Prop44ColorRGB
 90
      255
102
RTVSPost2010PropOp44
 70
     1
102
RTVSPost2010Prop45
280
     0
102
RTVSPost2010PropOp45
 70
     1
102
RTVSPost2010Prop46
 90
       50
102
RTVSPost2010PropOp46
 70
     1
102
RTVSPost2010Prop47
 90
       50
102
RTVSPost2010PropOp47
 70
     1
102
RTVSPost2010Prop48
 90
       50
102
RTVSPost2010PropOp48
 70
     1
102
RTVSPost2010Prop49
280
     0
102
RTVSPost2010PropOp49
 70
     1
102
RTVSPost2010Prop50
 90
       50
102
RTVSPost2010PropOp50
 70
     1
102
RTVSPost2010Prop51ColorIndex
 90
      256
102
RTVSPost2010Prop51ColorRGB
 90
-16777216
102
RTVSPost2010PropOp51
 70
     0
102
RTVSPost2010Prop52
140
1.0
102
RTVSPost2010PropOp52
 70
     0
102
RTVSPost2010Prop53
 90
        2
102
RTVSPost2010PropOp53
 70
     1
102
RTVSPost2010Prop54
  1
strokes_ogs.tif
102
RTVSPost2010PropOp54
 70
     1
102
RTVSPost2010Prop55
280
     0
102
RTVSPost2010PropOp55
 70
     1
102
RTVSPost2010Prop56
140
1.0
102
RTVSPost2010PropOp56
 70
     1
102
RTVSPost2010Prop57
140
1.0
102
RTVSPost2010PropOp57
 70
     1
  0
XRECORD
  5
F9
102
{ACAD_REACTORS
330
F8
102
}
330
F8
100
AcDbXrecord
280
     1
102
RTVSPropertyOp0
 70
     1
102
RTVSPropertyOp1
 70
     1
102
RTVSPropertyOp2
 70
     1
102
RTVSPropertyOp3
 70
     1
102
RTVSPropertyOp4
 70
     1
102
RTVSPropertyOp5
 70
     1
102
RTVSPropertyOp6
 70
     1
102
RTVSPropertyOp7
 70
     1
102
RTVSPropertyOp8
 70
     1
102
RTVSPropertyOp9
 70
     1
102
RTVSPropertyOp10
 70
     1
102
RTVSPropertyOp11
 70
     1
102
RTVSPropertyOp12
 70
     1
102
RTVSPropertyOp13
 70
     1
102
RTVSPropertyOp14
 70
     1
102
RTVSPropertyOp15
 70
     1
102
RTVSPropertyOp16
 70
     1
102
RTVSPropertyOp17
 70
     1
102
RTVSPropertyOp18
 70
     1
102
RTVSPropertyOp19
 70
     1
102
RTVSPropertyOp20
 70
     1
102
RTVSPropertyOp21
 70
     1
102
RTVSPropertyOp22
 70
     1
102
RTVSPropertyOp23
 70
     1
102
RTVSPropertyOp24
 70
     1
102
RTVSPropertyOp25
 70
     1
102
RTVSPropertyOp26
 70
     1
102
RTVSPropertyOp27
 70
     1
102
RTVSPropertyOp28
 70
     1
102
RTVSPropertyOp29
 70
     1
102
RTVSPropertyOp30
 70
     1
102
RTVSPropertyOp31
 70
     1
102
RTVSPropertyOp32
 70
     1
102
RTVSPropertyOp33
 70
     1
102
RTVSPropertyOp34
 70
     1
102
RTVSPropertyOp35
 70
     1
102
RTVSPropertyOp36
 70
     1
102
RTVSPropertyOp37
 70
     1
102
RTVSPropertyOp38
 70
     1
102
RTVSPropertyOp39
 70
     1
102
RTVSPropertyOp40
 70
     1
102
RTVSPropertyOp41
 70
     1
102
RTVSPropertyOp42
 70
     1
102
RTVSPropertyOp43
 70
     1
102
RTVSPropertyOp44
 70
     1
102
RTVSPropertyOp45
 70
     1
102
RTVSPropertyOp46
 70
     1
102
RTVSPropertyOp47
 70
     1
102
RTVSPropertyOp48
 70
     1
102
RTVSPropertyOp49
 70
     1
102
RTVSPropertyOp50
 70
     1
102
RTVSPropertyOp51
 70
     0
102
RTVSPropertyOp52
 70
     0
102
RTVSPropertyOp53
 70
     1
102
RTVSPropertyOp54
 70
     1
102
RTVSPropertyOp55
 70
     1
102
RTVSPropertyOp56
 70
     1
102
RTVSPropertyOp57
 70
     1
102
RTVSPost2010Prop28
280
     0
102
RTVSPost2010PropOp28
 70
     1
102
RTVSPost2010Prop29
280
     1
102
RTVSPost2010PropOp29
 70
     1
102
RTVSPost2010Prop30
280
     1
102
RTVSPost2010PropOp30
 70
     1
102
RTVSPost2010Prop31
280
     0
102
RTVSPost2010PropOp31
 70
     1
102
RTVSPost2010Prop32
280
     0
102
RTVSPost2010PropOp32
 70
     1
102
RTVSPost2010Prop33
280
     0
102
RTVSPost2010PropOp33
 70
     1
102
RTVSPost2010Prop34
280
     0
102
RTVSPost2010PropOp34
 70
     1
102
RTVSPost2010Prop35
280
     0
102
RTVSPost2010PropOp35
 70
     1
102
RTVSPost2010Prop36
280
     0
102
RTVSPost2010PropOp36
 70
     1
102
RTVSPost2010Prop37
 90
       50
102
RTVSPost2010PropOp37
 70
     1
102
RTVSPost2010Prop38
140
0.0
102
RTVSPost2010PropOp38
 70
     1
102
RTVSPost2010Prop39
140
1.0
102
RTVSPost2010PropOp39
 70
     1
102
RTVSPost2010Prop40
 90
        0
102
RTVSPost2010PropOp40
 70
     1
102
RTVSPost2010Prop41ColorIndex
 90
       18
102
RTVSPost2010Prop41ColorRGB
 90
        0
102
RTVSPost2010PropOp41
 70
     1
102
RTVSPost2010Prop42
 90
       50
102
RTVSPost2010PropOp42
 70
     1
102
RTVSPost2010Prop43
 90
        3
102
RTVSPost2010PropOp43
 70
     1
102
RTVSPost2010Prop44ColorIndex
 90
        5
102
RTVSPost2010Prop44ColorRGB
 90
      255
102
RTVSPost2010PropOp44
 70
     1
102
RTVSPost2010Prop45
280
     0
102
RTVSPost2010PropOp45
 70
     1
102
RTVSPost2010Prop46
 90
       50
102
RTVSPost2010PropOp46
 70
     1
102
RTVSPost2010Prop47
 90
       50
102
RTVSPost2010PropOp47
 70
     1
102
RTVSPost2010Prop48
 90
       50
102
RTVSPost2010PropOp48
 70
     1
102
RTVSPost2010Prop49
280
     0
102
RTVSPost2010PropOp49
 70
     1
102
RTVSPost2010Prop50
 90
       50
102
RTVSPost2010PropOp50
 70
     1
102
RTVSPost2010Prop51ColorIndex
 90
      256
102
RTVSPost2010Prop51ColorRGB
 90
-16777216
102
RTVSPost2010PropOp51
 70
     0
102
RTVSPost2010Prop52
140
1.0
102
RTVSPost2010PropOp52
 70
     0
102
RTVSPost2010Prop53
 90
        2
102
RTVSPost2010PropOp53
 70
     1
102
RTVSPost2010Prop54
  1
strokes_ogs.tif
102
RTVSPost2010PropOp54
 70
     1
102
RTVSPost2010Prop55
280
     0
102
RTVSPost2010PropOp55
 70
     1
102
RTVSPost2010Prop56
140
1.0
102
RTVSPost2010PropOp56
 70
     1
102
RTVSPost2010Prop57
140
1.0
102
RTVSPost2010PropOp57
 70
     1
  0
XRECORD
  5
FB
102
{ACAD_REACTORS
330
FA
102
}
330
FA
100
AcDbXrecord
280
     1
102
RTVSPropertyOp0
 70
     1
102
RTVSPropertyOp1
 70
     1
102
RTVSPropertyOp2
 70
     1
102
RTVSPropertyOp3
 70
     1
102
RTVSPropertyOp4
 70
     1
102
RTVSPropertyOp5
 70
     1
102
RTVSPropertyOp6
 70
     1
102
RTVSPropertyOp7
 70
     1
102
RTVSPropertyOp8
 70
     1
102
RTVSPropertyOp9
 70
     1
102
RTVSPropertyOp10
 70
     1
102
RTVSPropertyOp11
 70
     1
102
RTVSPropertyOp12
 70
     1
102
RTVSPropertyOp13
 70
     1
102
RTVSPropertyOp14
 70
     1
102
RTVSPropertyOp15
 70
     1
102
RTVSPropertyOp16
 70
     1
102
RTVSPropertyOp17
 70
     1
102
RTVSPropertyOp18
 70
     1
102
RTVSPropertyOp19
 70
     1
102
RTVSPropertyOp20
 70
     1
102
RTVSPropertyOp21
 70
     1
102
RTVSPropertyOp22
 70
     1
102
RTVSPropertyOp23
 70
     1
102
RTVSPropertyOp24
 70
     1
102
RTVSPropertyOp25
 70
     1
102
RTVSPropertyOp26
 70
     1
102
RTVSPropertyOp27
 70
     1
102
RTVSPropertyOp28
 70
     1
102
RTVSPropertyOp29
 70
     1
102
RTVSPropertyOp30
 70
     1
102
RTVSPropertyOp31
 70
     1
102
RTVSPropertyOp32
 70
     1
102
RTVSPropertyOp33
 70
     1
102
RTVSPropertyOp34
 70
     1
102
RTVSPropertyOp35
 70
     1
102
RTVSPropertyOp36
 70
     1
102
RTVSPropertyOp37
 70
     1
102
RTVSPropertyOp38
 70
     1
102
RTVSPropertyOp39
 70
     1
102
RTVSPropertyOp40
 70
     1
102
RTVSPropertyOp41
 70
     1
102
RTVSPropertyOp42
 70
     1
102
RTVSPropertyOp43
 70
     1
102
RTVSPropertyOp44
 70
     1
102
RTVSPropertyOp45
 70
     1
102
RTVSPropertyOp46
 70
     1
102
RTVSPropertyOp47
 70
     1
102
RTVSPropertyOp48
 70
     1
102
RTVSPropertyOp49
 70
     1
102
RTVSPropertyOp50
 70
     1
102
RTVSPropertyOp51
 70
     0
102
RTVSPropertyOp52
 70
     0
102
RTVSPropertyOp53
 70
     1
102
RTVSPropertyOp54
 70
     1
102
RTVSPropertyOp55
 70
     1
102
RTVSPropertyOp56
 70
     1
102
RTVSPropertyOp57
 70
     1
102
RTVSPost2010Prop28
280
     0
102
RTVSPost2010PropOp28
 70
     1
102
RTVSPost2010Prop29
280
     1
102
RTVSPost2010PropOp29
 70
     1
102
RTVSPost2010Prop30
280
     1
102
RTVSPost2010PropOp30
 70
     1
102
RTVSPost2010Prop31
280
     0
102
RTVSPost2010PropOp31
 70
     1
102
RTVSPost2010Prop32
280
     0
102
RTVSPost2010PropOp32
 70
     1
102
RTVSPost2010Prop33
280
     0
102
RTVSPost2010PropOp33
 70
     1
102
RTVSPost2010Prop34
280
     0
102
RTVSPost2010PropOp34
 70
     1
102
RTVSPost2010Prop35
280
     0
102
RTVSPost2010PropOp35
 70
     1
102
RTVSPost2010Prop36
280
     0
102
RTVSPost2010PropOp36
 70
     1
102
RTVSPost2010Prop37
 90
       50
102
RTVSPost2010PropOp37
 70
     1
102
RTVSPost2010Prop38
140
0.0
102
RTVSPost2010PropOp38
 70
     1
102
RTVSPost2010Prop39
140
1.0
102
RTVSPost2010PropOp39
 70
     1
102
RTVSPost2010Prop40
 90
        0
102
RTVSPost2010PropOp40
 70
     1
102
RTVSPost2010Prop41ColorIndex
 90
       18
102
RTVSPost2010Prop41ColorRGB
 90
        0
102
RTVSPost2010PropOp41
 70
     1
102
RTVSPost2010Prop42
 90
       50
102
RTVSPost2010PropOp42
 70
     1
102
RTVSPost2010Prop43
 90
        3
102
RTVSPost2010PropOp43
 70
     1
102
RTVSPost2010Prop44ColorIndex
 90
        5
102
RTVSPost2010Prop44ColorRGB
 90
      255
102
RTVSPost2010PropOp44
 70
     1
102
RTVSPost2010Prop45
280
     0
102
RTVSPost2010PropOp45
 70
     1
102
RTVSPost2010Prop46
 90
       50
102
RTVSPost2010PropOp46
 70
     1
102
RTVSPost2010Prop47
 90
       50
102
RTVSPost2010PropOp47
 70
     1
102
RTVSPost2010Prop48
 90
       50
102
RTVSPost2010PropOp48
 70
     1
102
RTVSPost2010Prop49
280
     0
102
RTVSPost2010PropOp49
 70
     1
102
RTVSPost2010Prop50
 90
       50
102
RTVSPost2010PropOp50
 70
     1
102
RTVSPost2010Prop51ColorIndex
 90
      256
102
RTVSPost2010Prop51ColorRGB
 90
-16777216
102
RTVSPost2010PropOp51
 70
     0
102
RTVSPost2010Prop52
140
1.0
102
RTVSPost2010PropOp52
 70
     0
102
RTVSPost2010Prop53
 90
        2
102
RTVSPost2010PropOp53
 70
     1
102
RTVSPost2010Prop54
  1
strokes_ogs.tif
102
RTVSPost2010PropOp54
 70
     1
102
RTVSPost2010Prop55
280
     0
102
RTVSPost2010PropOp55
 70
     1
102
RTVSPost2010Prop56
140
1.0
102
RTVSPost2010PropOp56
 70
     1
102
RTVSPost2010Prop57
140
1.0
102
RTVSPost2010PropOp57
 70
     1
  0
XRECORD
  5
FD
102
{ACAD_REACTORS
330
FC
102
}
330
FC
100
AcDbXrecord
280
     1
102
RTVSPropertyOp0
 70
     1
102
RTVSPropertyOp1
 70
     1
102
RTVSPropertyOp2
 70
     1
102
RTVSPropertyOp3
 70
     1
102
RTVSPropertyOp4
 70
     1
102
RTVSPropertyOp5
 70
     1
102
RTVSPropertyOp6
 70
     1
102
RTVSPropertyOp7
 70
     1
102
RTVSPropertyOp8
 70
     1
102
RTVSPropertyOp9
 70
     1
102
RTVSPropertyOp10
 70
     1
102
RTVSPropertyOp11
 70
     1
102
RTVSPropertyOp12
 70
     1
102
RTVSPropertyOp13
 70
     1
102
RTVSPropertyOp14
 70
     1
102
RTVSPropertyOp15
 70
     1
102
RTVSPropertyOp16
 70
     1
102
RTVSPropertyOp17
 70
     1
102
RTVSPropertyOp18
 70
     1
102
RTVSPropertyOp19
 70
     1
102
RTVSPropertyOp20
 70
     1
102
RTVSPropertyOp21
 70
     1
102
RTVSPropertyOp22
 70
     1
102
RTVSPropertyOp23
 70
     1
102
RTVSPropertyOp24
 70
     1
102
RTVSPropertyOp25
 70
     1
102
RTVSPropertyOp26
 70
     1
102
RTVSPropertyOp27
 70
     1
102
RTVSPropertyOp28
 70
     1
102
RTVSPropertyOp29
 70
     1
102
RTVSPropertyOp30
 70
     1
102
RTVSPropertyOp31
 70
     1
102
RTVSPropertyOp32
 70
     1
102
RTVSPropertyOp33
 70
     1
102
RTVSPropertyOp34
 70
     1
102
RTVSPropertyOp35
 70
     1
102
RTVSPropertyOp36
 70
     1
102
RTVSPropertyOp37
 70
     1
102
RTVSPropertyOp38
 70
     1
102
RTVSPropertyOp39
 70
     1
102
RTVSPropertyOp40
 70
     1
102
RTVSPropertyOp41
 70
     1
102
RTVSPropertyOp42
 70
     1
102
RTVSPropertyOp43
 70
     1
102
RTVSPropertyOp44
 70
     1
102
RTVSPropertyOp45
 70
     1
102
RTVSPropertyOp46
 70
     1
102
RTVSPropertyOp47
 70
     1
102
RTVSPropertyOp48
 70
     1
102
RTVSPropertyOp49
 70
     1
102
RTVSPropertyOp50
 70
     1
102
RTVSPropertyOp51
 70
     0
102
RTVSPropertyOp52
 70
     0
102
RTVSPropertyOp53
 70
     1
102
RTVSPropertyOp54
 70
     1
102
RTVSPropertyOp55
 70
     1
102
RTVSPropertyOp56
 70
     1
102
RTVSPropertyOp57
 70
     1
102
RTVSPost2010Prop28
280
     0
102
RTVSPost2010PropOp28
 70
     1
102
RTVSPost2010Prop29
280
     1
102
RTVSPost2010PropOp29
 70
     1
102
RTVSPost2010Prop30
280
     1
102
RTVSPost2010PropOp30
 70
     1
102
RTVSPost2010Prop31
280
     0
102
RTVSPost2010PropOp31
 70
     1
102
RTVSPost2010Prop32
280
     0
102
RTVSPost2010PropOp32
 70
     1
102
RTVSPost2010Prop33
280
     0
102
RTVSPost2010PropOp33
 70
     1
102
RTVSPost2010Prop34
280
     0
102
RTVSPost2010PropOp34
 70
     1
102
RTVSPost2010Prop35
280
     0
102
RTVSPost2010PropOp35
 70
     1
102
RTVSPost2010Prop36
280
     0
102
RTVSPost2010PropOp36
 70
     1
102
RTVSPost2010Prop37
 90
       50
102
RTVSPost2010PropOp37
 70
     1
102
RTVSPost2010Prop38
140
0.0
102
RTVSPost2010PropOp38
 70
     1
102
RTVSPost2010Prop39
140
1.0
102
RTVSPost2010PropOp39
 70
     1
102
RTVSPost2010Prop40
 90
        0
102
RTVSPost2010PropOp40
 70
     1
102
RTVSPost2010Prop41ColorIndex
 90
       18
102
RTVSPost2010Prop41ColorRGB
 90
        0
102
RTVSPost2010PropOp41
 70
     1
102
RTVSPost2010Prop42
 90
       50
102
RTVSPost2010PropOp42
 70
     1
102
RTVSPost2010Prop43
 90
        3
102
RTVSPost2010PropOp43
 70
     1
102
RTVSPost2010Prop44ColorIndex
 90
        5
102
RTVSPost2010Prop44ColorRGB
 90
      255
102
RTVSPost2010PropOp44
 70
     1
102
RTVSPost2010Prop45
280
     0
102
RTVSPost2010PropOp45
 70
     1
102
RTVSPost2010Prop46
 90
       50
102
RTVSPost2010PropOp46
 70
     1
102
RTVSPost2010Prop47
 90
       50
102
RTVSPost2010PropOp47
 70
     1
102
RTVSPost2010Prop48
 90
       50
102
RTVSPost2010PropOp48
 70
     1
102
RTVSPost2010Prop49
280
     0
102
RTVSPost2010PropOp49
 70
     1
102
RTVSPost2010Prop50
 90
       50
102
RTVSPost2010PropOp50
 70
     1
102
RTVSPost2010Prop51ColorIndex
 90
      256
102
RTVSPost2010Prop51ColorRGB
 90
-16777216
102
RTVSPost2010PropOp51
 70
     0
102
RTVSPost2010Prop52
140
1.0
102
RTVSPost2010PropOp52
 70
     0
102
RTVSPost2010Prop53
 90
        2
102
RTVSPost2010PropOp53
 70
     1
102
RTVSPost2010Prop54
  1
strokes_ogs.tif
102
RTVSPost2010PropOp54
 70
     1
102
RTVSPost2010Prop55
280
     0
102
RTVSPost2010PropOp55
 70
     1
102
RTVSPost2010Prop56
140
1.0
102
RTVSPost2010PropOp56
 70
     1
102
RTVSPost2010Prop57
140
1.0
102
RTVSPost2010PropOp57
 70
     1
  0
XRECORD
  5
103
102
{ACAD_REACTORS
330
102
102
}
330
102
100
AcDbXrecord
280
     1
102
RTVSPropertyOp0
 70
     1
102
RTVSPropertyOp1
 70
     1
102
RTVSPropertyOp2
 70
     1
102
RTVSPropertyOp3
 70
     1
102
RTVSPropertyOp4
 70
     1
102
RTVSPropertyOp5
 70
     1
102
RTVSPropertyOp6
 70
     1
102
RTVSPropertyOp7
 70
     1
102
RTVSPropertyOp8
 70
     1
102
RTVSPropertyOp9
 70
     1
102
RTVSPropertyOp10
 70
     1
102
RTVSPropertyOp11
 70
     1
102
RTVSPropertyOp12
 70
     1
102
RTVSPropertyOp13
 70
     1
102
RTVSPropertyOp14
 70
     1
102
RTVSPropertyOp15
 70
     1
102
RTVSPropertyOp16
 70
     1
102
RTVSPropertyOp17
 70
     1
102
RTVSPropertyOp18
 70
     1
102
RTVSPropertyOp19
 70
     1
102
RTVSPropertyOp20
 70
     1
102
RTVSPropertyOp21
 70
     1
102
RTVSPropertyOp22
 70
     1
102
RTVSPropertyOp23
 70
     1
102
RTVSPropertyOp24
 70
     1
102
RTVSPropertyOp25
 70
     1
102
RTVSPropertyOp26
 70
     1
102
RTVSPropertyOp27
 70
     1
102
RTVSPropertyOp28
 70
     1
102
RTVSPropertyOp29
 70
     1
102
RTVSPropertyOp30
 70
     1
102
RTVSPropertyOp31
 70
     1
102
RTVSPropertyOp32
 70
     1
102
RTVSPropertyOp33
 70
     1
102
RTVSPropertyOp34
 70
     1
102
RTVSPropertyOp35
 70
     1
102
RTVSPropertyOp36
 70
     1
102
RTVSPropertyOp37
 70
     1
102
RTVSPropertyOp38
 70
     1
102
RTVSPropertyOp39
 70
     1
102
RTVSPropertyOp40
 70
     1
102
RTVSPropertyOp41
 70
     1
102
RTVSPropertyOp42
 70
     1
102
RTVSPropertyOp43
 70
     1
102
RTVSPropertyOp44
 70
     1
102
RTVSPropertyOp45
 70
     1
102
RTVSPropertyOp46
 70
     1
102
RTVSPropertyOp47
 70
     1
102
RTVSPropertyOp48
 70
     1
102
RTVSPropertyOp49
 70
     1
102
RTVSPropertyOp50
 70
     1
102
RTVSPropertyOp51
 70
     0
102
RTVSPropertyOp52
 70
     0
102
RTVSPropertyOp53
 70
     1
102
RTVSPropertyOp54
 70
     1
102
RTVSPropertyOp55
 70
     1
102
RTVSPropertyOp56
 70
     1
102
RTVSPropertyOp57
 70
     1
102
RTVSPost2010Prop28
280
     0
102
RTVSPost2010PropOp28
 70
     1
102
RTVSPost2010Prop29
280
     1
102
RTVSPost2010PropOp29
 70
     1
102
RTVSPost2010Prop30
280
     1
102
RTVSPost2010PropOp30
 70
     1
102
RTVSPost2010Prop31
280
     0
102
RTVSPost2010PropOp31
 70
     1
102
RTVSPost2010Prop32
280
     0
102
RTVSPost2010PropOp32
 70
     1
102
RTVSPost2010Prop33
280
     0
102
RTVSPost2010PropOp33
 70
     1
102
RTVSPost2010Prop34
280
     0
102
RTVSPost2010PropOp34
 70
     1
102
RTVSPost2010Prop35
280
     0
102
RTVSPost2010PropOp35
 70
     1
102
RTVSPost2010Prop36
280
     0
102
RTVSPost2010PropOp36
 70
     1
102
RTVSPost2010Prop37
 90
       50
102
RTVSPost2010PropOp37
 70
     1
102
RTVSPost2010Prop38
140
0.0
102
RTVSPost2010PropOp38
 70
     1
102
RTVSPost2010Prop39
140
1.0
102
RTVSPost2010PropOp39
 70
     1
102
RTVSPost2010Prop40
 90
        0
102
RTVSPost2010PropOp40
 70
     1
102
RTVSPost2010Prop41ColorIndex
 90
       18
102
RTVSPost2010Prop41ColorRGB
 90
        0
102
RTVSPost2010PropOp41
 70
     1
102
RTVSPost2010Prop42
 90
       50
102
RTVSPost2010PropOp42
 70
     1
102
RTVSPost2010Prop43
 90
        3
102
RTVSPost2010PropOp43
 70
     1
102
RTVSPost2010Prop44ColorIndex
 90
        5
102
RTVSPost2010Prop44ColorRGB
 90
      255
102
RTVSPost2010PropOp44
 70
     1
102
RTVSPost2010Prop45
280
     0
102
RTVSPost2010PropOp45
 70
     1
102
RTVSPost2010Prop46
 90
       50
102
RTVSPost2010PropOp46
 70
     1
102
RTVSPost2010Prop47
 90
       50
102
RTVSPost2010PropOp47
 70
     1
102
RTVSPost2010Prop48
 90
       50
102
RTVSPost2010PropOp48
 70
     1
102
RTVSPost2010Prop49
280
     0
102
RTVSPost2010PropOp49
 70
     1
102
RTVSPost2010Prop50
 90
       50
102
RTVSPost2010PropOp50
 70
     1
102
RTVSPost2010Prop51ColorIndex
 90
      256
102
RTVSPost2010Prop51ColorRGB
 90
-16777216
102
RTVSPost2010PropOp51
 70
     0
102
RTVSPost2010Prop52
140
1.0
102
RTVSPost2010PropOp52
 70
     0
102
RTVSPost2010Prop53
 90
        2
102
RTVSPost2010PropOp53
 70
     1
102
RTVSPost2010Prop54
  1
strokes_ogs.tif
102
RTVSPost2010PropOp54
 70
     1
102
RTVSPost2010Prop55
280
     0
102
RTVSPost2010PropOp55
 70
     1
102
RTVSPost2010Prop56
140
1.0
102
RTVSPost2010PropOp56
 70
     1
102
RTVSPost2010Prop57
140
1.0
102
RTVSPost2010PropOp57
 70
     1
  0
XRECORD
  5
117
102
{ACAD_REACTORS
330
116
102
}
330
116
100
AcDbXrecord
280
     1
102
RTVSPropertyOp0
 70
     0
102
RTVSPropertyOp1
 70
     0
102
RTVSPropertyOp2
 70
     0
102
RTVSPropertyOp3
 70
     0
102
RTVSPropertyOp4
 70
     0
102
RTVSPropertyOp5
 70
     0
102
RTVSPropertyOp6
 70
     0
102
RTVSPropertyOp7
 70
     0
102
RTVSPropertyOp8
 70
     0
102
RTVSPropertyOp9
 70
     0
102
RTVSPropertyOp10
 70
     0
102
RTVSPropertyOp11
 70
     0
102
RTVSPropertyOp12
 70
     0
102
RTVSPropertyOp13
 70
     0
102
RTVSPropertyOp14
 70
     2
102
RTVSPropertyOp15
 70
     0
102
RTVSPropertyOp16
 70
     0
102
RTVSPropertyOp17
 70
     0
102
RTVSPropertyOp18
 70
     0
102
RTVSPropertyOp19
 70
     0
102
RTVSPropertyOp20
 70
     0
102
RTVSPropertyOp21
 70
     0
102
RTVSPropertyOp22
 70
     0
102
RTVSPropertyOp23
 70
     0
102
RTVSPropertyOp24
 70
     0
102
RTVSPropertyOp25
 70
     0
102
RTVSPropertyOp26
 70
     0
102
RTVSPropertyOp27
 70
     0
102
RTVSPropertyOp28
 70
     0
102
RTVSPropertyOp29
 70
     0
102
RTVSPropertyOp30
 70
     0
102
RTVSPropertyOp31
 70
     0
102
RTVSPropertyOp32
 70
     0
102
RTVSPropertyOp33
 70
     0
102
RTVSPropertyOp34
 70
     0
102
RTVSPropertyOp35
 70
     0
102
RTVSPropertyOp36
 70
     0
102
RTVSPropertyOp37
 70
     0
102
RTVSPropertyOp38
 70
     0
102
RTVSPropertyOp39
 70
     0
102
RTVSPropertyOp40
 70
     0
102
RTVSPropertyOp41
 70
     0
102
RTVSPropertyOp42
 70
     0
102
RTVSPropertyOp43
 70
     0
102
RTVSPropertyOp44
 70
     0
102
RTVSPropertyOp45
 70
     0
102
RTVSPropertyOp46
 70
     0
102
RTVSPropertyOp47
 70
     0
102
RTVSPropertyOp48
 70
     0
102
RTVSPropertyOp49
 70
     0
102
RTVSPropertyOp50
 70
     0
102
RTVSPropertyOp51
 70
     0
102
RTVSPropertyOp52
 70
     0
102
RTVSPropertyOp53
 70
     0
102
RTVSPropertyOp54
 70
     0
102
RTVSPropertyOp55
 70
     0
102
RTVSPropertyOp56
 70
     0
102
RTVSPropertyOp57
 70
     0
102
RTVSPost2010Prop28
280
     0
102
RTVSPost2010PropOp28
 70
     0
102
RTVSPost2010Prop29
280
     1
102
RTVSPost2010PropOp29
 70
     0
102
RTVSPost2010Prop30
280
     1
102
RTVSPost2010PropOp30
 70
     0
102
RTVSPost2010Prop31
280
     0
102
RTVSPost2010PropOp31
 70
     0
102
RTVSPost2010Prop32
280
     0
102
RTVSPost2010PropOp32
 70
     0
102
RTVSPost2010Prop33
280
     0
102
RTVSPost2010PropOp33
 70
     0
102
RTVSPost2010Prop34
280
     0
102
RTVSPost2010PropOp34
 70
     0
102
RTVSPost2010Prop35
280
     0
102
RTVSPost2010PropOp35
 70
     0
102
RTVSPost2010Prop36
280
     0
102
RTVSPost2010PropOp36
 70
     0
102
RTVSPost2010Prop37
 90
       50
102
RTVSPost2010PropOp37
 70
     0
102
RTVSPost2010Prop38
140
0.0
102
RTVSPost2010PropOp38
 70
     0
102
RTVSPost2010Prop39
140
1.0
102
RTVSPost2010PropOp39
 70
     0
102
RTVSPost2010Prop40
 90
        0
102
RTVSPost2010PropOp40
 70
     0
102
RTVSPost2010Prop41ColorIndex
 90
       18
102
RTVSPost2010Prop41ColorRGB
 90
        0
102
RTVSPost2010PropOp41
 70
     0
102
RTVSPost2010Prop42
 90
       50
102
RTVSPost2010PropOp42
 70
     0
102
RTVSPost2010Prop43
 90
        3
102
RTVSPost2010PropOp43
 70
     0
102
RTVSPost2010Prop44ColorIndex
 90
        5
102
RTVSPost2010Prop44ColorRGB
 90
      255
102
RTVSPost2010PropOp44
 70
     0
102
RTVSPost2010Prop45
280
     0
102
RTVSPost2010PropOp45
 70
     0
102
RTVSPost2010Prop46
 90
       50
102
RTVSPost2010PropOp46
 70
     0
102
RTVSPost2010Prop47
 90
       50
102
RTVSPost2010PropOp47
 70
     0
102
RTVSPost2010Prop48
 90
       50
102
RTVSPost2010PropOp48
 70
     0
102
RTVSPost2010Prop49
280
     0
102
RTVSPost2010PropOp49
 70
     0
102
RTVSPost2010Prop50
 90
       50
102
RTVSPost2010PropOp50
 70
     0
102
RTVSPost2010Prop51ColorIndex
 90
      256
102
RTVSPost2010Prop51ColorRGB
 90
-16777216
102
RTVSPost2010PropOp51
 70
     0
102
RTVSPost2010Prop52
140
1.0
102
RTVSPost2010PropOp52
 70
     0
102
RTVSPost2010Prop53
 90
        2
102
RTVSPost2010PropOp53
 70
     0
102
RTVSPost2010Prop54
  1
strokes_ogs.tif
102
RTVSPost2010PropOp54
 70
     0
102
RTVSPost2010Prop55
280
     0
102
RTVSPost2010PropOp55
 70
     0
102
RTVSPost2010Prop56
140
1.0
102
RTVSPost2010PropOp56
 70
     0
102
RTVSPost2010Prop57
140
1.0
102
RTVSPost2010PropOp57
 70
     0
  0
XRECORD
  5
111
102
{ACAD_REACTORS
330
110
102
}
330
110
100
AcDbXrecord
280
     1
102
RTVSPropertyOp0
 70
     1
102
RTVSPropertyOp1
 70
     1
102
RTVSPropertyOp2
 70
     1
102
RTVSPropertyOp3
 70
     1
102
RTVSPropertyOp4
 70
     1
102
RTVSPropertyOp5
 70
     1
102
RTVSPropertyOp6
 70
     1
102
RTVSPropertyOp7
 70
     1
102
RTVSPropertyOp8
 70
     1
102
RTVSPropertyOp9
 70
     1
102
RTVSPropertyOp10
 70
     1
102
RTVSPropertyOp11
 70
     1
102
RTVSPropertyOp12
 70
     1
102
RTVSPropertyOp13
 70
     1
102
RTVSPropertyOp14
 70
     1
102
RTVSPropertyOp15
 70
     1
102
RTVSPropertyOp16
 70
     1
102
RTVSPropertyOp17
 70
     1
102
RTVSPropertyOp18
 70
     1
102
RTVSPropertyOp19
 70
     1
102
RTVSPropertyOp20
 70
     1
102
RTVSPropertyOp21
 70
     1
102
RTVSPropertyOp22
 70
     1
102
RTVSPropertyOp23
 70
     1
102
RTVSPropertyOp24
 70
     1
102
RTVSPropertyOp25
 70
     1
102
RTVSPropertyOp26
 70
     1
102
RTVSPropertyOp27
 70
     1
102
RTVSPropertyOp28
 70
     1
102
RTVSPropertyOp29
 70
     1
102
RTVSPropertyOp30
 70
     1
102
RTVSPropertyOp31
 70
     1
102
RTVSPropertyOp32
 70
     1
102
RTVSPropertyOp33
 70
     1
102
RTVSPropertyOp34
 70
     1
102
RTVSPropertyOp35
 70
     1
102
RTVSPropertyOp36
 70
     1
102
RTVSPropertyOp37
 70
     1
102
RTVSPropertyOp38
 70
     1
102
RTVSPropertyOp39
 70
     1
102
RTVSPropertyOp40
 70
     1
102
RTVSPropertyOp41
 70
     1
102
RTVSPropertyOp42
 70
     1
102
RTVSPropertyOp43
 70
     1
102
RTVSPropertyOp44
 70
     1
102
RTVSPropertyOp45
 70
     1
102
RTVSPropertyOp46
 70
     1
102
RTVSPropertyOp47
 70
     1
102
RTVSPropertyOp48
 70
     1
102
RTVSPropertyOp49
 70
     1
102
RTVSPropertyOp50
 70
     1
102
RTVSPropertyOp51
 70
     0
102
RTVSPropertyOp52
 70
     0
102
RTVSPropertyOp53
 70
     1
102
RTVSPropertyOp54
 70
     1
102
RTVSPropertyOp55
 70
     1
102
RTVSPropertyOp56
 70
     1
102
RTVSPropertyOp57
 70
     1
102
RTVSPost2010Prop28
280
     0
102
RTVSPost2010PropOp28
 70
     1
102
RTVSPost2010Prop29
280
     1
102
RTVSPost2010PropOp29
 70
     1
102
RTVSPost2010Prop30
280
     1
102
RTVSPost2010PropOp30
 70
     1
102
RTVSPost2010Prop31
280
     0
102
RTVSPost2010PropOp31
 70
     1
102
RTVSPost2010Prop32
280
     0
102
RTVSPost2010PropOp32
 70
     1
102
RTVSPost2010Prop33
280
     0
102
RTVSPost2010PropOp33
 70
     1
102
RTVSPost2010Prop34
280
     0
102
RTVSPost2010PropOp34
 70
     1
102
RTVSPost2010Prop35
280
     0
102
RTVSPost2010PropOp35
 70
     1
102
RTVSPost2010Prop36
280
     0
102
RTVSPost2010PropOp36
 70
     1
102
RTVSPost2010Prop37
 90
       50
102
RTVSPost2010PropOp37
 70
     1
102
RTVSPost2010Prop38
140
0.0
102
RTVSPost2010PropOp38
 70
     1
102
RTVSPost2010Prop39
140
1.0
102
RTVSPost2010PropOp39
 70
     1
102
RTVSPost2010Prop40
 90
        0
102
RTVSPost2010PropOp40
 70
     1
102
RTVSPost2010Prop41ColorIndex
 90
       18
102
RTVSPost2010Prop41ColorRGB
 90
        0
102
RTVSPost2010PropOp41
 70
     1
102
RTVSPost2010Prop42
 90
       50
102
RTVSPost2010PropOp42
 70
     1
102
RTVSPost2010Prop43
 90
        3
102
RTVSPost2010PropOp43
 70
     1
102
RTVSPost2010Prop44ColorIndex
 90
        5
102
RTVSPost2010Prop44ColorRGB
 90
      255
102
RTVSPost2010PropOp44
 70
     1
102
RTVSPost2010Prop45
280
     0
102
RTVSPost2010PropOp45
 70
     1
102
RTVSPost2010Prop46
 90
       50
102
RTVSPost2010PropOp46
 70
     1
102
RTVSPost2010Prop47
 90
       50
102
RTVSPost2010PropOp47
 70
     1
102
RTVSPost2010Prop48
 90
       50
102
RTVSPost2010PropOp48
 70
     1
102
RTVSPost2010Prop49
280
     0
102
RTVSPost2010PropOp49
 70
     1
102
RTVSPost2010Prop50
 90
       50
102
RTVSPost2010PropOp50
 70
     1
102
RTVSPost2010Prop51ColorIndex
 90
      256
102
RTVSPost2010Prop51ColorRGB
 90
-16777216
102
RTVSPost2010PropOp51
 70
     0
102
RTVSPost2010Prop52
140
1.0
102
RTVSPost2010PropOp52
 70
     0
102
RTVSPost2010Prop53
 90
        2
102
RTVSPost2010PropOp53
 70
     1
102
RTVSPost2010Prop54
  1
strokes_ogs.tif
102
RTVSPost2010PropOp54
 70
     1
102
RTVSPost2010Prop55
280
     0
102
RTVSPost2010PropOp55
 70
     1
102
RTVSPost2010Prop56
140
1.0
102
RTVSPost2010PropOp56
 70
     1
102
RTVSPost2010Prop57
140
1.0
102
RTVSPost2010PropOp57
 70
     1
  0
XRECORD
  5
119
102
{ACAD_REACTORS
330
118
102
}
330
118
100
AcDbXrecord
280
     1
102
RTVSPropertyOp0
 70
     0
102
RTVSPropertyOp1
 70
     0
102
RTVSPropertyOp2
 70
     0
102
RTVSPropertyOp3
 70
     0
102
RTVSPropertyOp4
 70
     0
102
RTVSPropertyOp5
 70
     0
102
RTVSPropertyOp6
 70
     0
102
RTVSPropertyOp7
 70
     0
102
RTVSPropertyOp8
 70
     0
102
RTVSPropertyOp9
 70
     0
102
RTVSPropertyOp10
 70
     0
102
RTVSPropertyOp11
 70
     0
102
RTVSPropertyOp12
 70
     0
102
RTVSPropertyOp13
 70
     0
102
RTVSPropertyOp14
 70
     2
102
RTVSPropertyOp15
 70
     0
102
RTVSPropertyOp16
 70
     0
102
RTVSPropertyOp17
 70
     0
102
RTVSPropertyOp18
 70
     0
102
RTVSPropertyOp19
 70
     0
102
RTVSPropertyOp20
 70
     0
102
RTVSPropertyOp21
 70
     0
102
RTVSPropertyOp22
 70
     0
102
RTVSPropertyOp23
 70
     0
102
RTVSPropertyOp24
 70
     0
102
RTVSPropertyOp25
 70
     0
102
RTVSPropertyOp26
 70
     0
102
RTVSPropertyOp27
 70
     0
102
RTVSPropertyOp28
 70
     0
102
RTVSPropertyOp29
 70
     0
102
RTVSPropertyOp30
 70
     0
102
RTVSPropertyOp31
 70
     0
102
RTVSPropertyOp32
 70
     0
102
RTVSPropertyOp33
 70
     0
102
RTVSPropertyOp34
 70
     0
102
RTVSPropertyOp35
 70
     0
102
RTVSPropertyOp36
 70
     0
102
RTVSPropertyOp37
 70
     0
102
RTVSPropertyOp38
 70
     0
102
RTVSPropertyOp39
 70
     0
102
RTVSPropertyOp40
 70
     0
102
RTVSPropertyOp41
 70
     0
102
RTVSPropertyOp42
 70
     0
102
RTVSPropertyOp43
 70
     0
102
RTVSPropertyOp44
 70
     0
102
RTVSPropertyOp45
 70
     0
102
RTVSPropertyOp46
 70
     0
102
RTVSPropertyOp47
 70
     0
102
RTVSPropertyOp48
 70
     0
102
RTVSPropertyOp49
 70
     0
102
RTVSPropertyOp50
 70
     0
102
RTVSPropertyOp51
 70
     0
102
RTVSPropertyOp52
 70
     0
102
RTVSPropertyOp53
 70
     0
102
RTVSPropertyOp54
 70
     0
102
RTVSPropertyOp55
 70
     0
102
RTVSPropertyOp56
 70
     0
102
RTVSPropertyOp57
 70
     0
102
RTVSPost2010Prop28
280
     0
102
RTVSPost2010PropOp28
 70
     0
102
RTVSPost2010Prop29
280
     1
102
RTVSPost2010PropOp29
 70
     0
102
RTVSPost2010Prop30
280
     1
102
RTVSPost2010PropOp30
 70
     0
102
RTVSPost2010Prop31
280
     0
102
RTVSPost2010PropOp31
 70
     0
102
RTVSPost2010Prop32
280
     0
102
RTVSPost2010PropOp32
 70
     0
102
RTVSPost2010Prop33
280
     0
102
RTVSPost2010PropOp33
 70
     0
102
RTVSPost2010Prop34
280
     0
102
RTVSPost2010PropOp34
 70
     0
102
RTVSPost2010Prop35
280
     0
102
RTVSPost2010PropOp35
 70
     0
102
RTVSPost2010Prop36
280
     0
102
RTVSPost2010PropOp36
 70
     0
102
RTVSPost2010Prop37
 90
       50
102
RTVSPost2010PropOp37
 70
     0
102
RTVSPost2010Prop38
140
0.0
102
RTVSPost2010PropOp38
 70
     0
102
RTVSPost2010Prop39
140
1.0
102
RTVSPost2010PropOp39
 70
     0
102
RTVSPost2010Prop40
 90
        0
102
RTVSPost2010PropOp40
 70
     0
102
RTVSPost2010Prop41ColorIndex
 90
       18
102
RTVSPost2010Prop41ColorRGB
 90
        0
102
RTVSPost2010PropOp41
 70
     0
102
RTVSPost2010Prop42
 90
       50
102
RTVSPost2010PropOp42
 70
     0
102
RTVSPost2010Prop43
 90
        3
102
RTVSPost2010PropOp43
 70
     0
102
RTVSPost2010Prop44ColorIndex
 90
        5
102
RTVSPost2010Prop44ColorRGB
 90
      255
102
RTVSPost2010PropOp44
 70
     0
102
RTVSPost2010Prop45
280
     0
102
RTVSPost2010PropOp45
 70
     0
102
RTVSPost2010Prop46
 90
       50
102
RTVSPost2010PropOp46
 70
     0
102
RTVSPost2010Prop47
 90
       50
102
RTVSPost2010PropOp47
 70
     0
102
RTVSPost2010Prop48
 90
       50
102
RTVSPost2010PropOp48
 70
     0
102
RTVSPost2010Prop49
280
     0
102
RTVSPost2010PropOp49
 70
     0
102
RTVSPost2010Prop50
 90
       50
102
RTVSPost2010PropOp50
 70
     0
102
RTVSPost2010Prop51ColorIndex
 90
      256
102
RTVSPost2010Prop51ColorRGB
 90
-16777216
102
RTVSPost2010PropOp51
 70
     0
102
RTVSPost2010Prop52
140
1.0
102
RTVSPost2010PropOp52
 70
     0
102
RTVSPost2010Prop53
 90
        2
102
RTVSPost2010PropOp53
 70
     0
102
RTVSPost2010Prop54
  1
strokes_ogs.tif
102
RTVSPost2010PropOp54
 70
     0
102
RTVSPost2010Prop55
280
     0
102
RTVSPost2010PropOp55
 70
     0
102
RTVSPost2010Prop56
140
1.0
102
RTVSPost2010PropOp56
 70
     0
102
RTVSPost2010Prop57
140
1.0
102
RTVSPost2010PropOp57
 70
     0
  0
XRECORD
  5
107
102
{ACAD_REACTORS
330
106
102
}
330
106
100
AcDbXrecord
280
     1
102
RTVSPropertyOp0
 70
     1
102
RTVSPropertyOp1
 70
     1
102
RTVSPropertyOp2
 70
     1
102
RTVSPropertyOp3
 70
     1
102
RTVSPropertyOp4
 70
     1
102
RTVSPropertyOp5
 70
     1
102
RTVSPropertyOp6
 70
     1
102
RTVSPropertyOp7
 70
     1
102
RTVSPropertyOp8
 70
     1
102
RTVSPropertyOp9
 70
     1
102
RTVSPropertyOp10
 70
     1
102
RTVSPropertyOp11
 70
     1
102
RTVSPropertyOp12
 70
     1
102
RTVSPropertyOp13
 70
     1
102
RTVSPropertyOp14
 70
     1
102
RTVSPropertyOp15
 70
     1
102
RTVSPropertyOp16
 70
     1
102
RTVSPropertyOp17
 70
     1
102
RTVSPropertyOp18
 70
     1
102
RTVSPropertyOp19
 70
     1
102
RTVSPropertyOp20
 70
     1
102
RTVSPropertyOp21
 70
     1
102
RTVSPropertyOp22
 70
     1
102
RTVSPropertyOp23
 70
     1
102
RTVSPropertyOp24
 70
     1
102
RTVSPropertyOp25
 70
     1
102
RTVSPropertyOp26
 70
     1
102
RTVSPropertyOp27
 70
     1
102
RTVSPropertyOp28
 70
     1
102
RTVSPropertyOp29
 70
     1
102
RTVSPropertyOp30
 70
     1
102
RTVSPropertyOp31
 70
     1
102
RTVSPropertyOp32
 70
     1
102
RTVSPropertyOp33
 70
     1
102
RTVSPropertyOp34
 70
     1
102
RTVSPropertyOp35
 70
     1
102
RTVSPropertyOp36
 70
     1
102
RTVSPropertyOp37
 70
     1
102
RTVSPropertyOp38
 70
     1
102
RTVSPropertyOp39
 70
     1
102
RTVSPropertyOp40
 70
     1
102
RTVSPropertyOp41
 70
     1
102
RTVSPropertyOp42
 70
     1
102
RTVSPropertyOp43
 70
     1
102
RTVSPropertyOp44
 70
     1
102
RTVSPropertyOp45
 70
     1
102
RTVSPropertyOp46
 70
     1
102
RTVSPropertyOp47
 70
     1
102
RTVSPropertyOp48
 70
     1
102
RTVSPropertyOp49
 70
     1
102
RTVSPropertyOp50
 70
     1
102
RTVSPropertyOp51
 70
     0
102
RTVSPropertyOp52
 70
     0
102
RTVSPropertyOp53
 70
     1
102
RTVSPropertyOp54
 70
     1
102
RTVSPropertyOp55
 70
     1
102
RTVSPropertyOp56
 70
     1
102
RTVSPropertyOp57
 70
     1
102
RTVSPost2010Prop28
280
     0
102
RTVSPost2010PropOp28
 70
     1
102
RTVSPost2010Prop29
280
     1
102
RTVSPost2010PropOp29
 70
     1
102
RTVSPost2010Prop30
280
     1
102
RTVSPost2010PropOp30
 70
     1
102
RTVSPost2010Prop31
280
     0
102
RTVSPost2010PropOp31
 70
     1
102
RTVSPost2010Prop32
280
     0
102
RTVSPost2010PropOp32
 70
     1
102
RTVSPost2010Prop33
280
     0
102
RTVSPost2010PropOp33
 70
     1
102
RTVSPost2010Prop34
280
     0
102
RTVSPost2010PropOp34
 70
     1
102
RTVSPost2010Prop35
280
     0
102
RTVSPost2010PropOp35
 70
     1
102
RTVSPost2010Prop36
280
     0
102
RTVSPost2010PropOp36
 70
     1
102
RTVSPost2010Prop37
 90
       50
102
RTVSPost2010PropOp37
 70
     1
102
RTVSPost2010Prop38
140
0.0
102
RTVSPost2010PropOp38
 70
     1
102
RTVSPost2010Prop39
140
1.0
102
RTVSPost2010PropOp39
 70
     1
102
RTVSPost2010Prop40
 90
        0
102
RTVSPost2010PropOp40
 70
     1
102
RTVSPost2010Prop41ColorIndex
 90
       18
102
RTVSPost2010Prop41ColorRGB
 90
        0
102
RTVSPost2010PropOp41
 70
     1
102
RTVSPost2010Prop42
 90
       50
102
RTVSPost2010PropOp42
 70
     1
102
RTVSPost2010Prop43
 90
        3
102
RTVSPost2010PropOp43
 70
     1
102
RTVSPost2010Prop44ColorIndex
 90
        5
102
RTVSPost2010Prop44ColorRGB
 90
      255
102
RTVSPost2010PropOp44
 70
     1
102
RTVSPost2010Prop45
280
     0
102
RTVSPost2010PropOp45
 70
     1
102
RTVSPost2010Prop46
 90
       50
102
RTVSPost2010PropOp46
 70
     1
102
RTVSPost2010Prop47
 90
       50
102
RTVSPost2010PropOp47
 70
     1
102
RTVSPost2010Prop48
 90
       50
102
RTVSPost2010PropOp48
 70
     1
102
RTVSPost2010Prop49
280
     0
102
RTVSPost2010PropOp49
 70
     1
102
RTVSPost2010Prop50
 90
       50
102
RTVSPost2010PropOp50
 70
     1
102
RTVSPost2010Prop51ColorIndex
 90
      256
102
RTVSPost2010Prop51ColorRGB
 90
-16777216
102
RTVSPost2010PropOp51
 70
     0
102
RTVSPost2010Prop52
140
1.0
102
RTVSPost2010PropOp52
 70
     0
102
RTVSPost2010Prop53
 90
        2
102
RTVSPost2010PropOp53
 70
     1
102
RTVSPost2010Prop54
  1
strokes_ogs.tif
102
RTVSPost2010PropOp54
 70
     1
102
RTVSPost2010Prop55
280
     0
102
RTVSPost2010PropOp55
 70
     1
102
RTVSPost2010Prop56
140
1.0
102
RTVSPost2010PropOp56
 70
     1
102
RTVSPost2010Prop57
140
1.0
102
RTVSPost2010PropOp57
 70
     1
  0
XRECORD
  5
125
102
{ACAD_REACTORS
330
124
102
}
330
124
100
AcDbXrecord
280
     1
102
RTVSPropertyOp0
 70
     1
102
RTVSPropertyOp1
 70
     1
102
RTVSPropertyOp2
 70
     1
102
RTVSPropertyOp3
 70
     1
102
RTVSPropertyOp4
 70
     1
102
RTVSPropertyOp5
 70
     1
102
RTVSPropertyOp6
 70
     1
102
RTVSPropertyOp7
 70
     1
102
RTVSPropertyOp8
 70
     1
102
RTVSPropertyOp9
 70
     1
102
RTVSPropertyOp10
 70
     1
102
RTVSPropertyOp11
 70
     1
102
RTVSPropertyOp12
 70
     1
102
RTVSPropertyOp13
 70
     1
102
RTVSPropertyOp14
 70
     1
102
RTVSPropertyOp15
 70
     1
102
RTVSPropertyOp16
 70
     1
102
RTVSPropertyOp17
 70
     1
102
RTVSPropertyOp18
 70
     1
102
RTVSPropertyOp19
 70
     1
102
RTVSPropertyOp20
 70
     1
102
RTVSPropertyOp21
 70
     1
102
RTVSPropertyOp22
 70
     1
102
RTVSPropertyOp23
 70
     1
102
RTVSPropertyOp24
 70
     1
102
RTVSPropertyOp25
 70
     1
102
RTVSPropertyOp26
 70
     1
102
RTVSPropertyOp27
 70
     1
102
RTVSPropertyOp28
 70
     1
102
RTVSPropertyOp29
 70
     1
102
RTVSPropertyOp30
 70
     1
102
RTVSPropertyOp31
 70
     1
102
RTVSPropertyOp32
 70
     1
102
RTVSPropertyOp33
 70
     1
102
RTVSPropertyOp34
 70
     1
102
RTVSPropertyOp35
 70
     1
102
RTVSPropertyOp36
 70
     1
102
RTVSPropertyOp37
 70
     1
102
RTVSPropertyOp38
 70
     1
102
RTVSPropertyOp39
 70
     1
102
RTVSPropertyOp40
 70
     1
102
RTVSPropertyOp41
 70
     1
102
RTVSPropertyOp42
 70
     1
102
RTVSPropertyOp43
 70
     1
102
RTVSPropertyOp44
 70
     1
102
RTVSPropertyOp45
 70
     1
102
RTVSPropertyOp46
 70
     1
102
RTVSPropertyOp47
 70
     1
102
RTVSPropertyOp48
 70
     1
102
RTVSPropertyOp49
 70
     1
102
RTVSPropertyOp50
 70
     1
102
RTVSPropertyOp51
 70
     0
102
RTVSPropertyOp52
 70
     0
102
RTVSPropertyOp53
 70
     1
102
RTVSPropertyOp54
 70
     1
102
RTVSPropertyOp55
 70
     1
102
RTVSPropertyOp56
 70
     1
102
RTVSPropertyOp57
 70
     1
102
RTVSPost2010Prop28
280
     0
102
RTVSPost2010PropOp28
 70
     1
102
RTVSPost2010Prop29
280
     1
102
RTVSPost2010PropOp29
 70
     1
102
RTVSPost2010Prop30
280
     1
102
RTVSPost2010PropOp30
 70
     1
102
RTVSPost2010Prop31
280
     0
102
RTVSPost2010PropOp31
 70
     1
102
RTVSPost2010Prop32
280
     0
102
RTVSPost2010PropOp32
 70
     1
102
RTVSPost2010Prop33
280
     0
102
RTVSPost2010PropOp33
 70
     1
102
RTVSPost2010Prop34
280
     0
102
RTVSPost2010PropOp34
 70
     1
102
RTVSPost2010Prop35
280
     0
102
RTVSPost2010PropOp35
 70
     1
102
RTVSPost2010Prop36
280
     0
102
RTVSPost2010PropOp36
 70
     1
102
RTVSPost2010Prop37
 90
       50
102
RTVSPost2010PropOp37
 70
     1
102
RTVSPost2010Prop38
140
0.0
102
RTVSPost2010PropOp38
 70
     1
102
RTVSPost2010Prop39
140
1.0
102
RTVSPost2010PropOp39
 70
     1
102
RTVSPost2010Prop40
 90
        0
102
RTVSPost2010PropOp40
 70
     1
102
RTVSPost2010Prop41ColorIndex
 90
       18
102
RTVSPost2010Prop41ColorRGB
 90
        0
102
RTVSPost2010PropOp41
 70
     1
102
RTVSPost2010Prop42
 90
       50
102
RTVSPost2010PropOp42
 70
     1
102
RTVSPost2010Prop43
 90
        3
102
RTVSPost2010PropOp43
 70
     1
102
RTVSPost2010Prop44ColorIndex
 90
        5
102
RTVSPost2010Prop44ColorRGB
 90
      255
102
RTVSPost2010PropOp44
 70
     1
102
RTVSPost2010Prop45
280
     0
102
RTVSPost2010PropOp45
 70
     1
102
RTVSPost2010Prop46
 90
       50
102
RTVSPost2010PropOp46
 70
     1
102
RTVSPost2010Prop47
 90
       50
102
RTVSPost2010PropOp47
 70
     1
102
RTVSPost2010Prop48
 90
       50
102
RTVSPost2010PropOp48
 70
     1
102
RTVSPost2010Prop49
280
     0
102
RTVSPost2010PropOp49
 70
     1
102
RTVSPost2010Prop50
 90
       50
102
RTVSPost2010PropOp50
 70
     1
102
RTVSPost2010Prop51ColorIndex
 90
      256
102
RTVSPost2010Prop51ColorRGB
 90
-16777216
102
RTVSPost2010PropOp51
 70
     0
102
RTVSPost2010Prop52
140
1.0
102
RTVSPost2010PropOp52
 70
     0
102
RTVSPost2010Prop53
 90
        2
102
RTVSPost2010PropOp53
 70
     1
102
RTVSPost2010Prop54
  1
strokes_ogs.tif
102
RTVSPost2010PropOp54
 70
     1
102
RTVSPost2010Prop55
280
     0
102
RTVSPost2010PropOp55
 70
     1
102
RTVSPost2010Prop56
140
1.0
102
RTVSPost2010PropOp56
 70
     1
102
RTVSPost2010Prop57
140
1.0
102
RTVSPost2010PropOp57
 70
     1
  0
XRECORD
  5
123
102
{ACAD_REACTORS
330
122
102
}
330
122
100
AcDbXrecord
280
     1
102
RTVSPropertyOp0
 70
     1
102
RTVSPropertyOp1
 70
     1
102
RTVSPropertyOp2
 70
     1
102
RTVSPropertyOp3
 70
     1
102
RTVSPropertyOp4
 70
     1
102
RTVSPropertyOp5
 70
     1
102
RTVSPropertyOp6
 70
     1
102
RTVSPropertyOp7
 70
     1
102
RTVSPropertyOp8
 70
     1
102
RTVSPropertyOp9
 70
     1
102
RTVSPropertyOp10
 70
     1
102
RTVSPropertyOp11
 70
     1
102
RTVSPropertyOp12
 70
     1
102
RTVSPropertyOp13
 70
     1
102
RTVSPropertyOp14
 70
     1
102
RTVSPropertyOp15
 70
     1
102
RTVSPropertyOp16
 70
     1
102
RTVSPropertyOp17
 70
     1
102
RTVSPropertyOp18
 70
     1
102
RTVSPropertyOp19
 70
     1
102
RTVSPropertyOp20
 70
     1
102
RTVSPropertyOp21
 70
     1
102
RTVSPropertyOp22
 70
     1
102
RTVSPropertyOp23
 70
     1
102
RTVSPropertyOp24
 70
     1
102
RTVSPropertyOp25
 70
     1
102
RTVSPropertyOp26
 70
     1
102
RTVSPropertyOp27
 70
     1
102
RTVSPropertyOp28
 70
     1
102
RTVSPropertyOp29
 70
     1
102
RTVSPropertyOp30
 70
     1
102
RTVSPropertyOp31
 70
     1
102
RTVSPropertyOp32
 70
     1
102
RTVSPropertyOp33
 70
     1
102
RTVSPropertyOp34
 70
     1
102
RTVSPropertyOp35
 70
     1
102
RTVSPropertyOp36
 70
     1
102
RTVSPropertyOp37
 70
     1
102
RTVSPropertyOp38
 70
     1
102
RTVSPropertyOp39
 70
     1
102
RTVSPropertyOp40
 70
     1
102
RTVSPropertyOp41
 70
     1
102
RTVSPropertyOp42
 70
     1
102
RTVSPropertyOp43
 70
     1
102
RTVSPropertyOp44
 70
     1
102
RTVSPropertyOp45
 70
     1
102
RTVSPropertyOp46
 70
     1
102
RTVSPropertyOp47
 70
     1
102
RTVSPropertyOp48
 70
     1
102
RTVSPropertyOp49
 70
     1
102
RTVSPropertyOp50
 70
     1
102
RTVSPropertyOp51
 70
     0
102
RTVSPropertyOp52
 70
     0
102
RTVSPropertyOp53
 70
     1
102
RTVSPropertyOp54
 70
     1
102
RTVSPropertyOp55
 70
     1
102
RTVSPropertyOp56
 70
     1
102
RTVSPropertyOp57
 70
     1
102
RTVSPost2010Prop28
280
     0
102
RTVSPost2010PropOp28
 70
     1
102
RTVSPost2010Prop29
280
     1
102
RTVSPost2010PropOp29
 70
     1
102
RTVSPost2010Prop30
280
     1
102
RTVSPost2010PropOp30
 70
     1
102
RTVSPost2010Prop31
280
     0
102
RTVSPost2010PropOp31
 70
     1
102
RTVSPost2010Prop32
280
     0
102
RTVSPost2010PropOp32
 70
     1
102
RTVSPost2010Prop33
280
     0
102
RTVSPost2010PropOp33
 70
     1
102
RTVSPost2010Prop34
280
     0
102
RTVSPost2010PropOp34
 70
     1
102
RTVSPost2010Prop35
280
     0
102
RTVSPost2010PropOp35
 70
     1
102
RTVSPost2010Prop36
280
     0
102
RTVSPost2010PropOp36
 70
     1
102
RTVSPost2010Prop37
 90
       50
102
RTVSPost2010PropOp37
 70
     1
102
RTVSPost2010Prop38
140
0.0
102
RTVSPost2010PropOp38
 70
     1
102
RTVSPost2010Prop39
140
1.0
102
RTVSPost2010PropOp39
 70
     1
102
RTVSPost2010Prop40
 90
        0
102
RTVSPost2010PropOp40
 70
     1
102
RTVSPost2010Prop41ColorIndex
 90
       18
102
RTVSPost2010Prop41ColorRGB
 90
        0
102
RTVSPost2010PropOp41
 70
     1
102
RTVSPost2010Prop42
 90
       50
102
RTVSPost2010PropOp42
 70
     1
102
RTVSPost2010Prop43
 90
        3
102
RTVSPost2010PropOp43
 70
     1
102
RTVSPost2010Prop44ColorIndex
 90
        5
102
RTVSPost2010Prop44ColorRGB
 90
      255
102
RTVSPost2010PropOp44
 70
     1
102
RTVSPost2010Prop45
280
     0
102
RTVSPost2010PropOp45
 70
     1
102
RTVSPost2010Prop46
 90
       50
102
RTVSPost2010PropOp46
 70
     1
102
RTVSPost2010Prop47
 90
       50
102
RTVSPost2010PropOp47
 70
     1
102
RTVSPost2010Prop48
 90
       50
102
RTVSPost2010PropOp48
 70
     1
102
RTVSPost2010Prop49
280
     0
102
RTVSPost2010PropOp49
 70
     1
102
RTVSPost2010Prop50
 90
       50
102
RTVSPost2010PropOp50
 70
     1
102
RTVSPost2010Prop51ColorIndex
 90
      256
102
RTVSPost2010Prop51ColorRGB
 90
-16777216
102
RTVSPost2010PropOp51
 70
     0
102
RTVSPost2010Prop52
140
1.0
102
RTVSPost2010PropOp52
 70
     0
102
RTVSPost2010Prop53
 90
        2
102
RTVSPost2010PropOp53
 70
     1
102
RTVSPost2010Prop54
  1
strokes_ogs.tif
102
RTVSPost2010PropOp54
 70
     1
102
RTVSPost2010Prop55
280
     0
102
RTVSPost2010PropOp55
 70
     1
102
RTVSPost2010Prop56
140
1.0
102
RTVSPost2010PropOp56
 70
     1
102
RTVSPost2010Prop57
140
1.0
102
RTVSPost2010PropOp57
 70
     1
  0
XRECORD
  5
11D
102
{ACAD_REACTORS
330
11C
102
}
330
11C
100
AcDbXrecord
280
     1
102
RTVSPropertyOp0
 70
     1
102
RTVSPropertyOp1
 70
     1
102
RTVSPropertyOp2
 70
     1
102
RTVSPropertyOp3
 70
     1
102
RTVSPropertyOp4
 70
     1
102
RTVSPropertyOp5
 70
     1
102
RTVSPropertyOp6
 70
     1
102
RTVSPropertyOp7
 70
     1
102
RTVSPropertyOp8
 70
     1
102
RTVSPropertyOp9
 70
     1
102
RTVSPropertyOp10
 70
     1
102
RTVSPropertyOp11
 70
     1
102
RTVSPropertyOp12
 70
     1
102
RTVSPropertyOp13
 70
     1
102
RTVSPropertyOp14
 70
     1
102
RTVSPropertyOp15
 70
     1
102
RTVSPropertyOp16
 70
     1
102
RTVSPropertyOp17
 70
     1
102
RTVSPropertyOp18
 70
     1
102
RTVSPropertyOp19
 70
     1
102
RTVSPropertyOp20
 70
     1
102
RTVSPropertyOp21
 70
     1
102
RTVSPropertyOp22
 70
     1
102
RTVSPropertyOp23
 70
     1
102
RTVSPropertyOp24
 70
     1
102
RTVSPropertyOp25
 70
     1
102
RTVSPropertyOp26
 70
     1
102
RTVSPropertyOp27
 70
     1
102
RTVSPropertyOp28
 70
     1
102
RTVSPropertyOp29
 70
     1
102
RTVSPropertyOp30
 70
     1
102
RTVSPropertyOp31
 70
     1
102
RTVSPropertyOp32
 70
     1
102
RTVSPropertyOp33
 70
     1
102
RTVSPropertyOp34
 70
     1
102
RTVSPropertyOp35
 70
     1
102
RTVSPropertyOp36
 70
     1
102
RTVSPropertyOp37
 70
     1
102
RTVSPropertyOp38
 70
     1
102
RTVSPropertyOp39
 70
     1
102
RTVSPropertyOp40
 70
     1
102
RTVSPropertyOp41
 70
     1
102
RTVSPropertyOp42
 70
     1
102
RTVSPropertyOp43
 70
     1
102
RTVSPropertyOp44
 70
     1
102
RTVSPropertyOp45
 70
     1
102
RTVSPropertyOp46
 70
     1
102
RTVSPropertyOp47
 70
     1
102
RTVSPropertyOp48
 70
     1
102
RTVSPropertyOp49
 70
     1
102
RTVSPropertyOp50
 70
     1
102
RTVSPropertyOp51
 70
     0
102
RTVSPropertyOp52
 70
     0
102
RTVSPropertyOp53
 70
     1
102
RTVSPropertyOp54
 70
     1
102
RTVSPropertyOp55
 70
     1
102
RTVSPropertyOp56
 70
     1
102
RTVSPropertyOp57
 70
     1
102
RTVSPost2010Prop28
280
     0
102
RTVSPost2010PropOp28
 70
     1
102
RTVSPost2010Prop29
280
     1
102
RTVSPost2010PropOp29
 70
     1
102
RTVSPost2010Prop30
280
     1
102
RTVSPost2010PropOp30
 70
     1
102
RTVSPost2010Prop31
280
     0
102
RTVSPost2010PropOp31
 70
     1
102
RTVSPost2010Prop32
280
     0
102
RTVSPost2010PropOp32
 70
     1
102
RTVSPost2010Prop33
280
     0
102
RTVSPost2010PropOp33
 70
     1
102
RTVSPost2010Prop34
280
     0
102
RTVSPost2010PropOp34
 70
     1
102
RTVSPost2010Prop35
280
     0
102
RTVSPost2010PropOp35
 70
     1
102
RTVSPost2010Prop36
280
     0
102
RTVSPost2010PropOp36
 70
     1
102
RTVSPost2010Prop37
 90
       50
102
RTVSPost2010PropOp37
 70
     1
102
RTVSPost2010Prop38
140
0.0
102
RTVSPost2010PropOp38
 70
     1
102
RTVSPost2010Prop39
140
1.0
102
RTVSPost2010PropOp39
 70
     1
102
RTVSPost2010Prop40
 90
        0
102
RTVSPost2010PropOp40
 70
     1
102
RTVSPost2010Prop41ColorIndex
 90
       18
102
RTVSPost2010Prop41ColorRGB
 90
        0
102
RTVSPost2010PropOp41
 70
     1
102
RTVSPost2010Prop42
 90
       50
102
RTVSPost2010PropOp42
 70
     1
102
RTVSPost2010Prop43
 90
        3
102
RTVSPost2010PropOp43
 70
     1
102
RTVSPost2010Prop44ColorIndex
 90
        5
102
RTVSPost2010Prop44ColorRGB
 90
      255
102
RTVSPost2010PropOp44
 70
     1
102
RTVSPost2010Prop45
280
     0
102
RTVSPost2010PropOp45
 70
     1
102
RTVSPost2010Prop46
 90
       50
102
RTVSPost2010PropOp46
 70
     1
102
RTVSPost2010Prop47
 90
       50
102
RTVSPost2010PropOp47
 70
     1
102
RTVSPost2010Prop48
 90
       50
102
RTVSPost2010PropOp48
 70
     1
102
RTVSPost2010Prop49
280
     0
102
RTVSPost2010PropOp49
 70
     1
102
RTVSPost2010Prop50
 90
       50
102
RTVSPost2010PropOp50
 70
     1
102
RTVSPost2010Prop51ColorIndex
 90
      256
102
RTVSPost2010Prop51ColorRGB
 90
-16777216
102
RTVSPost2010PropOp51
 70
     0
102
RTVSPost2010Prop52
140
1.0
102
RTVSPost2010PropOp52
 70
     0
102
RTVSPost2010Prop53
 90
        2
102
RTVSPost2010PropOp53
 70
     1
102
RTVSPost2010Prop54
  1
strokes_ogs.tif
102
RTVSPost2010PropOp54
 70
     1
102
RTVSPost2010Prop55
280
     0
102
RTVSPost2010PropOp55
 70
     1
102
RTVSPost2010Prop56
140
1.0
102
RTVSPost2010PropOp56
 70
     1
102
RTVSPost2010Prop57
140
1.0
102
RTVSPost2010PropOp57
 70
     1
  0
XRECORD
  5
11F
102
{ACAD_REACTORS
330
11E
102
}
330
11E
100
AcDbXrecord
280
     1
102
RTVSPropertyOp0
 70
     1
102
RTVSPropertyOp1
 70
     1
102
RTVSPropertyOp2
 70
     1
102
RTVSPropertyOp3
 70
     1
102
RTVSPropertyOp4
 70
     1
102
RTVSPropertyOp5
 70
     1
102
RTVSPropertyOp6
 70
     1
102
RTVSPropertyOp7
 70
     1
102
RTVSPropertyOp8
 70
     1
102
RTVSPropertyOp9
 70
     1
102
RTVSPropertyOp10
 70
     1
102
RTVSPropertyOp11
 70
     1
102
RTVSPropertyOp12
 70
     1
102
RTVSPropertyOp13
 70
     1
102
RTVSPropertyOp14
 70
     1
102
RTVSPropertyOp15
 70
     1
102
RTVSPropertyOp16
 70
     1
102
RTVSPropertyOp17
 70
     1
102
RTVSPropertyOp18
 70
     1
102
RTVSPropertyOp19
 70
     1
102
RTVSPropertyOp20
 70
     1
102
RTVSPropertyOp21
 70
     1
102
RTVSPropertyOp22
 70
     1
102
RTVSPropertyOp23
 70
     1
102
RTVSPropertyOp24
 70
     1
102
RTVSPropertyOp25
 70
     1
102
RTVSPropertyOp26
 70
     1
102
RTVSPropertyOp27
 70
     1
102
RTVSPropertyOp28
 70
     1
102
RTVSPropertyOp29
 70
     1
102
RTVSPropertyOp30
 70
     1
102
RTVSPropertyOp31
 70
     1
102
RTVSPropertyOp32
 70
     1
102
RTVSPropertyOp33
 70
     1
102
RTVSPropertyOp34
 70
     1
102
RTVSPropertyOp35
 70
     1
102
RTVSPropertyOp36
 70
     1
102
RTVSPropertyOp37
 70
     1
102
RTVSPropertyOp38
 70
     1
102
RTVSPropertyOp39
 70
     1
102
RTVSPropertyOp40
 70
     1
102
RTVSPropertyOp41
 70
     1
102
RTVSPropertyOp42
 70
     1
102
RTVSPropertyOp43
 70
     1
102
RTVSPropertyOp44
 70
     1
102
RTVSPropertyOp45
 70
     1
102
RTVSPropertyOp46
 70
     1
102
RTVSPropertyOp47
 70
     1
102
RTVSPropertyOp48
 70
     1
102
RTVSPropertyOp49
 70
     1
102
RTVSPropertyOp50
 70
     1
102
RTVSPropertyOp51
 70
     0
102
RTVSPropertyOp52
 70
     0
102
RTVSPropertyOp53
 70
     1
102
RTVSPropertyOp54
 70
     1
102
RTVSPropertyOp55
 70
     1
102
RTVSPropertyOp56
 70
     1
102
RTVSPropertyOp57
 70
     1
102
RTVSPost2010Prop28
280
     0
102
RTVSPost2010PropOp28
 70
     1
102
RTVSPost2010Prop29
280
     1
102
RTVSPost2010PropOp29
 70
     1
102
RTVSPost2010Prop30
280
     1
102
RTVSPost2010PropOp30
 70
     1
102
RTVSPost2010Prop31
280
     0
102
RTVSPost2010PropOp31
 70
     1
102
RTVSPost2010Prop32
280
     0
102
RTVSPost2010PropOp32
 70
     1
102
RTVSPost2010Prop33
280
     0
102
RTVSPost2010PropOp33
 70
     1
102
RTVSPost2010Prop34
280
     0
102
RTVSPost2010PropOp34
 70
     1
102
RTVSPost2010Prop35
280
     0
102
RTVSPost2010PropOp35
 70
     1
102
RTVSPost2010Prop36
280
     0
102
RTVSPost2010PropOp36
 70
     1
102
RTVSPost2010Prop37
 90
       50
102
RTVSPost2010PropOp37
 70
     1
102
RTVSPost2010Prop38
140
0.0
102
RTVSPost2010PropOp38
 70
     1
102
RTVSPost2010Prop39
140
1.0
102
RTVSPost2010PropOp39
 70
     1
102
RTVSPost2010Prop40
 90
        0
102
RTVSPost2010PropOp40
 70
     1
102
RTVSPost2010Prop41ColorIndex
 90
       18
102
RTVSPost2010Prop41ColorRGB
 90
        0
102
RTVSPost2010PropOp41
 70
     1
102
RTVSPost2010Prop42
 90
       50
102
RTVSPost2010PropOp42
 70
     1
102
RTVSPost2010Prop43
 90
        3
102
RTVSPost2010PropOp43
 70
     1
102
RTVSPost2010Prop44ColorIndex
 90
        5
102
RTVSPost2010Prop44ColorRGB
 90
      255
102
RTVSPost2010PropOp44
 70
     1
102
RTVSPost2010Prop45
280
     0
102
RTVSPost2010PropOp45
 70
     1
102
RTVSPost2010Prop46
 90
       50
102
RTVSPost2010PropOp46
 70
     1
102
RTVSPost2010Prop47
 90
       50
102
RTVSPost2010PropOp47
 70
     1
102
RTVSPost2010Prop48
 90
       50
102
RTVSPost2010PropOp48
 70
     1
102
RTVSPost2010Prop49
280
     0
102
RTVSPost2010PropOp49
 70
     1
102
RTVSPost2010Prop50
 90
       50
102
RTVSPost2010PropOp50
 70
     1
102
RTVSPost2010Prop51ColorIndex
 90
      256
102
RTVSPost2010Prop51ColorRGB
 90
-16777216
102
RTVSPost2010PropOp51
 70
     0
102
RTVSPost2010Prop52
140
1.0
102
RTVSPost2010PropOp52
 70
     0
102
RTVSPost2010Prop53
 90
        2
102
RTVSPost2010PropOp53
 70
     1
102
RTVSPost2010Prop54
  1
strokes_ogs.tif
102
RTVSPost2010PropOp54
 70
     1
102
RTVSPost2010Prop55
280
     0
102
RTVSPost2010PropOp55
 70
     1
102
RTVSPost2010Prop56
140
1.0
102
RTVSPost2010PropOp56
 70
     1
102
RTVSPost2010Prop57
140
1.0
102
RTVSPost2010PropOp57
 70
     1
  0
XRECORD
  5
10F
102
{ACAD_REACTORS
330
10E
102
}
330
10E
100
AcDbXrecord
280
     1
102
RTVSPropertyOp0
 70
     1
102
RTVSPropertyOp1
 70
     1
102
RTVSPropertyOp2
 70
     1
102
RTVSPropertyOp3
 70
     1
102
RTVSPropertyOp4
 70
     1
102
RTVSPropertyOp5
 70
     1
102
RTVSPropertyOp6
 70
     1
102
RTVSPropertyOp7
 70
     1
102
RTVSPropertyOp8
 70
     1
102
RTVSPropertyOp9
 70
     1
102
RTVSPropertyOp10
 70
     1
102
RTVSPropertyOp11
 70
     1
102
RTVSPropertyOp12
 70
     1
102
RTVSPropertyOp13
 70
     1
102
RTVSPropertyOp14
 70
     1
102
RTVSPropertyOp15
 70
     1
102
RTVSPropertyOp16
 70
     1
102
RTVSPropertyOp17
 70
     1
102
RTVSPropertyOp18
 70
     1
102
RTVSPropertyOp19
 70
     1
102
RTVSPropertyOp20
 70
     1
102
RTVSPropertyOp21
 70
     1
102
RTVSPropertyOp22
 70
     1
102
RTVSPropertyOp23
 70
     1
102
RTVSPropertyOp24
 70
     1
102
RTVSPropertyOp25
 70
     1
102
RTVSPropertyOp26
 70
     1
102
RTVSPropertyOp27
 70
     1
102
RTVSPropertyOp28
 70
     1
102
RTVSPropertyOp29
 70
     1
102
RTVSPropertyOp30
 70
     1
102
RTVSPropertyOp31
 70
     1
102
RTVSPropertyOp32
 70
     1
102
RTVSPropertyOp33
 70
     1
102
RTVSPropertyOp34
 70
     1
102
RTVSPropertyOp35
 70
     1
102
RTVSPropertyOp36
 70
     1
102
RTVSPropertyOp37
 70
     1
102
RTVSPropertyOp38
 70
     1
102
RTVSPropertyOp39
 70
     1
102
RTVSPropertyOp40
 70
     1
102
RTVSPropertyOp41
 70
     1
102
RTVSPropertyOp42
 70
     1
102
RTVSPropertyOp43
 70
     1
102
RTVSPropertyOp44
 70
     1
102
RTVSPropertyOp45
 70
     1
102
RTVSPropertyOp46
 70
     1
102
RTVSPropertyOp47
 70
     1
102
RTVSPropertyOp48
 70
     1
102
RTVSPropertyOp49
 70
     1
102
RTVSPropertyOp50
 70
     1
102
RTVSPropertyOp51
 70
     0
102
RTVSPropertyOp52
 70
     0
102
RTVSPropertyOp53
 70
     1
102
RTVSPropertyOp54
 70
     1
102
RTVSPropertyOp55
 70
     1
102
RTVSPropertyOp56
 70
     1
102
RTVSPropertyOp57
 70
     1
102
RTVSPost2010Prop28
280
     0
102
RTVSPost2010PropOp28
 70
     1
102
RTVSPost2010Prop29
280
     1
102
RTVSPost2010PropOp29
 70
     1
102
RTVSPost2010Prop30
280
     1
102
RTVSPost2010PropOp30
 70
     1
102
RTVSPost2010Prop31
280
     0
102
RTVSPost2010PropOp31
 70
     1
102
RTVSPost2010Prop32
280
     0
102
RTVSPost2010PropOp32
 70
     1
102
RTVSPost2010Prop33
280
     0
102
RTVSPost2010PropOp33
 70
     1
102
RTVSPost2010Prop34
280
     0
102
RTVSPost2010PropOp34
 70
     1
102
RTVSPost2010Prop35
280
     0
102
RTVSPost2010PropOp35
 70
     1
102
RTVSPost2010Prop36
280
     0
102
RTVSPost2010PropOp36
 70
     1
102
RTVSPost2010Prop37
 90
       50
102
RTVSPost2010PropOp37
 70
     1
102
RTVSPost2010Prop38
140
0.0
102
RTVSPost2010PropOp38
 70
     1
102
RTVSPost2010Prop39
140
1.0
102
RTVSPost2010PropOp39
 70
     1
102
RTVSPost2010Prop40
 90
        0
102
RTVSPost2010PropOp40
 70
     1
102
RTVSPost2010Prop41ColorIndex
 90
       18
102
RTVSPost2010Prop41ColorRGB
 90
        0
102
RTVSPost2010PropOp41
 70
     1
102
RTVSPost2010Prop42
 90
       50
102
RTVSPost2010PropOp42
 70
     1
102
RTVSPost2010Prop43
 90
        3
102
RTVSPost2010PropOp43
 70
     1
102
RTVSPost2010Prop44ColorIndex
 90
        5
102
RTVSPost2010Prop44ColorRGB
 90
      255
102
RTVSPost2010PropOp44
 70
     1
102
RTVSPost2010Prop45
280
     0
102
RTVSPost2010PropOp45
 70
     1
102
RTVSPost2010Prop46
 90
       50
102
RTVSPost2010PropOp46
 70
     1
102
RTVSPost2010Prop47
 90
       50
102
RTVSPost2010PropOp47
 70
     1
102
RTVSPost2010Prop48
 90
       50
102
RTVSPost2010PropOp48
 70
     1
102
RTVSPost2010Prop49
280
     0
102
RTVSPost2010PropOp49
 70
     1
102
RTVSPost2010Prop50
 90
       50
102
RTVSPost2010PropOp50
 70
     1
102
RTVSPost2010Prop51ColorIndex
 90
      256
102
RTVSPost2010Prop51ColorRGB
 90
-16777216
102
RTVSPost2010PropOp51
 70
     0
102
RTVSPost2010Prop52
140
1.0
102
RTVSPost2010PropOp52
 70
     0
102
RTVSPost2010Prop53
 90
        2
102
RTVSPost2010PropOp53
 70
     1
102
RTVSPost2010Prop54
  1
strokes_ogs.tif
102
RTVSPost2010PropOp54
 70
     1
102
RTVSPost2010Prop55
280
     0
102
RTVSPost2010PropOp55
 70
     1
102
RTVSPost2010Prop56
140
1.0
102
RTVSPost2010PropOp56
 70
     1
102
RTVSPost2010Prop57
140
1.0
102
RTVSPost2010PropOp57
 70
     1
  0
XRECORD
  5
101
102
{ACAD_REACTORS
330
100
102
}
330
100
100
AcDbXrecord
280
     1
102
RTVSPropertyOp0
 70
     1
102
RTVSPropertyOp1
 70
     1
102
RTVSPropertyOp2
 70
     1
102
RTVSPropertyOp3
 70
     1
102
RTVSPropertyOp4
 70
     1
102
RTVSPropertyOp5
 70
     1
102
RTVSPropertyOp6
 70
     1
102
RTVSPropertyOp7
 70
     1
102
RTVSPropertyOp8
 70
     1
102
RTVSPropertyOp9
 70
     1
102
RTVSPropertyOp10
 70
     1
102
RTVSPropertyOp11
 70
     1
102
RTVSPropertyOp12
 70
     1
102
RTVSPropertyOp13
 70
     1
102
RTVSPropertyOp14
 70
     1
102
RTVSPropertyOp15
 70
     1
102
RTVSPropertyOp16
 70
     1
102
RTVSPropertyOp17
 70
     1
102
RTVSPropertyOp18
 70
     1
102
RTVSPropertyOp19
 70
     1
102
RTVSPropertyOp20
 70
     1
102
RTVSPropertyOp21
 70
     1
102
RTVSPropertyOp22
 70
     1
102
RTVSPropertyOp23
 70
     1
102
RTVSPropertyOp24
 70
     1
102
RTVSPropertyOp25
 70
     1
102
RTVSPropertyOp26
 70
     1
102
RTVSPropertyOp27
 70
     1
102
RTVSPropertyOp28
 70
     1
102
RTVSPropertyOp29
 70
     1
102
RTVSPropertyOp30
 70
     1
102
RTVSPropertyOp31
 70
     1
102
RTVSPropertyOp32
 70
     1
102
RTVSPropertyOp33
 70
     1
102
RTVSPropertyOp34
 70
     1
102
RTVSPropertyOp35
 70
     1
102
RTVSPropertyOp36
 70
     1
102
RTVSPropertyOp37
 70
     1
102
RTVSPropertyOp38
 70
     1
102
RTVSPropertyOp39
 70
     1
102
RTVSPropertyOp40
 70
     1
102
RTVSPropertyOp41
 70
     1
102
RTVSPropertyOp42
 70
     1
102
RTVSPropertyOp43
 70
     1
102
RTVSPropertyOp44
 70
     1
102
RTVSPropertyOp45
 70
     1
102
RTVSPropertyOp46
 70
     1
102
RTVSPropertyOp47
 70
     1
102
RTVSPropertyOp48
 70
     1
102
RTVSPropertyOp49
 70
     1
102
RTVSPropertyOp50
 70
     1
102
RTVSPropertyOp51
 70
     0
102
RTVSPropertyOp52
 70
     0
102
RTVSPropertyOp53
 70
     1
102
RTVSPropertyOp54
 70
     1
102
RTVSPropertyOp55
 70
     1
102
RTVSPropertyOp56
 70
     1
102
RTVSPropertyOp57
 70
     1
102
RTVSPost2010Prop28
280
     0
102
RTVSPost2010PropOp28
 70
     1
102
RTVSPost2010Prop29
280
     1
102
RTVSPost2010PropOp29
 70
     1
102
RTVSPost2010Prop30
280
     1
102
RTVSPost2010PropOp30
 70
     1
102
RTVSPost2010Prop31
280
     0
102
RTVSPost2010PropOp31
 70
     1
102
RTVSPost2010Prop32
280
     0
102
RTVSPost2010PropOp32
 70
     1
102
RTVSPost2010Prop33
280
     0
102
RTVSPost2010PropOp33
 70
     1
102
RTVSPost2010Prop34
280
     0
102
RTVSPost2010PropOp34
 70
     1
102
RTVSPost2010Prop35
280
     0
102
RTVSPost2010PropOp35
 70
     1
102
RTVSPost2010Prop36
280
     0
102
RTVSPost2010PropOp36
 70
     1
102
RTVSPost2010Prop37
 90
       50
102
RTVSPost2010PropOp37
 70
     1
102
RTVSPost2010Prop38
140
0.0
102
RTVSPost2010PropOp38
 70
     1
102
RTVSPost2010Prop39
140
1.0
102
RTVSPost2010PropOp39
 70
     1
102
RTVSPost2010Prop40
 90
        0
102
RTVSPost2010PropOp40
 70
     1
102
RTVSPost2010Prop41ColorIndex
 90
       18
102
RTVSPost2010Prop41ColorRGB
 90
        0
102
RTVSPost2010PropOp41
 70
     1
102
RTVSPost2010Prop42
 90
       50
102
RTVSPost2010PropOp42
 70
     1
102
RTVSPost2010Prop43
 90
        3
102
RTVSPost2010PropOp43
 70
     1
102
RTVSPost2010Prop44ColorIndex
 90
        5
102
RTVSPost2010Prop44ColorRGB
 90
      255
102
RTVSPost2010PropOp44
 70
     1
102
RTVSPost2010Prop45
280
     0
102
RTVSPost2010PropOp45
 70
     1
102
RTVSPost2010Prop46
 90
       50
102
RTVSPost2010PropOp46
 70
     1
102
RTVSPost2010Prop47
 90
       50
102
RTVSPost2010PropOp47
 70
     1
102
RTVSPost2010Prop48
 90
       50
102
RTVSPost2010PropOp48
 70
     1
102
RTVSPost2010Prop49
280
     0
102
RTVSPost2010PropOp49
 70
     1
102
RTVSPost2010Prop50
 90
       50
102
RTVSPost2010PropOp50
 70
     1
102
RTVSPost2010Prop51ColorIndex
 90
      256
102
RTVSPost2010Prop51ColorRGB
 90
-16777216
102
RTVSPost2010PropOp51
 70
     0
102
RTVSPost2010Prop52
140
1.0
102
RTVSPost2010PropOp52
 70
     0
102
RTVSPost2010Prop53
 90
        2
102
RTVSPost2010PropOp53
 70
     1
102
RTVSPost2010Prop54
  1
strokes_ogs.tif
102
RTVSPost2010PropOp54
 70
     1
102
RTVSPost2010Prop55
280
     0
102
RTVSPost2010PropOp55
 70
     1
102
RTVSPost2010Prop56
140
1.0
102
RTVSPost2010PropOp56
 70
     1
102
RTVSPost2010Prop57
140
1.0
102
RTVSPost2010PropOp57
 70
     1
  0
XRECORD
  5
121
102
{ACAD_REACTORS
330
120
102
}
330
120
100
AcDbXrecord
280
     1
102
RTVSPropertyOp0
 70
     1
102
RTVSPropertyOp1
 70
     1
102
RTVSPropertyOp2
 70
     1
102
RTVSPropertyOp3
 70
     1
102
RTVSPropertyOp4
 70
     1
102
RTVSPropertyOp5
 70
     1
102
RTVSPropertyOp6
 70
     1
102
RTVSPropertyOp7
 70
     1
102
RTVSPropertyOp8
 70
     1
102
RTVSPropertyOp9
 70
     1
102
RTVSPropertyOp10
 70
     1
102
RTVSPropertyOp11
 70
     1
102
RTVSPropertyOp12
 70
     1
102
RTVSPropertyOp13
 70
     1
102
RTVSPropertyOp14
 70
     1
102
RTVSPropertyOp15
 70
     1
102
RTVSPropertyOp16
 70
     1
102
RTVSPropertyOp17
 70
     1
102
RTVSPropertyOp18
 70
     1
102
RTVSPropertyOp19
 70
     1
102
RTVSPropertyOp20
 70
     1
102
RTVSPropertyOp21
 70
     1
102
RTVSPropertyOp22
 70
     1
102
RTVSPropertyOp23
 70
     1
102
RTVSPropertyOp24
 70
     1
102
RTVSPropertyOp25
 70
     1
102
RTVSPropertyOp26
 70
     1
102
RTVSPropertyOp27
 70
     1
102
RTVSPropertyOp28
 70
     1
102
RTVSPropertyOp29
 70
     1
102
RTVSPropertyOp30
 70
     1
102
RTVSPropertyOp31
 70
     1
102
RTVSPropertyOp32
 70
     1
102
RTVSPropertyOp33
 70
     1
102
RTVSPropertyOp34
 70
     1
102
RTVSPropertyOp35
 70
     1
102
RTVSPropertyOp36
 70
     1
102
RTVSPropertyOp37
 70
     1
102
RTVSPropertyOp38
 70
     1
102
RTVSPropertyOp39
 70
     1
102
RTVSPropertyOp40
 70
     1
102
RTVSPropertyOp41
 70
     1
102
RTVSPropertyOp42
 70
     1
102
RTVSPropertyOp43
 70
     1
102
RTVSPropertyOp44
 70
     1
102
RTVSPropertyOp45
 70
     1
102
RTVSPropertyOp46
 70
     1
102
RTVSPropertyOp47
 70
     1
102
RTVSPropertyOp48
 70
     1
102
RTVSPropertyOp49
 70
     1
102
RTVSPropertyOp50
 70
     1
102
RTVSPropertyOp51
 70
     0
102
RTVSPropertyOp52
 70
     0
102
RTVSPropertyOp53
 70
     1
102
RTVSPropertyOp54
 70
     1
102
RTVSPropertyOp55
 70
     1
102
RTVSPropertyOp56
 70
     1
102
RTVSPropertyOp57
 70
     1
102
RTVSPost2010Prop28
280
     0
102
RTVSPost2010PropOp28
 70
     1
102
RTVSPost2010Prop29
280
     1
102
RTVSPost2010PropOp29
 70
     1
102
RTVSPost2010Prop30
280
     1
102
RTVSPost2010PropOp30
 70
     1
102
RTVSPost2010Prop31
280
     0
102
RTVSPost2010PropOp31
 70
     1
102
RTVSPost2010Prop32
280
     0
102
RTVSPost2010PropOp32
 70
     1
102
RTVSPost2010Prop33
280
     0
102
RTVSPost2010PropOp33
 70
     1
102
RTVSPost2010Prop34
280
     0
102
RTVSPost2010PropOp34
 70
     1
102
RTVSPost2010Prop35
280
     0
102
RTVSPost2010PropOp35
 70
     1
102
RTVSPost2010Prop36
280
     0
102
RTVSPost2010PropOp36
 70
     1
102
RTVSPost2010Prop37
 90
       50
102
RTVSPost2010PropOp37
 70
     1
102
RTVSPost2010Prop38
140
0.0
102
RTVSPost2010PropOp38
 70
     1
102
RTVSPost2010Prop39
140
1.0
102
RTVSPost2010PropOp39
 70
     1
102
RTVSPost2010Prop40
 90
        0
102
RTVSPost2010PropOp40
 70
     1
102
RTVSPost2010Prop41ColorIndex
 90
       18
102
RTVSPost2010Prop41ColorRGB
 90
        0
102
RTVSPost2010PropOp41
 70
     1
102
RTVSPost2010Prop42
 90
       50
102
RTVSPost2010PropOp42
 70
     1
102
RTVSPost2010Prop43
 90
        3
102
RTVSPost2010PropOp43
 70
     1
102
RTVSPost2010Prop44ColorIndex
 90
        5
102
RTVSPost2010Prop44ColorRGB
 90
      255
102
RTVSPost2010PropOp44
 70
     1
102
RTVSPost2010Prop45
280
     0
102
RTVSPost2010PropOp45
 70
     1
102
RTVSPost2010Prop46
 90
       50
102
RTVSPost2010PropOp46
 70
     1
102
RTVSPost2010Prop47
 90
       50
102
RTVSPost2010PropOp47
 70
     1
102
RTVSPost2010Prop48
 90
       50
102
RTVSPost2010PropOp48
 70
     1
102
RTVSPost2010Prop49
280
     0
102
RTVSPost2010PropOp49
 70
     1
102
RTVSPost2010Prop50
 90
       50
102
RTVSPost2010PropOp50
 70
     1
102
RTVSPost2010Prop51ColorIndex
 90
      256
102
RTVSPost2010Prop51ColorRGB
 90
-16777216
102
RTVSPost2010PropOp51
 70
     0
102
RTVSPost2010Prop52
140
1.0
102
RTVSPost2010PropOp52
 70
     0
102
RTVSPost2010Prop53
 90
        2
102
RTVSPost2010PropOp53
 70
     1
102
RTVSPost2010Prop54
  1
strokes_ogs.tif
102
RTVSPost2010PropOp54
 70
     1
102
RTVSPost2010Prop55
280
     0
102
RTVSPost2010PropOp55
 70
     1
102
RTVSPost2010Prop56
140
1.0
102
RTVSPost2010PropOp56
 70
     1
102
RTVSPost2010Prop57
140
1.0
102
RTVSPost2010PropOp57
 70
     1
  0
ENDSEC
  0
EOF
