  0
SECTION
  2
HEADER
  9
$ACADVER
  1
AC1015
  9
$ACADMAINTVER
 70
     6
  9
$DWGCODEPAGE
  3
ANSI_1252
  9
$INSBASE
 10
0.0
 20
0.0
 30
0.0
  9
$EXTMIN
 10
-626.4893193949891
 20
472.0637298119492
 30
0.0
  9
$EXTMAX
 10
905.565681537159
 20
1563.032888000836
 30
0.0
  9
$LIMMIN
 10
0.0
 20
0.0
  9
$LIMMAX
 10
12.0
 20
9.0
  9
$ORTHOMODE
 70
     0
  9
$REGENMODE
 70
     1
  9
$FILLMODE
 70
     1
  9
$QTEXTMODE
 70
     0
  9
$MIRRTEXT
 70
     1
  9
$LTSCALE
 40
1.0
  9
$ATTMODE
 70
     1
  9
$TEXTSIZE
 40
0.2
  9
$TRACEWID
 40
0.05
  9
$TEXTSTYLE
  7
Standard
  9
$CLAYER
  8
0
  9
$CELTYPE
  6
ByLayer
  9
$CECOLOR
 62
   256
  9
$CELTSCALE
 40
1.0
  9
$DISPSILH
 70
     0
  9
$DIMSCALE
 40
1.0
  9
$DIMASZ
 40
0.18
  9
$DIMEXO
 40
0.0625
  9
$DIMDLI
 40
0.38
  9
$DIMRND
 40
0.0
  9
$DIMDLE
 40
0.0
  9
$DIMEXE
 40
0.18
  9
$DIMTP
 40
0.0
  9
$DIMTM
 40
0.0
  9
$DIMTXT
 40
0.18
  9
$DIMCEN
 40
0.09
  9
$DIMTSZ
 40
0.0
  9
$DIMTOL
 70
     0
  9
$DIMLIM
 70
     0
  9
$DIMTIH
 70
     1
  9
$DIMTOH
 70
     1
  9
$DIMSE1
 70
     0
  9
$DIMSE2
 70
     0
  9
$DIMTAD
 70
     0
  9
$DIMZIN
 70
     0
  9
$DIMBLK
  1

  9
$DIMASO
 70
     1
  9
$DIMSHO
 70
     1
  9
$DIMPOST
  1

  9
$DIMAPOST
  1

  9
$DIMALT
 70
     0
  9
$DIMALTD
 70
     2
  9
$DIMALTF
 40
25.4
  9
$DIMLFAC
 40
1.0
  9
$DIMTOFL
 70
     0
  9
$DIMTVP
 40
0.0
  9
$DIMTIX
 70
     0
  9
$DIMSOXD
 70
     0
  9
$DIMSAH
 70
     0
  9
$DIMBLK1
  1

  9
$DIMBLK2
  1

  9
$DIMSTYLE
  2
Standard
  9
$DIMCLRD
 70
     0
  9
$DIMCLRE
 70
     0
  9
$DIMCLRT
 70
     0
  9
$DIMTFAC
 40
1.0
  9
$DIMGAP
 40
0.09
  9
$DIMJUST
 70
     0
  9
$DIMSD1
 70
     0
  9
$DIMSD2
 70
     0
  9
$DIMTOLJ
 70
     1
  9
$DIMTZIN
 70
     0
  9
$DIMALTZ
 70
     0
  9
$DIMALTTZ
 70
     0
  9
$DIMUPT
 70
     0
  9
$DIMDEC
 70
     4
  9
$DIMTDEC
 70
     4
  9
$DIMALTU
 70
     2
  9
$DIMALTTD
 70
     2
  9
$DIMTXSTY
  7
Standard
  9
$DIMAUNIT
 70
     0
  9
$DIMADEC
 70
     0
  9
$DIMALTRND
 40
0.0
  9
$DIMAZIN
 70
     0
  9
$DIMDSEP
 70
    46
  9
$DIMATFIT
 70
     3
  9
$DIMFRAC
 70
     0
  9
$DIMLDRBLK
  1

  9
$DIMLUNIT
 70
     2
  9
$DIMLWD
 70
    -2
  9
$DIMLWE
 70
    -2
  9
$DIMTMOVE
 70
     0
  9
$LUNITS
 70
     2
  9
$LUPREC
 70
     4
  9
$SKETCHINC
 40
0.1
  9
$FILLETRAD
 40
0.5
  9
$AUNITS
 70
     0
  9
$AUPREC
 70
     0
  9
$MENU
  1
.
  9
$ELEVATION
 40
0.0
  9
$PELEVATION
 40
0.0
  9
$THICKNESS
 40
0.0
  9
$LIMCHECK
 70
     0
  9
$CHAMFERA
 40
0.5
  9
$CHAMFERB
 40
0.5
  9
$CHAMFERC
 40
1.0
  9
$CHAMFERD
 40
0.0
  9
$SKPOLY
 70
     0
  9
$TDCREATE
 40
2456853.447126447
  9
$TDUCREATE
 40
2456853.363793113
  9
$TDUPDATE
 40
2456853.447126458
  9
$TDUUPDATE
 40
2456853.363793125
  9
$TDINDWG
 40
0.0000000116
  9
$TDUSRTIMER
 40
0.0000000116
  9
$USRTIMER
 70
     1
  9
$ANGBASE
 50
0.0
  9
$ANGDIR
 70
     0
  9
$PDMODE
 70
     0
  9
$PDSIZE
 40
0.0
  9
$PLINEWID
 40
0.0
  9
$SPLFRAME
 70
     0
  9
$SPLINETYPE
 70
     6
  9
$SPLINESEGS
 70
     8
  9
$HANDSEED
  5
C8
  9
$SURFTAB1
 70
     6
  9
$SURFTAB2
 70
     6
  9
$SURFTYPE
 70
     6
  9
$SURFU
 70
     6
  9
$SURFV
 70
     6
  9
$UCSBASE
  2

  9
$UCSNAME
  2

  9
$UCSORG
 10
0.0
 20
0.0
 30
0.0
  9
$UCSXDIR
 10
1.0
 20
0.0
 30
0.0
  9
$UCSYDIR
 10
0.0
 20
1.0
 30
0.0
  9
$UCSORTHOREF
  2

  9
$UCSORTHOVIEW
 70
     0
  9
$UCSORGTOP
 10
0.0
 20
0.0
 30
0.0
  9
$UCSORGBOTTOM
 10
0.0
 20
0.0
 30
0.0
  9
$UCSORGLEFT
 10
0.0
 20
0.0
 30
0.0
  9
$UCSORGRIGHT
 10
0.0
 20
0.0
 30
0.0
  9
$UCSORGFRONT
 10
0.0
 20
0.0
 30
0.0
  9
$UCSORGBACK
 10
0.0
 20
0.0
 30
0.0
  9
$PUCSBASE
  2

  9
$PUCSNAME
  2

  9
$PUCSORG
 10
0.0
 20
0.0
 30
0.0
  9
$PUCSXDIR
 10
1.0
 20
0.0
 30
0.0
  9
$PUCSYDIR
 10
0.0
 20
1.0
 30
0.0
  9
$PUCSORTHOREF
  2

  9
$PUCSORTHOVIEW
 70
     0
  9
$PUCSORGTOP
 10
0.0
 20
0.0
 30
0.0
  9
$PUCSORGBOTTOM
 10
0.0
 20
0.0
 30
0.0
  9
$PUCSORGLEFT
 10
0.0
 20
0.0
 30
0.0
  9
$PUCSORGRIGHT
 10
0.0
 20
0.0
 30
0.0
  9
$PUCSORGFRONT
 10
0.0
 20
0.0
 30
0.0
  9
$PUCSORGBACK
 10
0.0
 20
0.0
 30
0.0
  9
$USERI1
 70
     0
  9
$USERI2
 70
     0
  9
$USERI3
 70
     0
  9
$USERI4
 70
     0
  9
$USERI5
 70
     0
  9
$USERR1
 40
17.0
  9
$USERR2
 40
0.0
  9
$USERR3
 40
0.0
  9
$USERR4
 40
0.0
  9
$USERR5
 40
0.0
  9
$WORLDVIEW
 70
     1
  9
$SHADEDGE
 70
     3
  9
$SHADEDIF
 70
    70
  9
$TILEMODE
 70
     1
  9
$MAXACTVP
 70
    64
  9
$PINSBASE
 10
0.0
 20
0.0
 30
0.0
  9
$PLIMCHECK
 70
     0
  9
$PEXTMIN
 10
1.00000000000000E+20
 20
1.00000000000000E+20
 30
1.00000000000000E+20
  9
$PEXTMAX
 10
-1.00000000000000E+20
 20
-1.00000000000000E+20
 30
-1.00000000000000E+20
  9
$PLIMMIN
 10
0.0
 20
0.0
  9
$PLIMMAX
 10
12.0
 20
9.0
  9
$UNITMODE
 70
     0
  9
$VISRETAIN
 70
     1
  9
$PLINEGEN
 70
     0
  9
$PSLTSCALE
 70
     1
  9
$TREEDEPTH
 70
  3020
  9
$CMLSTYLE
  2
Standard
  9
$CMLJUST
 70
     0
  9
$CMLSCALE
 40
1.0
  9
$PROXYGRAPHICS
 70
     1
  9
$MEASUREMENT
 70
     1
  9
$CELWEIGHT
370
    -1
  9
$ENDCAPS
280
     0
  9
$JOINSTYLE
280
     0
  9
$LWDISPLAY
290
     0
  9
$INSUNITS
 70
     1
  9
$HYPERLINKBASE
  1

  9
$STYLESHEET
  1

  9
$XEDIT
290
     1
  9
$CEPSNTYPE
380
     0
  9
$PSTYLEMODE
290
     1
  9
$FINGERPRINTGUID
  2
{9CF7221D-57B8-41EC-BA44-3FC53108B127}
  9
$VERSIONGUID
  2
{FAEB1C32-E019-11D5-929B-00C0DF256EC4}
  9
$EXTNAMES
290
     1
  9
$PSVPSCALE
 40
0.0
  9
$OLESTARTUP
290
     0
  0
ENDSEC
  0
SECTION
  2
CLASSES
  0
CLASS
  1
ACDBDICTIONARYWDFLT
  2
AcDbDictionaryWithDefault
  3
ObjectDBX Classes
 90
        0
280
     0
281
     0
  0
CLASS
  1
VISUALSTYLE
  2
AcDbVisualStyle
  3
ObjectDBX Classes
 90
     4095
280
     0
281
     0
  0
CLASS
  1
MATERIAL
  2
AcDbMaterial
  3
ObjectDBX Classes
 90
     1153
280
     0
281
     0
  0
CLASS
  1

  2
exOdDbSpline
  3

 90
        0
280
     0
281
     1
  0
CLASS
  1
DICTIONARYVAR
  2
AcDbDictionaryVar
  3
ObjectDBX Classes
 90
        0
280
     0
281
     0
  0
CLASS
  1
ACDBPLACEHOLDER
  2
AcDbPlaceHolder
  3
ObjectDBX Classes
 90
        0
280
     0
281
     0
  0
CLASS
  1
LAYOUT
  2
AcDbLayout
  3
ObjectDBX Classes
 90
        0
280
     0
281
     0
  0
ENDSEC
  0
SECTION
  2
TABLES
  0
TABLE
  2
VPORT
  5
8
330
0
100
AcDbSymbolTable
 70
     1
  0
VPORT
  5
29
330
8
100
AcDbSymbolTableRecord
100
AcDbViewportTableRecord
  2
*Active
 70
     0
 10
0.0
 20
0.0
 11
1.0
 21
1.0
 12
139.5381810710849
 22
1017.548308906393
 13
0.0
 23
0.0
 14
0.5
 24
0.5
 15
0.5
 25
0.5
 16
0.0
 26
0.0
 36
1.0
 17
0.0
 27
0.0
 37
0.0
 40
1200.066074007776
 41
1.60267857142857
 42
50.0
 43
0.0
 44
0.0
 50
0.0
 51
0.0
 71
     0
 72
   100
 73
     1
 74
     3
 75
     0
 76
     0
 77
     0
 78
     0
281
     0
 65
     1
110
0.0
120
0.0
130
0.0
111
1.0
121
0.0
131
0.0
112
0.0
122
1.0
132
0.0
 79
     0
146
0.0
  0
ENDTAB
  0
TABLE
  2
LTYPE
  5
5
330
0
100
AcDbSymbolTable
 70
     8
  0
LTYPE
  5
14
330
5
100
AcDbSymbolTableRecord
100
AcDbLinetypeTableRecord
  2
ByBlock
 70
     0
  3

 72
    65
 73
     0
 40
0.0
  0
LTYPE
  5
15
330
5
100
AcDbSymbolTableRecord
100
AcDbLinetypeTableRecord
  2
ByLayer
 70
     0
  3

 72
    65
 73
     0
 40
0.0
  0
LTYPE
  5
16
330
5
100
AcDbSymbolTableRecord
100
AcDbLinetypeTableRecord
  2
Continuous
 70
     0
  3
Solid line
 72
    65
 73
     0
 40
0.0
  0
LTYPE
  5
3F
330
5
100
AcDbSymbolTableRecord
100
AcDbLinetypeTableRecord
  2
DASHED
 70
     0
  3
Dashed
 72
    65
 73
     2
 40
15.0
 49
7.0
 74
     0
 49
-8.0
 74
     0
  0
LTYPE
  5
40
330
5
100
AcDbSymbolTableRecord
100
AcDbLinetypeTableRecord
  2
DOTTED
 70
     0
  3
Dotted
 72
    65
 73
     2
 40
1.0
 49
0.0
 74
     0
 49
-1.0
 74
     0
  0
LTYPE
  5
41
330
5
100
AcDbSymbolTableRecord
100
AcDbLinetypeTableRecord
  2
DOT_CENTER
 70
     0
  3
Dot_Center
 72
    65
 73
     4
 40
14.0
 49
12.0
 74
     0
 49
-1.0
 74
     0
 49
0.0
 74
     0
 49
-1.0
 74
     0
  0
LTYPE
  5
42
330
5
100
AcDbSymbolTableRecord
100
AcDbLinetypeTableRecord
  2
LONG_DASHED
 70
     0
  3
Long_Dashed
 72
    65
 73
     2
 40
15.0
 49
10.0
 74
     0
 49
-5.0
 74
     0
  0
LTYPE
  5
43
330
5
100
AcDbSymbolTableRecord
100
AcDbLinetypeTableRecord
  2
DASH_CENTER
 70
     0
  3
Dash_Center
 72
    65
 73
     4
 40
14.0
 49
11.0
 74
     0
 49
-1.0
 74
     0
 49
1.0
 74
     0
 49
-1.0
 74
     0
  0
LTYPE
  5
44
330
5
100
AcDbSymbolTableRecord
100
AcDbLinetypeTableRecord
  2
PHANTOM
 70
     0
  3
Phantom
 72
    65
 73
     6
 40
13.0
 49
10.0
 74
     0
 49
-1.0
 74
     0
 49
0.0
 74
     0
 49
-1.0
 74
     0
 49
0.0
 74
     0
 49
-1.0
 74
     0
  0
LTYPE
  5
45
330
5
100
AcDbSymbolTableRecord
100
AcDbLinetypeTableRecord
  2
CENTER_DASH_DASH
 70
     0
  3
Center_Dash_Dash
 72
    65
 73
     6
 40
14.0
 49
9.0
 74
     0
 49
-1.0
 74
     0
 49
1.0
 74
     0
 49
-1.0
 74
     0
 49
1.0
 74
     0
 49
-1.0
 74
     0
  0
ENDTAB
  0
TABLE
  2
LAYER
  5
2
330
0
100
AcDbSymbolTable
 70
     2
  0
LAYER
  5
10
330
2
100
AcDbSymbolTableRecord
100
AcDbLayerTableRecord
  2
0
 70
     0
 62
     7
  6
Continuous
370
    -3
390
F
  0
LAYER
  5
46
330
2
100
AcDbSymbolTableRecord
100
AcDbLayerTableRecord
  2
1
 70
     0
 62
     7
  6
Continuous
370
    -3
390
F
  0
ENDTAB
  0
TABLE
  2
STYLE
  5
3
330
0
100
AcDbSymbolTable
 70
     1
  0
STYLE
  5
11
330
3
100
AcDbSymbolTableRecord
100
AcDbTextStyleTableRecord
  2
Standard
 70
     0
 40
0.0
 41
1.0
 50
0.0
 71
     0
 42
0.2
  3
txt
  4

  0
ENDTAB
  0
TABLE
  2
VIEW
  5
6
330
0
100
AcDbSymbolTable
 70
     0
  0
ENDTAB
  0
TABLE
  2
UCS
  5
7
330
0
100
AcDbSymbolTable
 70
     0
  0
ENDTAB
  0
TABLE
  2
APPID
  5
9
330
0
100
AcDbSymbolTable
 70
     1
  0
APPID
  5
12
330
9
100
AcDbSymbolTableRecord
100
AcDbRegAppTableRecord
  2
ACAD
 70
     0
  0
ENDTAB
  0
TABLE
  2
DIMSTYLE
  5
A
330
0
100
AcDbSymbolTable
 70
     1
100
AcDbDimStyleTable
  0
DIMSTYLE
105
27
330
A
100
AcDbSymbolTableRecord
100
AcDbDimStyleTableRecord
  2
Standard
 70
     0
340
11
  0
ENDTAB
  0
TABLE
  2
BLOCK_RECORD
  5
1
330
0
100
AcDbSymbolTable
 70
     1
  0
BLOCK_RECORD
  5
1F
330
1
100
AcDbSymbolTableRecord
100
AcDbBlockTableRecord
  2
*Model_Space
340
22
  0
BLOCK_RECORD
  5
1B
330
1
100
AcDbSymbolTableRecord
100
AcDbBlockTableRecord
  2
*Paper_Space
340
1E
  0
BLOCK_RECORD
  5
23
330
1
100
AcDbSymbolTableRecord
100
AcDbBlockTableRecord
  2
*Paper_Space0
340
26
  0
ENDTAB
  0
ENDSEC
  0
SECTION
  2
BLOCKS
  0
BLOCK
  5
20
330
1F
100
AcDbEntity
  8
0
100
AcDbBlockBegin
  2
*Model_Space
 70
     0
 10
0.0
 20
0.0
 30
0.0
  3
*Model_Space
  1

  0
ENDBLK
  5
21
330
1F
100
AcDbEntity
  8
0
100
AcDbBlockEnd
  0
BLOCK
  5
1C
330
1B
100
AcDbEntity
 67
     1
  8
0
100
AcDbBlockBegin
  2
*Paper_Space
 70
     0
 10
0.0
 20
0.0
 30
0.0
  3
*Paper_Space
  1

  0
ENDBLK
  5
1D
330
1B
100
AcDbEntity
 67
     1
  8
0
100
AcDbBlockEnd
  0
BLOCK
  5
24
330
23
100
AcDbEntity
  8
0
100
AcDbBlockBegin
  2
*Paper_Space0
 70
     0
 10
0.0
 20
0.0
 30
0.0
  3
*Paper_Space0
  1

  0
ENDBLK
  5
25
330
23
100
AcDbEntity
  8
0
100
AcDbBlockEnd
  0
ENDSEC
  0
SECTION
  2
ENTITIES
  0
LINE
  5
47
330
1F
100
AcDbEntity
  8
1
  6
Continuous
 62
     1
100
AcDbLine
 10
-411.1962894615925
 20
473.3058175436468
 30
0.0
 11
-411.1962894615925
 21
482.4037084053363
 31
0.0
  0
LINE
  5
48
330
1F
100
AcDbEntity
  8
1
  6
Continuous
 62
     1
100
AcDbLine
 10
-392.0275961379545
 20
482.4037084053363
 30
0.0
 11
-411.222528295451
 21
482.4037084053363
 31
0.0
  0
LINE
  5
49
330
1F
100
AcDbEntity
  8
1
  6
Continuous
 62
     1
100
AcDbLine
 10
-411.6070306864165
 20
486.355404769183
 30
0.0
 11
-411.1130686409357
 21
482.4037084053363
 31
0.0
  0
LINE
  5
4A
330
1F
100
AcDbEntity
  8
1
  6
Continuous
 62
     1
100
AcDbLine
 10
-381.180593936297
 20
1077.897844055877
 30
0.0
 11
-395.7057469241813
 21
1109.8198972558
 31
0.0
  0
LINE
  5
4B
330
1F
100
AcDbEntity
  8
1
  6
Continuous
 62
     1
100
AcDbLine
 10
-547.5143132984094
 20
1228.817706021619
 30
0.0
 11
-566.8349629517292
 21
1238.16183493154
 31
0.0
  0
LINE
  5
4C
330
1F
100
AcDbEntity
  8
1
  6
Continuous
 62
     1
100
AcDbLine
 10
-577.6325458633845
 20
1207.40833025645
 30
0.0
 11
-588.6325458633845
 21
1232.40833025645
 31
0.0
  0
LINE
  5
4D
330
1F
100
AcDbEntity
  8
1
  6
Continuous
 62
     1
100
AcDbLine
 10
-129.7934925522615
 20
517.095267035864
 30
0.0
 11
-123.2582139700297
 21
517.5262977742092
 31
0.0
  0
LINE
  5
4E
330
1F
100
AcDbEntity
  8
1
  6
Continuous
 62
     1
100
AcDbLine
 10
10.767817651727
 20
472.6369860952329
 30
0.0
 11
61.332063650935
 21
472.627204349508
 31
0.0
  0
LINE
  5
4F
330
1F
100
AcDbEntity
  8
0
  6
Continuous
 62
     1
100
AcDbLine
 10
834.1222105778284
 20
472.7126161039247
 30
0.0
 11
859.9850723540274
 21
472.5626579107404
 31
0.0
  0
LINE
  5
50
330
1F
100
AcDbEntity
  8
0
  6
Continuous
 62
     1
100
AcDbLine
 10
582.4443135654692
 20
715.563801603008
 30
0.0
 11
800.5538028245626
 21
714.8111320857087
 31
0.0
  0
LINE
  5
51
330
1F
100
AcDbEntity
  8
0
  6
Continuous
 62
     1
100
AcDbLine
 10
832.4162911379528
 20
878.4477460250522
 30
0.0
 11
582.4443135654692
 21
878.4477460250522
 31
0.0
  0
LINE
  5
52
330
1F
100
AcDbEntity
  8
0
  6
Continuous
 62
     1
100
AcDbLine
 10
829.1116244527263
 20
926.5714251602793
 30
0.0
 11
582.4443135654692
 21
926.5714251602792
 31
0.0
  0
LINE
  5
53
330
1F
100
AcDbEntity
  8
0
  6
Continuous
 62
     1
100
AcDbLine
 10
582.4443135654692
 20
1018.284427215286
 30
0.0
 11
782.3498556819972
 21
1017.550600799335
 31
0.0
  0
LINE
  5
54
330
1F
100
AcDbEntity
  8
0
  6
Continuous
 62
     1
100
AcDbLine
 10
582.4443135654692
 20
1413.033898634781
 30
0.0
 11
863.7773031435636
 21
1412.001162995219
 31
0.0
  0
LINE
  5
55
330
1F
100
AcDbEntity
  8
0
  6
Continuous
 62
     1
100
AcDbLine
 10
823.9300673006765
 20
799.828945567842
 30
0.0
 11
800.5538028245626
 21
714.8111320857087
 31
0.0
  0
LINE
  5
56
330
1F
100
AcDbEntity
  8
0
  6
Continuous
 62
     1
100
AcDbLine
 10
824.1890186535695
 20
799.828945567842
 30
0.0
 11
582.4443135654692
 21
799.828945567842
 31
0.0
  0
LINE
  5
57
330
1F
100
AcDbEntity
  8
1
  6
Continuous
 62
     1
100
AcDbLine
 10
820.1293596117173
 20
786.0060416675967
 30
0.0
 11
820.1293596117173
 21
517.4514081876115
 31
0.0
  0
LINE
  5
58
330
1F
100
AcDbEntity
  8
1
  6
Continuous
 62
     1
100
AcDbLine
 10
829.1116244527266
 20
1113.563275542447
 30
0.0
 11
829.1116244527263
 21
926.5714251602793
 31
0.0
  0
LINE
  5
59
330
1F
100
AcDbEntity
  8
1
  6
Continuous
 62
     1
100
AcDbLine
 10
853.2213682866764
 20
1135.9240351897
 30
0.0
 11
901.2213682866761
 21
1135.9240351897
 31
0.0
  0
LINE
  5
5A
330
1F
100
AcDbEntity
  8
1
  6
Continuous
 62
     1
100
AcDbLine
 10
862.8921799094508
 20
1319.811648106803
 30
0.0
 11
863.5156543211222
 21
1338.694696302979
 31
0.0
  0
LINE
  5
5B
330
1F
100
AcDbEntity
  8
1
  6
Continuous
 62
     1
100
AcDbLine
 10
782.3498556819972
 20
1017.550600799335
 30
0.0
 11
800.4638898051103
 21
1019.616838751767
 31
0.0
  0
LINE
  5
5C
330
1F
100
AcDbEntity
  8
1
  6
Continuous
 62
     1
100
AcDbLine
 10
820.1293596117173
 20
517.4514081876115
 30
0.0
 11
871.5842471318333
 21
517.4514081876115
 31
0.0
  0
LINE
  5
5D
330
1F
100
AcDbEntity
  8
1
  6
Continuous
 62
     1
100
AcDbLine
 10
293.3043799991049
 20
517.4514081876115
 30
0.0
 11
344.7592675192209
 21
517.4514081876115
 31
0.0
  0
LINE
  5
5E
330
1F
100
AcDbEntity
  8
1
  6
Continuous
 62
     1
100
AcDbLine
 10
364.4247373258281
 20
1019.616838751767
 30
0.0
 11
382.538771448941
 21
1017.550600799335
 31
0.0
  0
LINE
  5
5F
330
1F
100
AcDbEntity
  8
1
  6
Continuous
 62
     1
100
AcDbLine
 10
301.3729728098163
 20
1338.694696302979
 30
0.0
 11
301.9964472214876
 21
1319.811648106803
 31
0.0
  0
LINE
  5
60
330
1F
100
AcDbEntity
  8
1
  6
Continuous
 62
     1
100
AcDbLine
 10
263.667258844262
 20
1135.9240351897
 30
0.0
 11
311.667258844262
 21
1135.9240351897
 31
0.0
  0
LINE
  5
61
330
1F
100
AcDbEntity
  8
1
  6
Continuous
 62
     1
100
AcDbLine
 10
335.7770026782118
 20
926.5714251602793
 30
0.0
 11
335.7770026782118
 21
1113.563275542447
 31
0.0
  0
LINE
  5
62
330
1F
100
AcDbEntity
  8
1
  6
Continuous
 62
     1
100
AcDbLine
 10
344.7592675192209
 20
517.4514081876115
 30
0.0
 11
344.7592675192209
 21
786.0060416675967
 31
0.0
  0
LINE
  5
63
330
1F
100
AcDbEntity
  8
0
  6
Continuous
 62
     1
100
AcDbLine
 10
582.4443135654692
 20
799.828945567842
 30
0.0
 11
340.6996084773686
 21
799.828945567842
 31
0.0
  0
LINE
  5
64
330
1F
100
AcDbEntity
  8
0
  6
Continuous
 62
     1
100
AcDbLine
 10
364.3348243063755
 20
714.8111320857087
 30
0.0
 11
340.9585598302617
 21
799.828945567842
 31
0.0
  0
LINE
  5
65
330
1F
100
AcDbEntity
  8
0
  6
Continuous
 62
     1
100
AcDbLine
 10
301.1113239873748
 20
1412.001162995219
 30
0.0
 11
582.4443135654692
 21
1413.033898634781
 31
0.0
  0
LINE
  5
66
330
1F
100
AcDbEntity
  8
0
  6
Continuous
 62
     1
100
AcDbLine
 10
382.538771448941
 20
1017.550600799335
 30
0.0
 11
582.4443135654692
 21
1018.284427215286
 31
0.0
  0
LINE
  5
67
330
1F
100
AcDbEntity
  8
0
  6
Continuous
 62
     1
100
AcDbLine
 10
582.4443135654692
 20
926.5714251602792
 30
0.0
 11
335.7770026782118
 21
926.5714251602793
 31
0.0
  0
LINE
  5
68
330
1F
100
AcDbEntity
  8
0
  6
Continuous
 62
     1
100
AcDbLine
 10
582.4443135654692
 20
878.4477460250522
 30
0.0
 11
332.4723359929853
 21
878.4477460250522
 31
0.0
  0
LINE
  5
69
330
1F
100
AcDbEntity
  8
0
  6
Continuous
 62
     1
100
AcDbLine
 10
364.3348243063755
 20
714.8111320857087
 30
0.0
 11
582.4443135654692
 21
715.563801603008
 31
0.0
  0
LINE
  5
6A
330
1F
100
AcDbEntity
  8
0
  6
Continuous
 62
     1
100
AcDbLine
 10
-129.7934925522615
 20
517.095267035864
 30
0.0
 11
-392.0275961379545
 21
482.4037084053363
 31
0.0
  0
LINE
  5
6B
330
1F
100
AcDbEntity
  8
0
  6
Continuous
 62
     1
100
AcDbLine
 10
78.71224055160778
 20
517.5648996380074
 30
0.0
 11
-123.2582139700297
 21
517.5262977742092
 31
0.0
  0
LINE
  5
6C
330
1F
100
AcDbEntity
  8
0
  6
Continuous
 62
     1
100
AcDbLine
 10
-480.3754880093196
 20
1056.223909842218
 30
0.0
 11
-543.2483662948063
 21
1226.754547720018
 31
0.0
  0
LINE
  5
6D
330
1F
100
AcDbEntity
  8
0
  6
Continuous
 62
     1
100
AcDbLine
 10
106.2657408040948
 20
926.207167291044
 30
0.0
 11
107.4416385797768
 21
926.3990435201255
 31
0.0
  0
LINE
  5
6E
330
1F
100
AcDbEntity
  8
0
  6
Continuous
 62
     1
100
AcDbLine
 10
-381.1962932460644
 20
473.3208863291618
 30
0.0
 11
-381.20157486689
 21
483.8359079038952
 31
0.0
  0
LINE
  5
6F
330
1F
100
AcDbEntity
  8
0
  6
Continuous
 62
     1
100
AcDbLine
 10
304.9035547769108
 20
472.5626579107404
 30
0.0
 11
330.7664165531098
 21
472.7126161039247
 31
0.0
  0
LINE
  5
70
330
1F
100
AcDbEntity
  8
1
  6
Continuous
 62
     1
100
AcDbLine
 10
582.99493972008
 20
1563.032888000836
 30
0.0
 11
864.3279292981744
 21
1562.000152361274
 31
0.0
  0
ARC
  5
71
330
1F
100
AcDbEntity
  8
1
  6
Continuous
 62
     1
100
AcDbCircle
 10
-1260.804358871804
 20
692.5671637881971
 30
0.0
 40
977.9999999999998
100
AcDbArc
 50
23.4193342677097
 51
44.46091641328659
  0
ARC
  5
72
330
1F
100
AcDbEntity
  8
1
  6
Continuous
 62
     1
100
AcDbCircle
 10
-586.1903853477077
 20
1023.145694389982
 30
0.0
 40
209.2768857704227
100
AcDbArc
 50
24.46645524236018
 51
90.66862934197935
  0
ARC
  5
73
330
1F
100
AcDbEntity
  8
1
  6
Continuous
 62
     1
100
AcDbCircle
 10
-617.5760549805544
 20
1330.228017539974
 30
0.0
 40
72.42292385237626
100
AcDbArc
 50
40.83113601901889
 51
77.95479553512173
  0
ARC
  5
74
330
1F
100
AcDbEntity
  8
1
  6
Continuous
 62
     1
100
AcDbCircle
 10
-496.9608683468127
 20
1325.627405404668
 30
0.0
 40
129.528451048176
100
AcDbArc
 50
144.5446533515277
 51
226.2183034692459
  0
ARC
  5
75
330
1F
100
AcDbEntity
  8
1
  6
Continuous
 62
     1
100
AcDbCircle
 10
437.2365414239992
 20
1308.832554567036
 30
0.0
 40
954.654645953635
100
AcDbArc
 50
195.3608160887922
 51
235.9846155947026
  0
ARC
  5
76
330
1F
100
AcDbEntity
  8
1
  6
Continuous
 62
     1
100
AcDbCircle
 10
272.8245037788493
 20
1251.943910088919
 30
0.0
 40
822.1879277442779
100
AcDbArc
 50
243.283469681256
 51
251.4138084345348
  0
ARC
  5
77
330
1F
100
AcDbEntity
  8
1
  6
Continuous
 62
     1
100
AcDbCircle
 10
-136.0366875482664
 20
574.7717640563029
 30
0.0
 40
222.233964613034
100
AcDbArc
 50
332.6370084529869
 51
345.0992166423856
  0
ARC
  5
78
330
1F
100
AcDbEntity
  8
1
  6
Continuous
 62
     1
100
AcDbCircle
 10
-2161.434318462842
 20
972.7396473922106
 30
0.0
 40
3067.000000000001
100
AcDbArc
 50
351.4630369740834
 51
3.04994905938592
  0
ARC
  5
79
330
1F
100
AcDbEntity
  8
1
  6
Continuous
 62
     1
100
AcDbCircle
 10
853.3605186541861
 20
1111.595857249093
 30
0.0
 40
24.32857588792686
100
AcDbArc
 50
90.32771224602352
 51
175.3615043790929
  0
ARC
  5
7A
330
1F
100
AcDbEntity
  8
1
  6
Continuous
 62
     1
100
AcDbCircle
 10
864.6052290223513
 20
1068.187351292605
 30
0.0
 40
76.99999999999606
100
AcDbArc
 50
61.60585760489749
 51
131.7337284548892
  0
ARC
  5
7B
330
1F
100
AcDbEntity
  8
1
  6
Continuous
 62
     1
100
AcDbCircle
 10
463.6420496922577
 20
877.2992201150822
 30
0.0
 40
368.7760299499057
100
AcDbArc
 50
0.17844379336197
 51
7.67825682717145
  0
ARC
  5
7C
330
1F
100
AcDbEntity
  8
1
  6
Continuous
 62
     1
100
AcDbCircle
 10
463.6420496922577
 20
877.2992201150822
 30
0.0
 40
368.7760299499059
100
AcDbArc
 50
347.8733081397931
 51
0.17844379336197
  0
ARC
  5
7D
330
1F
100
AcDbEntity
  8
1
  6
Continuous
 62
     1
100
AcDbCircle
 10
649.0991609697697
 20
550.9981879952057
 30
0.0
 40
225.0
100
AcDbArc
 50
339.5981472322648
 51
351.4254116141168
  0
ARC
  5
7E
330
1F
100
AcDbEntity
  8
1
  6
Continuous
 62
     1
100
AcDbCircle
 10
1166.653133132792
 20
601.2752140348123
 30
0.0
 40
356.5181005811546
100
AcDbArc
 50
193.5985757711576
 51
201.1374226876255
  0
ARC
  5
7F
330
1F
100
AcDbEntity
  8
1
  6
Continuous
 62
     1
100
AcDbCircle
 10
1525.095103696228
 20
998.5814329494123
 30
0.0
 40
723.0
100
AcDbArc
 50
169.8777221598486
 51
185.7160740776488
  0
ARC
  5
80
330
1F
100
AcDbEntity
  8
1
  6
Continuous
 62
     1
100
AcDbCircle
 10
-360.2064765652895
 20
998.5814329494123
 30
0.0
 40
722.9999999999999
100
AcDbArc
 50
354.2839259223512
 51
10.1222778401514
  0
ARC
  5
81
330
1F
100
AcDbEntity
  8
1
  6
Continuous
 62
     1
100
AcDbCircle
 10
-1.76450600185373
 20
601.2752140348123
 30
0.0
 40
356.5181005811545
100
AcDbArc
 50
338.8625773123745
 51
346.4014242288425
  0
ARC
  5
82
330
1F
100
AcDbEntity
  8
1
  6
Continuous
 62
     1
100
AcDbCircle
 10
515.7894661611684
 20
550.9981879952057
 30
0.0
 40
225.0000000000001
100
AcDbArc
 50
188.5745883858832
 51
200.4018527677353
  0
ARC
  5
83
330
1F
100
AcDbEntity
  8
1
  6
Continuous
 62
     1
100
AcDbCircle
 10
701.2465774386804
 20
877.2992201150822
 30
0.0
 40
368.7760299499057
100
AcDbArc
 50
179.8215562066381
 51
192.1266918602069
  0
ARC
  5
84
330
1F
100
AcDbEntity
  8
1
  6
Continuous
 62
     1
100
AcDbCircle
 10
701.2465774386804
 20
877.2992201150822
 30
0.0
 40
368.7760299499057
100
AcDbArc
 50
172.3217431728285
 51
179.8215562066381
  0
ARC
  5
85
330
1F
100
AcDbEntity
  8
1
  6
Continuous
 62
     1
100
AcDbCircle
 10
300.2833981085869
 20
1068.187351292605
 30
0.0
 40
76.99999999999616
100
AcDbArc
 50
48.26627154511066
 51
118.3941423951025
  0
ARC
  5
86
330
1F
100
AcDbEntity
  8
1
  6
Continuous
 62
     1
100
AcDbCircle
 10
311.5281084767521
 20
1111.595857249093
 30
0.0
 40
24.32857588792671
100
AcDbArc
 50
4.63849562090703
 51
89.6722877539761
  0
ARC
  5
87
330
1F
100
AcDbEntity
  8
1
  6
Continuous
 62
     1
100
AcDbCircle
 10
3326.322945593779
 20
972.7396473922106
 30
0.0
 40
3067.0
100
AcDbArc
 50
176.9500509406141
 51
188.5369630259166
  0
ARC
  5
88
330
1F
100
AcDbEntity
  8
1
  6
Continuous
 62
     1
100
AcDbCircle
 10
104.7001147585283
 20
-1431.495695610274
 30
0.0
 40
2556.0
100
AcDbArc
 50
90.50871569095925
 51
103.3001787931233
  0
ARC
  5
89
330
1F
100
AcDbEntity
  8
1
  6
Continuous
 62
     1
100
AcDbCircle
 10
-1504.839760463105
 20
829.5890334518792
 30
0.0
 40
1613.999999999999
100
AcDbArc
 50
348.8553774067043
 51
10.52478212582717
  0
ARC
  5
8A
330
1F
100
AcDbEntity
  8
0
  6
Continuous
 62
     1
100
AcDbCircle
 10
79.47717029135131
 20
917.0637701176532
 30
0.0
 40
121.1969163874677
100
AcDbArc
 50
284.040031222612
 51
327.8712269070804
  0
ARC
  5
8B
330
1F
100
AcDbEntity
  8
1
  6
Continuous
 62
     1
100
AcDbCircle
 10
-1094.743609441425
 20
427.171219942329
 30
0.0
 40
1917.0
100
AcDbArc
 50
2.6993154638582
 51
8.62964463752288
  0
ARC
  5
8C
330
1F
100
AcDbEntity
  8
1
  6
Continuous
 62
     1
100
AcDbCircle
 10
2674.056752515449
 20
386.065615994375
 30
0.0
 40
2333.0
100
AcDbArc
 50
171.8994308935041
 51
176.7716090051149
  0
SPLINE
  5
8D
330
1F
100
AcDbEntity
  8
0
  6
Continuous
 62
     1
100
AcDbSpline
210
0.0
220
0.0
230
1.0
 70
     8
 71
     3
 72
    50
 73
    46
 74
    44
 42
0.0000000001
 43
0.0000000001
 44
0.00000001
 40
0.0
 40
0.0
 40
0.0
 40
0.0
 40
3.31730145079763
 40
6.670056847492416
 40
10.05801265667962
 40
13.48111314717013
 40
16.9395073933437
 40
19.80038518603564
 40
22.62917306283523
 40
25.42703093393401
 40
27.53976018208131
 40
29.66912011065811
 40
29.8012238148563
 40
29.93417217047861
 40
29.96738385747562
 40
30.00043347259649
 40
30.0335637564851
 40
30.06669420299117
 40
30.132934384451
 40
30.19921725629735
 40
30.45673474419068
 40
30.72933482381731
 40
30.86440025137207
 40
30.99440901238255
 40
31.06065350982525
 40
31.12694980348662
 40
31.16008538957782
 40
31.19322113754139
 40
31.22614061806406
 40
31.25949336589758
 40
31.52549382673545
 40
31.78970308851584
 40
32.86105397512257
 40
33.91102630789626
 40
37.31376390778614
 40
40.71372459795339
 40
44.111407711375
 40
47.50732759217824
 40
50.90201574846185
 40
53.73954921361837
 40
56.57472713017764
 40
59.40789308557017
 40
62.19117287356125
 40
65.02763694203341
 40
67.91665815665215
 40
67.91665815665215
 40
67.91665815665215
 40
67.91665815665215
 10
-566.8349629517292
 20
1238.16183493154
 30
0.0
 10
-567.6853448776831
 20
1238.86870416699
 30
0.0
 10
-569.3951972599043
 20
1240.289997363924
 30
0.0
 10
-571.914367708156
 20
1242.502884997306
 30
0.0
 10
-574.4129719622006
 20
1244.791257697585
 30
0.0
 10
-576.8830179640968
 20
1247.161716659549
 30
0.0
 10
-579.172953135324
 20
1249.464800223074
 30
0.0
 10
-581.2750485802912
 20
1251.674090947863
 30
0.0
 10
-583.1839615957655
 20
1253.762473099638
 30
0.0
 10
-584.8861561824696
 20
1255.701233549902
 30
0.0
 10
-586.4031221320414
 20
1257.491752241243
 30
0.0
 10
-587.3285085513835
 20
1258.61861209769
 30
0.0
 10
-587.8299443893668
 20
1259.239566945347
 30
0.0
 10
-587.8923319005818
 20
1259.316977470402
 30
0.0
 10
-587.9339691390832
 20
1259.368704908264
 30
0.0
 10
-587.9547368458311
 20
1259.394518360483
 30
0.0
 10
-587.9754818101948
 20
1259.420315352122
 30
0.0
 10
-588.0031501721586
 20
1259.454741840348
 30
0.0
 10
-588.0377184772766
 20
1259.497800428402
 30
0.0
 10
-588.119041347306
 20
1259.599240587852
 30
0.0
 10
-588.2431269574554
 20
1259.754560785054
 30
0.0
 10
-588.3810459030465
 20
1259.928174324518
 30
0.0
 10
-588.492232077849
 20
1260.068741619527
 30
0.0
 10
-588.5606279529816
 20
1260.155453264189
 30
0.0
 10
-588.6147584446367
 20
1260.224221218773
 30
0.0
 10
-588.648887067048
 20
1260.267638830447
 30
0.0
 10
-588.6761777048448
 20
1260.30239379199
 30
0.0
 10
-588.6965902074559
 20
1260.328404015422
 30
0.0
 10
-588.7170415367294
 20
1260.35447578434
 30
0.0
 10
-588.7853790025198
 20
1260.441637864997
 30
0.0
 10
-588.9011239163125
 20
1260.589598539284
 30
0.0
 10
-589.229239397162
 20
1261.010715982057
 30
0.0
 10
-589.7149128273714
 20
1261.640354695468
 30
0.0
 10
-590.8282231445049
 20
1263.107037897773
 30
0.0
 10
-592.3768527305695
 20
1265.21771355164
 30
0.0
 10
-594.3193697539277
 20
1268.00873815541
 30
0.0
 10
-596.1901546977438
 20
1270.845642556935
 30
0.0
 10
-597.9881662215788
 20
1273.72714209661
 30
0.0
 10
-599.6181680197283
 20
1276.492185962818
 30
0.0
 10
-601.0923471545107
 20
1279.13101709447
 30
0.0
 10
-602.4223869619366
 20
1281.635225099946
 30
0.0
 10
-603.6910805068411
 20
1284.150852266261
 30
0.0
 10
-604.9054875102368
 20
1286.693522333583
 30
0.0
 10
-606.0775184822279
 20
1289.276655012662
 30
0.0
 10
-606.8179925680554
 20
1291.035729380728
 30
0.0
 10
-607.1916282053957
 20
1291.923340284636
 30
0.0
 11
-566.8349629517292
 21
1238.16183493154
 31
0.0
 11
-569.3764019930837
 21
1240.293870699191
 31
0.0
 11
-571.8978290907359
 21
1242.503706471662
 31
0.0
 11
-574.3953841053703
 21
1244.792912341364
 31
0.0
 11
-576.8652068976719
 21
1247.163058400708
 31
0.0
 11
-579.3034373283257
 21
1249.615714742106
 31
0.0
 11
-581.2754056399756
 21
1251.688385174801
 31
0.0
 11
-583.1838518382838
 21
1253.77641629528
 31
0.0
 11
-585.0297336481143
 21
1255.878969269882
 31
0.0
 11
-586.395409829053
 21
1257.490972199406
 31
0.0
 11
-587.7467558590241
 21
1259.136583822089
 31
0.0
 11
-587.8297510257032
 21
1259.239361207592
 31
0.0
 11
-587.9131770351277
 21
1259.342876260672
 31
0.0
 11
-587.9340019518675
 21
1259.368747847325
 31
0.0
 11
-587.9547190317393
 21
1259.394498180551
 31
0.0
 11
-587.9754805524683
 21
1259.420316293719
 31
0.0
 11
-587.9962347925192
 21
1259.446140468548
 31
0.0
 11
-588.0377036129569
 21
1259.497794108994
 31
0.0
 11
-588.0791632324976
 21
1259.549509861408
 31
0.0
 11
-588.2398991309761
 21
1259.7507043631
 31
0.0
 11
-588.4094622621145
 21
1259.964150253131
 31
0.0
 11
-588.4932532748717
 21
1260.070082948281
 31
0.0
 11
-588.5737685121393
 21
1260.172159265354
 31
0.0
 11
-588.6147419129215
 21
1260.224212256332
 31
0.0
 11
-588.6557121204592
 21
1260.276333659302
 31
0.0
 11
-588.6761764826964
 21
1260.302394682763
 31
0.0
 11
-588.6966337328103
 21
1260.328461495205
 31
0.0
 11
-588.7169513461135
 21
1260.354362977547
 31
0.0
 11
-588.7375300254811
 21
1260.380610334434
 31
0.0
 11
-588.9014239407403
 21
1260.590121741539
 31
0.0
 11
-589.0638114358602
 21
1260.798536797231
 31
0.0
 11
-589.7181545880255
 21
1261.646845562627
 31
0.0
 11
-590.3529791011196
 21
1262.483170701054
 31
0.0
 11
-592.3658691643972
 21
1265.226689749077
 31
0.0
 11
-594.3080533169563
 21
1268.017326488645
 31
0.0
 11
-596.1785019714534
 21
1270.853815933385
 31
0.0
 11
-597.9761855405454
 21
1273.734893096921
 31
0.0
 11
-599.7000744368887
 21
1276.659292992879
 31
0.0
 11
-601.0839116702316
 21
1279.136507290734
 31
0.0
 11
-602.4138317587842
 21
1281.640413514339
 31
0.0
 11
-603.6893579667243
 21
1284.170208411886
 31
0.0
 11
-604.8896814736469
 21
1286.681357522745
 31
0.0
 11
-606.0584549297431
 21
1289.265829813186
 31
0.0
 11
-607.1916282053957
 21
1291.923340284636
 31
0.0
  0
SPLINE
  5
8E
330
1F
100
AcDbEntity
  8
0
  6
Continuous
 62
     1
100
AcDbSpline
210
0.0
220
0.0
230
1.0
 70
     8
 71
     3
 72
    15
 73
    11
 74
     9
 42
0.0000000001
 43
0.0000000001
 44
0.00000001
 40
0.0
 40
0.0
 40
0.0
 40
0.0
 40
23.84583112989641
 40
47.66412051553621
 40
71.43350905899601
 40
95.16978493490093
 40
118.8747967800907
 40
142.5570714716602
 40
166.2225013313609
 40
189.878156673139
 40
189.878156673139
 40
189.878156673139
 40
189.878156673139
 10
837.2713834409819
 20
1204.953762146864
 30
0.0
 10
834.5085212575608
 20
1197.499495138961
 30
0.0
 10
828.9859879744453
 20
1182.599570741937
 30
0.0
 10
821.9244112116038
 20
1159.848144464184
 30
0.0
 10
815.7835301341929
 20
1136.874328295034
 30
0.0
 10
810.6624324741337
 20
1113.688544584174
 30
0.0
 10
806.5390665453303
 20
1090.334133929995
 30
0.0
 10
803.451286945887
 20
1066.846230057996
 30
0.0
 10
801.3089471151615
 20
1043.264357435587
 30
0.0
 10
800.7455367829457
 20
1027.498259445237
 30
0.0
 10
800.4638898051103
 20
1019.616838751767
 30
0.0
 11
837.2713834409819
 21
1204.953762146864
 31
0.0
 11
829.1857024664333
 21
1182.520629832063
 31
0.0
 11
822.0716558257234
 21
1159.789566292231
 31
0.0
 11
815.94936554157
 21
1136.822167802055
 31
0.0
 11
810.8257357506425
 21
1113.645472390013
 31
0.0
 11
806.7098948828527
 21
1090.300506325964
 31
0.0
 11
803.6079229243712
 21
1066.822263109408
 31
0.0
 11
801.5248362465206
 21
1043.248690611015
 31
0.0
 11
800.4638898051103
 21
1019.616838751767
 31
0.0
  0
SPLINE
  5
8F
330
1F
100
AcDbEntity
  8
0
  6
Continuous
 62
     1
100
AcDbSpline
210
0.0
220
0.0
230
1.0
 70
     8
 71
     3
 72
    44
 73
    40
 74
    38
 42
0.0000000001
 43
0.0000000001
 44
0.00000001
 40
0.0
 40
0.0
 40
0.0
 40
0.0
 40
1.135417453300907
 40
2.518241952733417
 40
4.144795475408236
 40
6.011399996305223
 40
7.721944422421532
 40
9.588217132437936
 40
11.60771478572971
 40
12.31482682697969
 40
13.12723429272066
 40
13.99680748904414
 40
14.87541672206759
 40
15.99537575417922
 40
17.26761337108222
 40
18.69851831221991
 40
20.05087661397839
 40
21.28885206754379
 40
22.37525942497773
 40
23.27291343830305
 40
23.94462885951427
 40
26.73059940517578
 40
29.51656901135566
 40
36.46879819121878
 40
43.42102751079403
 40
45.77888711746043
 40
48.13673483622824
 40
48.23741563205405
 40
48.33809642787826
 40
48.74081961117535
 40
49.14354279447267
 40
49.94898916106572
 40
50.75443552765899
 40
52.36532826084622
 40
53.9762209940339
 40
57.19800646040813
 40
60.41979192678281
 40
66.86336285953217
 40
73.30693379227937
 40
73.30693379227937
 40
73.30693379227937
 40
73.30693379227937
 10
863.7773031435636
 20
1412.001162995219
 30
0.0
 10
863.776067106854
 20
1411.62269252894
 30
0.0
 10
863.7733257014897
 20
1410.78328302076
 30
0.0
 10
863.7686708907981
 20
1409.401692368424
 30
0.0
 10
863.7631287111742
 20
1407.776374303271
 30
0.0
 10
863.7571438213546
 20
1406.041817137896
 30
0.0
 10
863.7508363842062
 20
1404.227354215074
 30
0.0
 10
863.7443133567217
 20
1402.361927356634
 30
0.0
 10
863.7389335454876
 20
1400.830976007432
 30
0.0
 10
863.734776478914
 20
1399.651310945268
 30
0.0
 10
863.731966250201
 20
1398.854951669243
 30
0.0
 10
863.7289495087413
 20
1398.001427035454
 30
0.0
 10
863.7255632267181
 20
1397.045385878681
 30
0.0
 10
863.7216903412875
 20
1395.955124130027
 30
0.0
 10
863.7171516165184
 20
1394.68076501577
 30
0.0
 10
863.7123241455465
 20
1393.328940015423
 30
0.0
 10
863.7075261648605
 20
1391.988535703755
 30
0.0
 10
863.7031306760405
 20
1390.762963214964
 30
0.0
 10
863.6992725857201
 20
1389.688957869765
 30
0.0
 10
863.6960885676374
 20
1388.803704665116
 30
0.0
 10
863.6908616192674
 20
1387.351934081226
 30
0.0
 10
863.6833670542848
 20
1385.270729051059
 30
0.0
 10
863.668334863353
 20
1381.096033004261
 30
0.0
 10
863.6483016636176
 20
1375.532593037368
 30
0.0
 10
863.6287824866301
 20
1370.111855477879
 30
0.0
 10
863.614777773962
 20
1366.222568477181
 30
0.0
 10
863.6089967949465
 20
1364.617116178253
 30
0.0
 10
863.6059250475463
 20
1363.764051938532
 30
0.0
 10
863.605199981468
 20
1363.562691652302
 30
0.0
 10
863.6041123823557
 20
1363.260651222959
 30
0.0
 10
863.6021788728189
 20
1362.72369045968
 30
0.0
 10
863.5997619858994
 20
1362.052489505582
 30
0.0
 10
863.5958949668275
 20
1360.978567979026
 30
0.0
 10
863.5910611929874
 20
1359.63616607083
 30
0.0
 10
863.5833271548433
 20
1357.488323017717
 30
0.0
 10
863.5736596071625
 20
1354.803519201326
 30
0.0
 10
863.5581915308753
 20
1350.507833095099
 30
0.0
 10
863.5388564355112
 20
1345.138225462317
 30
0.0
 10
863.5233883592518
 20
1340.842539356091
 30
0.0
 10
863.5156543211222
 20
1338.694696302979
 30
0.0
 11
863.7773031435636
 21
1412.001162995219
 31
0.0
 11
863.7735774071413
 21
1410.865751654713
 31
0.0
 11
863.768935982444
 21
1409.482934944731
 31
0.0
 11
863.7633913403567
 21
1407.85639087245
 31
0.0
 11
863.7569559517649
 21
1405.989797445052
 31
0.0
 11
863.7510112133841
 21
1404.279263348986
 31
0.0
 11
863.7444868068275
 21
1402.413002043523
 31
0.0
 11
863.7373913609922
 21
1400.39351685509
 31
0.0
 11
863.734899624747
 21
1399.68640920407
 31
0.0
 11
863.7320327595143
 21
1398.874006796715
 31
0.0
 11
863.7289590685477
 21
1398.004439032715
 31
0.0
 11
863.725846855101
 21
1397.125835311757
 31
0.0
 11
863.7218690216697
 21
1396.005883343836
 31
0.0
 11
863.7173380872198
 21
1394.733653795171
 31
0.0
 11
863.7122285813789
 21
1393.302757976629
 31
0.0
 11
863.7073880462194
 21
1391.950408337832
 31
0.0
 11
863.7029482112006
 21
1390.712440845732
 31
0.0
 11
863.6990456814647
 21
1389.626040497542
 31
0.0
 11
863.6958170621539
 21
1388.728392290472
 31
0.0
 11
863.69339895841
 21
1388.056681221732
 31
0.0
 11
863.6833671845918
 21
1385.270728737427
 31
0.0
 11
863.6733354143562
 21
1382.484777192596
 31
0.0
 11
863.6483017002414
 21
1375.532593083807
 31
0.0
 11
863.6232679855937
 21
1368.580408835307
 31
0.0
 11
863.6147777604242
 21
1366.222564514571
 31
0.0
 11
863.6062875805837
 21
1363.864732081648
 31
0.0
 11
863.6059250475455
 21
1363.764051938532
 31
0.0
 11
863.6055625145073
 21
1363.663371795417
 31
0.0
 11
863.6041123823552
 21
1363.260651222958
 31
0.0
 11
863.6026622502031
 21
1362.857930650499
 31
0.0
 11
863.5997619858994
 21
1362.052489505582
 31
0.0
 11
863.5968617215954
 21
1361.247048360665
 31
0.0
 11
863.5910611929875
 21
1359.63616607083
 31
0.0
 11
863.5852606643793
 21
1358.025283780995
 31
0.0
 11
863.5736596071629
 21
1354.803519201326
 31
0.0
 11
863.5620585499466
 21
1351.581754621656
 31
0.0
 11
863.5388564355193
 21
1345.138225462317
 31
0.0
 11
863.5156543211222
 21
1338.694696302979
 31
0.0
  0
SPLINE
  5
90
330
1F
100
AcDbEntity
  8
0
  6
Continuous
 62
     1
100
AcDbSpline
210
0.0
220
0.0
230
1.0
 70
     8
 71
     3
 72
    25
 73
    21
 74
    19
 42
0.0000000001
 43
0.0000000001
 44
0.00000001
 40
0.0
 40
0.0
 40
0.0
 40
0.0
 40
14.24288774792229
 40
28.56723950900357
 40
43.1383611178021
 40
57.79609863031555
 40
72.66317971073593
 40
87.67068941288461
 40
95.23779391637888
 40
102.8330327202349
 40
106.6238703065006
 40
110.4671432423407
 40
112.3743726252731
 40
114.297048971916
 40
115.255871910726
 40
116.2151644227519
 40
116.6954776918793
 40
117.1750066775874
 40
117.7711876696574
 40
118.135341429384
 40
118.135341429384
 40
118.135341429384
 40
118.135341429384
 10
862.8921799094508
 20
1319.811648106803
 30
0.0
 10
862.5476393016556
 20
1315.075883746549
 30
0.0
 10
861.8565874421129
 20
1305.577268217736
 30
0.0
 10
860.0789241983052
 20
1291.302218193631
 30
0.0
 10
857.7586792849181
 20
1276.968225354034
 30
0.0
 10
854.8353488781852
 20
1262.559147991968
 30
0.0
 10
851.3326765614903
 20
1248.130746085835
 30
0.0
 10
847.9327426052812
 20
1236.118896643543
 30
0.0
 10
844.9270172502938
 20
1226.521499350137
 30
0.0
 10
842.9283351785855
 20
1220.527830254849
 30
0.0
 10
841.2570052798121
 20
1215.73434299588
 30
0.0
 10
840.1826830819018
 20
1212.74078359133
 30
0.0
 10
839.302384110085
 20
1210.339311165539
 30
0.0
 10
838.7462436910016
 20
1208.843076093369
 30
0.0
 10
838.2961353654514
 20
1207.644543529624
 30
0.0
 10
838.0133751182461
 20
1206.896739989541
 30
0.0
 10
837.7861160396517
 20
1206.298756395796
 30
0.0
 10
837.6013005046059
 20
1205.814126172751
 30
0.0
 10
837.4297601167937
 20
1205.365873442042
 30
0.0
 10
837.3149273913057
 20
1205.067067680479
 30
0.0
 10
837.2713834409819
 20
1204.953762146864
 30
0.0
 11
862.8921799094508
 21
1319.811648106803
 31
0.0
 11
861.7377106168697
 21
1305.615625704299
 31
0.0
 11
860.0034167498329
 21
1291.396649715925
 31
0.0
 11
857.6687096406346
 21
1277.013787425941
 31
0.0
 11
854.7592860238402
 21
1262.647698076233
 31
0.0
 11
851.2538178973166
 21
1248.199798814897
 31
0.0
 11
847.1691050786981
 21
1233.758868489966
 31
0.0
 11
844.9078148329945
 21
1226.537536411223
 31
0.0
 11
842.505410025339
 21
1219.3322533753
 31
0.0
 11
841.2573900805972
 21
1215.752742818957
 31
0.0
 11
839.9592262934723
 21
1212.135351819748
 31
0.0
 11
839.3028159972736
 21
1210.344639826667
 31
0.0
 11
838.6329512246648
 21
1208.542428540397
 31
0.0
 11
838.2958537346626
 21
1207.64481687034
 31
0.0
 11
837.9565717150515
 21
1206.747526596907
 31
0.0
 11
837.7859374067434
 21
1206.298544671516
 31
0.0
 11
837.6150783227051
 21
1205.85048750827
 31
0.0
 11
837.4019546472314
 21
1205.293702025109
 31
0.0
 11
837.2713834409819
 21
1204.953762146864
 31
0.0
  0
SPLINE
  5
91
330
1F
100
AcDbEntity
  8
0
  6
Continuous
 62
     1
100
AcDbSpline
210
0.0
220
0.0
230
1.0
 70
     8
 71
     3
 72
    25
 73
    21
 74
    19
 42
0.0000000001
 43
0.0000000001
 44
0.00000001
 40
0.0
 40
0.0
 40
0.0
 40
0.0
 40
14.24288774792229
 40
28.56723950900358
 40
43.13836111780207
 40
57.79609863031556
 40
72.66317971073586
 40
87.67068941288464
 40
95.23779391637895
 40
102.8330327202349
 40
106.6238703065006
 40
110.4671432423407
 40
112.3743726252731
 40
114.2970489719161
 40
115.255871910726
 40
116.2151644227519
 40
116.6954776918793
 40
117.1750066775874
 40
117.7711876696575
 40
118.1353414293841
 40
118.1353414293841
 40
118.1353414293841
 40
118.1353414293841
 10
301.9964472214876
 20
1319.811648106803
 30
0.0
 10
302.3409878292827
 20
1315.07588374655
 30
0.0
 10
303.0320396888253
 20
1305.577268217736
 30
0.0
 10
304.8097029326332
 20
1291.302218193631
 30
0.0
 10
307.1299478460201
 20
1276.968225354034
 30
0.0
 10
310.0532782527532
 20
1262.559147991968
 30
0.0
 10
313.5559505694472
 20
1248.130746085835
 30
0.0
 10
316.9558845256571
 20
1236.118896643543
 30
0.0
 10
319.9616098806446
 20
1226.521499350138
 30
0.0
 10
321.9602919523531
 20
1220.527830254849
 30
0.0
 10
323.6316218511261
 20
1215.73434299588
 30
0.0
 10
324.7059440490368
 20
1212.74078359133
 30
0.0
 10
325.5862430208533
 20
1210.339311165538
 30
0.0
 10
326.1423834399367
 20
1208.84307609337
 30
0.0
 10
326.5924917654871
 20
1207.644543529623
 30
0.0
 10
326.8752520126923
 20
1206.896739989541
 30
0.0
 10
327.1025110912868
 20
1206.298756395796
 30
0.0
 10
327.2873266263325
 20
1205.814126172752
 30
0.0
 10
327.4588670141448
 20
1205.365873442042
 30
0.0
 10
327.573699739633
 20
1205.067067680479
 30
0.0
 10
327.6172436899565
 20
1204.953762146864
 30
0.0
 11
301.9964472214876
 21
1319.811648106803
 31
0.0
 11
303.1509165140687
 21
1305.615625704299
 31
0.0
 11
304.8852103811055
 21
1291.396649715925
 31
0.0
 11
307.2199174903036
 21
1277.013787425941
 31
0.0
 11
310.1293411070981
 21
1262.647698076233
 31
0.0
 11
313.6348092336214
 21
1248.199798814897
 31
0.0
 11
317.7195220522403
 21
1233.758868489966
 31
0.0
 11
319.980812297944
 21
1226.537536411223
 31
0.0
 11
322.3832171055994
 21
1219.3322533753
 31
0.0
 11
323.6312370503409
 21
1215.752742818957
 31
0.0
 11
324.9294008374661
 21
1212.135351819748
 31
0.0
 11
325.5858111336648
 21
1210.344639826667
 31
0.0
 11
326.2556759062736
 21
1208.542428540397
 31
0.0
 11
326.5927733962758
 21
1207.64481687034
 31
0.0
 11
326.9320554158869
 21
1206.747526596907
 31
0.0
 11
327.1026897241949
 21
1206.298544671516
 31
0.0
 11
327.2735488082333
 21
1205.85048750827
 31
0.0
 11
327.4866724837071
 21
1205.293702025109
 31
0.0
 11
327.6172436899565
 21
1204.953762146864
 31
0.0
  0
SPLINE
  5
92
330
1F
100
AcDbEntity
  8
0
  6
Continuous
 62
     1
100
AcDbSpline
210
0.0
220
0.0
230
1.0
 70
     8
 71
     3
 72
    44
 73
    40
 74
    38
 42
0.0000000001
 43
0.0000000001
 44
0.00000001
 40
0.0
 40
0.0
 40
0.0
 40
0.0
 40
1.135417453300907
 40
2.518241952733418
 40
4.144795475408236
 40
6.011399996305222
 40
7.721944422421531
 40
9.588217132437933
 40
11.60771478572971
 40
12.31482682697969
 40
13.12723429272066
 40
13.99680748904414
 40
14.87541672206759
 40
15.99537575417921
 40
17.26761337108222
 40
18.69851831221991
 40
20.05087661397839
 40
21.28885206754379
 40
22.37525942497772
 40
23.27291343830305
 40
23.94462885951427
 40
26.73059940517578
 40
29.51656901135566
 40
36.46879819121878
 40
43.42102751079403
 40
45.77888711746043
 40
48.13673483622824
 40
48.23741563205405
 40
48.33809642787826
 40
48.74081961117535
 40
49.14354279447267
 40
49.94898916106572
 40
50.75443552765899
 40
52.36532826084622
 40
53.9762209940339
 40
57.19800646040813
 40
60.41979192678281
 40
66.86336285953216
 40
73.30693379227935
 40
73.30693379227935
 40
73.30693379227935
 40
73.30693379227935
 10
301.1113239873748
 20
1412.001162995219
 30
0.0
 10
301.1125600240844
 20
1411.62269252894
 30
0.0
 10
301.1153014294488
 20
1410.78328302076
 30
0.0
 10
301.1199562401403
 20
1409.401692368423
 30
0.0
 10
301.1254984197646
 20
1407.776374303271
 30
0.0
 10
301.1314833095836
 20
1406.041817137896
 30
0.0
 10
301.1377907467325
 20
1404.227354215074
 30
0.0
 10
301.1443137742163
 20
1402.361927356634
 30
0.0
 10
301.1496935854506
 20
1400.830976007432
 30
0.0
 10
301.1538506520239
 20
1399.651310945268
 30
0.0
 10
301.1566608807375
 20
1398.854951669243
 30
0.0
 10
301.159677622197
 20
1398.001427035454
 30
0.0
 10
301.1630639042207
 20
1397.045385878681
 30
0.0
 10
301.1669367896508
 20
1395.955124130027
 30
0.0
 10
301.17147551442
 20
1394.68076501577
 30
0.0
 10
301.1763029853919
 20
1393.328940015423
 30
0.0
 10
301.1811009660779
 20
1391.988535703755
 30
0.0
 10
301.185496454898
 20
1390.762963214964
 30
0.0
 10
301.189354545218
 20
1389.688957869765
 30
0.0
 10
301.1925385633017
 20
1388.803704665116
 30
0.0
 10
301.1977655116704
 20
1387.351934081226
 30
0.0
 10
301.2052600766542
 20
1385.270729051059
 30
0.0
 10
301.2202922675849
 20
1381.096033004261
 30
0.0
 10
301.2403254673209
 20
1375.532593037368
 30
0.0
 10
301.2598446443085
 20
1370.111855477879
 30
0.0
 10
301.2738493569764
 20
1366.222568477181
 30
0.0
 10
301.2796303359919
 20
1364.617116178253
 30
0.0
 10
301.2827020833923
 20
1363.764051938532
 30
0.0
 10
301.2834271494702
 20
1363.562691652302
 30
0.0
 10
301.2845147485828
 20
1363.260651222959
 30
0.0
 10
301.2864482581197
 20
1362.72369045968
 30
0.0
 10
301.2888651450387
 20
1362.052489505582
 30
0.0
 10
301.2927321641112
 20
1360.978567979026
 30
0.0
 10
301.2975659379509
 20
1359.63616607083
 30
0.0
 10
301.3052999760952
 20
1357.488323017717
 30
0.0
 10
301.3149675237756
 20
1354.803519201326
 30
0.0
 10
301.3304356000636
 20
1350.507833095099
 30
0.0
 10
301.3497706954264
 20
1345.138225462317
 30
0.0
 10
301.3652387716863
 20
1340.842539356092
 30
0.0
 10
301.3729728098163
 20
1338.694696302979
 30
0.0
 11
301.1113239873748
 21
1412.001162995219
 31
0.0
 11
301.1150497237971
 21
1410.865751654713
 31
0.0
 11
301.1196911484946
 21
1409.482934944731
 31
0.0
 11
301.1252357905818
 21
1407.85639087245
 31
0.0
 11
301.1316711791735
 21
1405.989797445052
 31
0.0
 11
301.1376159175543
 21
1404.279263348986
 31
0.0
 11
301.1441403241107
 21
1402.413002043523
 31
0.0
 11
301.1512357699462
 21
1400.39351685509
 31
0.0
 11
301.1537275061914
 21
1399.68640920407
 31
0.0
 11
301.1565943714241
 21
1398.874006796715
 31
0.0
 11
301.1596680623907
 21
1398.004439032715
 31
0.0
 11
301.1627802758374
 21
1397.125835311757
 31
0.0
 11
301.1667581092687
 21
1396.005883343836
 31
0.0
 11
301.1712890437186
 21
1394.733653795171
 31
0.0
 11
301.1763985495595
 21
1393.302757976629
 31
0.0
 11
301.181239084719
 21
1391.950408337832
 31
0.0
 11
301.1856789197378
 21
1390.712440845732
 31
0.0
 11
301.1895814494737
 21
1389.626040497542
 31
0.0
 11
301.1928100687847
 21
1388.728392290472
 31
0.0
 11
301.1952281725285
 21
1388.056681221732
 31
0.0
 11
301.2052599463466
 21
1385.270728737427
 31
0.0
 11
301.2152917165822
 21
1382.484777192596
 31
0.0
 11
301.2403254306971
 21
1375.532593083807
 31
0.0
 11
301.2653591453448
 21
1368.580408835307
 31
0.0
 11
301.2738493705143
 21
1366.222564514571
 31
0.0
 11
301.2823395503547
 21
1363.864732081648
 31
0.0
 11
301.282702083393
 21
1363.764051938532
 31
0.0
 11
301.2830646164312
 21
1363.663371795417
 31
0.0
 11
301.2845147485832
 21
1363.260651222958
 31
0.0
 11
301.2859648807353
 21
1362.857930650499
 31
0.0
 11
301.288865145039
 21
1362.052489505582
 31
0.0
 11
301.291765409343
 21
1361.247048360665
 31
0.0
 11
301.2975659379509
 21
1359.63616607083
 31
0.0
 11
301.3033664665591
 21
1358.025283780995
 31
0.0
 11
301.3149675237755
 21
1354.803519201326
 31
0.0
 11
301.3265685809918
 21
1351.581754621656
 31
0.0
 11
301.3497706954188
 21
1345.138225462317
 31
0.0
 11
301.3729728098163
 21
1338.694696302979
 31
0.0
  0
SPLINE
  5
93
330
1F
100
AcDbEntity
  8
0
  6
Continuous
 62
     1
100
AcDbSpline
210
0.0
220
0.0
230
1.0
 70
     8
 71
     3
 72
    15
 73
    11
 74
     9
 42
0.0000000001
 43
0.0000000001
 44
0.00000001
 40
0.0
 40
0.0
 40
0.0
 40
0.0
 40
23.84583112989635
 40
47.66412051553618
 40
71.43350905899601
 40
95.16978493490092
 40
118.8747967800907
 40
142.5570714716602
 40
166.2225013313608
 40
189.878156673139
 40
189.878156673139
 40
189.878156673139
 40
189.878156673139
 10
327.6172436899565
 20
1204.953762146864
 30
0.0
 10
330.3801058733776
 20
1197.499495138961
 30
0.0
 10
335.902639156493
 20
1182.599570741937
 30
0.0
 10
342.9642159193343
 20
1159.848144464184
 30
0.0
 10
349.1050969967458
 20
1136.874328295034
 30
0.0
 10
354.2261946568048
 20
1113.688544584174
 30
0.0
 10
358.3495605856082
 20
1090.334133929996
 30
0.0
 10
361.4373401850512
 20
1066.846230057996
 30
0.0
 10
363.5796800157768
 20
1043.264357435587
 30
0.0
 10
364.1430903479926
 20
1027.498259445237
 30
0.0
 10
364.4247373258281
 20
1019.616838751767
 30
0.0
 11
327.6172436899565
 21
1204.953762146864
 31
0.0
 11
335.702924664505
 21
1182.520629832063
 31
0.0
 11
342.816971305215
 21
1159.789566292231
 31
0.0
 11
348.9392615893685
 21
1136.822167802055
 31
0.0
 11
354.062891380296
 21
1113.645472390013
 31
0.0
 11
358.1787322480858
 21
1090.300506325964
 31
0.0
 11
361.2807042065671
 21
1066.822263109408
 31
0.0
 11
363.3637908844177
 21
1043.248690611015
 31
0.0
 11
364.4247373258281
 21
1019.616838751767
 31
0.0
  0
SPLINE
  5
94
330
1F
100
AcDbEntity
  8
0
  6
Continuous
 62
     1
100
AcDbSpline
210
0.0
220
0.0
230
1.0
 70
     8
 71
     3
 72
    11
 73
     7
 74
     5
 42
0.0000000001
 43
0.0000000001
 44
0.00000001
 40
0.0
 40
0.0
 40
0.0
 40
0.0
 40
1.674213552957768
 40
2.822638732753428
 40
4.099469162232904
 40
5.229514275823756
 40
5.229514275823756
 40
5.229514275823756
 40
5.229514275823756
 10
-104.1599259840446
 20
517.5299479591501
 30
0.0
 10
-103.6018546593852
 20
517.5298279716941
 30
0.0
 10
-102.6609748451945
 20
517.5296256789578
 30
0.0
 10
-101.2944876551369
 20
517.5268547247482
 30
0.0
 10
-100.1093921969338
 20
517.5231508020233
 30
0.0
 10
-99.3071129899766
 20
517.5185971703513
 30
0.0
 10
-98.93043722035992
 20
517.5164592080312
 30
0.0
 11
-104.1599259840446
 21
517.5299479591501
 31
0.0
 11
-102.4857127063311
 21
517.5289879408525
 31
0.0
 11
-101.3372897216178
 21
517.5267425520284
 31
0.0
 11
-100.0604666019549
 21
517.5224220498642
 31
0.0
 11
-98.93043722035992
 21
517.5164592080312
 31
0.0
  0
SPLINE
  5
95
330
1F
100
AcDbEntity
  8
0
  6
Continuous
 62
     1
100
AcDbSpline
210
0.0
220
0.0
230
1.0
 70
     8
 71
     3
 72
    11
 73
     7
 74
     5
 42
0.0000000001
 43
0.0000000001
 44
0.00000001
 40
0.0
 40
0.0
 40
0.0
 40
0.0
 40
37.64820343036308
 40
75.29617676227217
 40
113.0097447791547
 40
150.7228968929132
 40
150.7228968929132
 40
150.7228968929132
 40
150.7228968929132
 10
-483.3147756354881
 20
1055.947668302744
 30
0.0
 10
-480.0640570328544
 20
1043.825241651411
 30
0.0
 10
-473.5626396953433
 20
1019.580462438647
 30
0.0
 10
-465.3689511825432
 20
982.8031984026665
 30
0.0
 10
-458.2246639012093
 20
945.7856537970938
 30
0.0
 10
-454.5218927918958
 20
920.9149022381314
 30
0.0
 10
-452.6705174457837
 20
908.4795950273437
 30
0.0
 11
-483.3147756354881
 21
1055.947668302744
 31
0.0
 11
-473.8231522609657
 21
1019.515590304773
 31
0.0
 11
-465.5490362018025
 21
982.7880951623104
 31
0.0
 11
-458.4903508677253
 21
945.7409876649833
 31
0.0
 11
-452.6705174457837
 21
908.4795950273437
 31
0.0
  0
SPLINE
  5
96
330
1F
100
AcDbEntity
  8
0
  6
Continuous
 62
     1
100
AcDbSpline
210
0.0
220
0.0
230
1.0
 70
     8
 71
     3
 72
    11
 73
     7
 74
     5
 42
0.0000000001
 43
0.0000000001
 44
0.00000001
 40
0.0
 40
0.0
 40
0.0
 40
0.0
 40
105.9704568667849
 40
211.9402795207446
 40
318.0515842114479
 40
424.1621762905057
 40
424.1621762905057
 40
424.1621762905057
 40
424.1621762905057
 10
-452.6705160480052
 20
908.4795843944127
 30
0.0
 10
-448.4624309999921
 20
873.4070743973052
 30
0.0
 10
-440.0462860885467
 20
803.2622643053253
 30
0.0
 10
-429.1879885182771
 20
697.7986387920886
 30
0.0
 10
-419.5092470880152
 20
592.1733031451499
 30
0.0
 10
-414.2410969237105
 20
521.6279586006832
 30
0.0
 10
-411.6070306864165
 20
486.355404769183
 30
0.0
 11
-452.6705160480052
 21
908.4795843944127
 31
0.0
 11
-440.3413858660525
 21
803.2287873546202
 31
0.0
 11
-429.3899021237431
 21
697.8263760105071
 31
0.0
 11
-419.8060288950574
 21
592.148760797541
 31
0.0
 11
-411.6070306864165
 21
486.355404769183
 31
0.0
  0
SPLINE
  5
97
330
1F
100
AcDbEntity
  8
0
  6
Continuous
 62
     1
100
AcDbSpline
210
0.0
220
0.0
230
1.0
 70
     8
 71
     3
 72
    39
 73
    35
 74
    33
 42
0.0000000001
 43
0.0000000001
 44
0.00000001
 40
0.0
 40
0.0
 40
0.0
 40
0.0
 40
6.915444776443875
 40
13.83088591143518
 40
20.75648678557037
 40
27.66153325069768
 40
34.90360781638613
 40
41.49235148886875
 40
43.23077683937641
 40
44.95048005565418
 40
45.85715478175236
 40
46.67944897812404
 40
47.53694968755219
 40
48.40842345886303
 40
51.86816196690428
 40
55.32418420582669
 40
55.7247459917003
 40
56.18866176654466
 40
56.62090023986535
 40
57.05314034051478
 40
57.91032110340748
 40
58.78212628092729
 40
60.51071487492291
 40
62.24010239254999
 40
65.69761673354955
 40
69.15589287538407
 40
75.74837217970762
 40
82.9861661568817
 40
86.44417530105603
 40
89.9019569092682
 40
93.29867203012749
 40
96.81770702868357
 40
104.0639767696834
 40
110.6502943303594
 40
110.6502943303594
 40
110.6502943303594
 40
110.6502943303594
 10
-607.1916282053957
 20
1291.923340284636
 30
0.0
 10
-608.0391749775551
 20
1294.067633792916
 30
0.0
 10
-609.734268075583
 20
1298.35621968036
 30
0.0
 10
-611.8297231742093
 20
1304.955535050514
 30
0.0
 10
-613.5875440895707
 20
1311.646502478126
 30
0.0
 10
-614.9940066847143
 20
1318.532299237839
 30
0.0
 10
-616.0009707157283
 20
1325.374164191431
 30
0.0
 10
-616.4762120363926
 20
1330.5447223975
 30
0.0
 10
-616.6734574626064
 20
1333.887917025662
 30
0.0
 10
-616.7393944710361
 20
1335.341411033337
 30
0.0
 10
-616.7796246045423
 20
1336.490271732015
 30
0.0
 10
-616.8039578263574
 20
1337.352090882949
 30
0.0
 10
-616.8223629848167
 20
1338.202321762323
 30
0.0
 10
-616.8480775125853
 20
1339.931708713351
 30
0.0
 10
-616.8426093849648
 20
1342.527794320698
 30
0.0
 10
-616.7713718605648
 20
1344.965861851119
 30
0.0
 10
-616.707556368616
 20
1346.404613278038
 30
0.0
 10
-616.6869429575703
 20
1346.836361386793
 30
0.0
 10
-616.6642629441337
 20
1347.278579120746
 30
0.0
 10
-616.6329044213135
 20
1347.851609078644
 30
0.0
 10
-616.5898671589698
 20
1348.570737457525
 30
0.0
 10
-616.5131389312384
 20
1349.720712403753
 30
0.0
 10
-616.4022265180774
 20
1351.159756922885
 30
0.0
 10
-616.1936216695076
 20
1353.455517816557
 30
0.0
 10
-615.8739042698326
 20
1356.319863558267
 30
0.0
 10
-615.2519766784804
 20
1360.779941475889
 30
0.0
 10
-614.229098554476
 20
1366.454050491188
 30
0.0
 10
-612.8968589475462
 20
1372.064244452901
 30
0.0
 10
-611.6133306566342
 20
1376.60465602112
 30
0.0
 10
-610.5877076015254
 20
1379.886033662334
 30
0.0
 10
-609.4673389417514
 20
1383.157876369192
 30
0.0
 10
-607.8132195185351
 20
1387.579447851355
 30
0.0
 10
-605.5764621139098
 20
1392.918891998551
 30
0.0
 10
-603.5048502622767
 20
1397.039266970716
 30
0.0
 10
-602.5184625952592
 20
1399.001162995219
 30
0.0
 11
-607.1916282053957
 21
1291.923340284636
 31
0.0
 11
-609.6595668103341
 21
1298.383421979034
 31
0.0
 11
-611.7726406430137
 21
1304.968119775378
 31
0.0
 11
-613.526907877464
 21
1311.667858123848
 31
0.0
 11
-614.9102346424037
 21
1318.432920854301
 31
0.0
 11
-615.9642991991425
 21
1325.597876675883
 31
0.0
 11
-616.5674831068308
 21
1332.15895222454
 31
0.0
 11
-616.6698696734568
 21
1333.89435986837
 31
0.0
 11
-616.7478016958479
 21
1335.61229634914
 31
0.0
 11
-616.7795355776439
 21
1336.518415557463
 31
0.0
 11
-616.8027435492512
 21
1337.340382184182
 31
0.0
 11
-616.8213017760256
 21
1338.197682049392
 31
0.0
 11
-616.8342583146346
 21
1339.069059500437
 31
0.0
 11
-616.8269696958007
 21
1342.528790331016
 31
0.0
 11
-616.7260320819004
 21
1345.983338248476
 31
0.0
 11
-616.7082831000705
 21
1346.383506610477
 31
0.0
 11
-616.6861568200557
 21
1346.846894432805
 31
0.0
 11
-616.6640164075405
 21
1347.278565488068
 31
0.0
 11
-616.6403981339871
 21
1347.710159836692
 31
0.0
 11
-616.5891903140418
 21
1348.565809659604
 31
0.0
 11
-616.5311510977112
 21
1349.435680751731
 31
0.0
 11
-616.3983164789365
 21
1351.159157903116
 31
0.0
 11
-616.2418195130075
 21
1352.881449947393
 31
0.0
 11
-615.8582744940339
 21
1356.317624948268
 31
0.0
 11
-615.3806597063152
 21
1359.742761148149
 31
0.0
 11
-614.2110440709235
 21
1366.230656233874
 31
0.0
 11
-612.5388531882617
 21
1373.272633179872
 31
0.0
 11
-611.598148641151
 21
1376.60023024025
 31
0.0
 11
-610.5667234895044
 21
1379.900596251262
 31
0.0
 11
-609.4658735166471
 21
1383.113974994817
 31
0.0
 11
-608.2346312096887
 21
1386.410586846798
 31
0.0
 11
-605.4122219643338
 21
1393.084598474827
 31
0.0
 11
-602.5184625952592
 21
1399.001162995219
 31
0.0
  0
SPLINE
  5
98
330
1F
100
AcDbEntity
  8
0
  6
Continuous
 62
     1
100
AcDbSpline
210
0.0
220
0.0
230
1.0
 70
     8
 71
     3
 72
   259
 73
   255
 74
   253
 42
0.0000000001
 43
0.0000000001
 44
0.00000001
 40
0.0
 40
0.0
 40
0.0
 40
0.0
 40
0.1349993118880415
 40
0.2724325243585602
 40
0.6503123508848667
 40
1.075738480549922
 40
1.380616286047354
 40
1.735353828519461
 40
1.983525790850514
 40
2.266719279674174
 40
2.590535539354715
 40
2.9605757459494
 40
3.382441023975369
 40
3.755342021355434
 40
4.176451456895205
 40
4.651192500931198
 40
5.184988319989542
 40
5.783262077711425
 40
6.358854715040062
 40
6.999545221106695
 40
7.711095750873021
 40
8.499268458897909
 40
9.171579580269107
 40
9.90389025265677
 40
10.70049765529446
 40
11.56569896736912
 40
12.50379136802956
 40
13.51907203639262
 40
14.280981168297
 40
15.09123176240705
 40
15.9524475376926
 40
16.86725221312013
 40
17.83826950765373
 40
18.86812314025585
 40
19.95943682988652
 40
21.11483429550436
 40
22.33693925606664
 40
23.62837543052952
 40
24.99176653784782
 40
26.07056727786595
 40
27.20032678668742
 40
28.3830286642596
 40
29.62065651053045
 40
30.91519392544684
 40
32.26862450895624
 40
33.68293186100588
 40
35.16009958154268
 40
36.70211127051348
 40
38.31095052786557
 40
39.9886009535453
 40
41.73704614749951
 40
43.55826970967514
 40
45.45425524001868
 40
47.42698633847671
 40
49.4784466049958
 40
51.61061963952281
 40
53.82548904200365
 40
56.12503841238522
 40
58.0356184166299
 40
59.98334411453951
 40
61.9630416679961
 40
63.96953723888018
 40
65.99765698907377
 40
68.04222708045786
 40
70.09807367491408
 40
72.16002293432352
 40
74.22290102056748
 40
76.28153409552736
 40
78.33074832108471
 40
80.36536985912045
 40
82.38022487151584
 40
84.37013952015256
 40
86.329939966912
 40
88.25445237367482
 40
90.13850290232325
 40
91.97691771473752
 40
93.76452297279951
 40
95.49614483839082
 40
97.16660947339211
 40
98.77074303968492
 40
100.3033716991509
 40
101.7593216136707
 40
125.1173298457967
 40
148.4755290224799
 40
151.2782364835831
 40
154.0016160946699
 40
156.6490651081905
 40
159.2239807765959
 40
161.7297603523376
 40
164.1698010878657
 40
166.547500235632
 40
168.8662550480867
 40
171.1294627776812
 40
173.340520676866
 40
175.5028259980922
 40
177.6197759938109
 40
179.6947679164728
 40
181.731199018529
 40
183.7324665524302
 40
185.7019677706271
 40
187.6430999255715
 40
189.5592602697135
 40
191.4538460555043
 40
193.3302545353946
 40
195.1918829618358
 40
206.8709881850629
 40
218.550089385001
 40
224.3922626371082
 40
230.2344349022822
 40
233.1576950755771
 40
236.0809549284006
 40
236.4464567786796
 40
236.81195867867
 40
236.9812999126293
 40
237.0973312539753
 40
237.1774663299245
 40
237.3601665544192
 40
237.5428609518052
 40
237.9624685903695
 40
238.4516433592328
 40
239.0040310032715
 40
239.6443275681966
 40
240.3467129148405
 40
241.1077877840282
 40
241.9241530623811
 40
242.1676947324557
 40
242.3753051257406
 40
242.5397212469671
 40
242.653680094184
 40
242.8926354286006
 40
243.0984482176988
 40
243.2642054139681
 40
243.3829939636441
 40
243.561463546124
 40
243.8017895089568
 40
244.098669189074
 40
244.4468000114415
 40
244.8408795088488
 40
245.8812150616977
 40
246.8542871790578
 40
247.7565223809117
 40
249.1348277181228
 40
250.567175348166
 40
252.0520801285393
 40
253.5880591687617
 40
254.934747762093
 40
256.3574094684236
 40
257.8534175625596
 40
259.4201484561104
 40
261.429929865053
 40
263.3747242968519
 40
265.2528070293077
 40
269.2636615094445
 40
273.2153757962206
 40
277.1072412226836
 40
280.9385302246138
 40
284.708496745971
 40
288.416376640719
 40
294.9644427525798
 40
301.5236616701654
 40
308.0942313947137
 40
314.676356374604
 40
321.2702477320129
 40
327.8761234854882
 40
334.4942087683071
 40
340.219018331687
 40
346.0185418739018
 40
351.89230544136
 40
357.8398826408167
 40
362.0265551645509
 40
366.1396244434783
 40
370.1780257303618
 40
374.1406697766434
 40
378.0264434474329
 40
381.8342103286221
 40
382.1581927893605
 40
382.4448295210769
 40
382.6899785091288
 40
382.8146506356653
 40
382.8983301565887
 40
382.9689352531217
 40
383.1038827637516
 40
383.3136519641813
 40
383.5055133607125
 40
384.1937650255625
 40
384.9448567403246
 40
385.6950041988635
 40
386.4030984930786
 40
387.0673602595813
 40
387.2388514484429
 40
387.4867174474871
 40
387.797299584616
 40
387.888541403271
 40
387.9797837384656
 40
388.0710258076581
 40
388.162267862351
 40
388.344751883328
 40
388.5272358962946
 40
389.2571723070681
 40
389.9871087582928
 40
391.4469906635139
 40
392.9068725599086
 40
393.0529821206996
 40
393.2822542786662
 40
393.5877111725596
 40
393.9623749411307
 40
394.3992677231313
 40
394.8914116573124
 40
395.431828882425
 40
396.0135415372205
 40
396.6295717604503
 40
397.2729416908653
 40
397.9366734672165
 40
398.6137892282563
 40
399.2973111127352
 40
399.9802612594044
 40
400.6556618070148
 40
401.3165348943178
 40
401.9559026600649
 40
402.5667872430076
 40
403.1422107818966
 40
403.6751954154833
 40
404.1587632825191
 40
404.5859365217551
 40
416.2649865311112
 40
427.9440351042472
 40
451.3021282352655
 40
474.6602165567548
 40
486.3392591172016
 40
498.0183006772272
 40
498.6522799496216
 40
499.2873243731588
 40
499.9273117127771
 40
500.5761197334158
 40
501.2376262000136
 40
501.9157088775088
 40
502.6142455308404
 40
503.3371139249476
 40
504.088191824769
 40
504.8713569952431
 40
505.6904872013089
 40
506.5494602079054
 40
507.4521537799712
 40
508.4024456824457
 40
509.4042136802673
 40
510.4613355383754
 40
511.577689021708
 40
512.7571518952046
 40
514.003601923804
 40
515.3209168724455
 40
516.7129745060671
 40
518.1836525896083
 40
519.7368288880078
 40
521.376381166205
 40
521.376381166205
 40
521.376381166205
 40
521.376381166205
 10
-440.4444653263112
 20
708.0194935032947
 30
0.0
 10
-440.4498339586998
 20
708.0641720652376
 30
0.0
 10
-440.4606680144705
 20
708.1543346982513
 30
0.0
 10
-440.4883866980193
 20
708.3693281999188
 30
0.0
 10
-440.5317116998997
 20
708.6799099673763
 30
0.0
 10
-440.5867159364343
 20
709.0451906388873
 30
0.0
 10
-440.6424040191206
 20
709.402558625105
 30
0.0
 10
-440.6898809757895
 20
709.7014070412628
 30
0.0
 10
-440.7366758439395
 20
709.9930443260563
 30
0.0
 10
-440.782111753752
 20
710.2744606249053
 30
0.0
 10
-440.8342620916059
 20
710.5959415390325
 30
0.0
 10
-440.8940221176541
 20
710.963016125892
 30
0.0
 10
-440.956573094074
 20
711.3462132864761
 30
0.0
 10
-441.0219768207598
 20
711.746193138476
 30
0.0
 10
-441.0903069549472
 20
712.1635537954999
 30
0.0
 10
-441.167375571294
 20
712.633829412929
 30
0.0
 10
-441.2540597042258
 20
713.16237176183
 30
0.0
 10
-441.3462387619644
 20
713.7240792219034
 30
0.0
 10
-441.4442297176686
 20
714.320941080507
 30
0.0
 10
-441.5483717091706
 20
714.9550574985552
 30
0.0
 10
-441.6640277781443
 20
715.6590922246979
 30
0.0
 10
-441.7814174820977
 20
716.3735236361957
 30
0.0
 10
-441.8999471929073
 20
717.0947805711938
 30
0.0
 10
-442.0189464912548
 20
717.818809612854
 30
0.0
 10
-442.1483861321981
 20
718.6062820853373
 30
0.0
 10
-442.2889631414603
 20
719.461438260175
 30
0.0
 10
-442.4413745414957
 20
720.388518409433
 30
0.0
 10
-442.5882092450312
 20
721.2816224570865
 30
0.0
 10
-442.7281365425156
 20
722.1326761149643
 30
0.0
 10
-442.8597362515612
 20
722.9330544962861
 30
0.0
 10
-442.9996086684431
 20
723.7837221608816
 30
0.0
 10
-443.1481795160822
 20
724.6872680585618
 30
0.0
 10
-443.3058745164665
 20
725.6462811392919
 30
0.0
 10
-443.4731193920388
 20
726.6633503529615
 30
0.0
 10
-443.650339865249
 20
727.7410646494594
 30
0.0
 10
-443.8379616586727
 20
728.8820129786538
 30
0.0
 10
-444.0364104948904
 20
730.0887842904121
 30
0.0
 10
-444.2461120967454
 20
731.3639675345582
 30
0.0
 10
-444.4480646728182
 20
732.5920154262383
 30
0.0
 10
-444.6412737876939
 20
733.7668850942874
 30
0.0
 10
-444.8247105584876
 20
734.8823230934673
 30
0.0
 10
-445.0167396490921
 20
736.0500015602047
 30
0.0
 10
-445.2176829527394
 20
737.2718778022154
 30
0.0
 10
-445.4278623624518
 20
738.54990912725
 30
0.0
 10
-445.6475997713295
 20
739.8860528430455
 30
0.0
 10
-445.8772170724642
 20
741.2822662573412
 30
0.0
 10
-446.1170361589634
 20
742.7405066778734
 30
0.0
 10
-446.3673789239398
 20
744.2627314123772
 30
0.0
 10
-446.6285672605131
 20
745.8508977685872
 30
0.0
 10
-446.9009230618088
 20
747.5069630542366
 30
0.0
 10
-447.1847682209559
 20
749.2328845770581
 30
0.0
 10
-447.4804246310873
 20
751.0306196447839
 30
0.0
 10
-447.7882141853416
 20
752.9021255651453
 30
0.0
 10
-448.1084587768433
 20
754.8493596458756
 30
0.0
 10
-448.4414802987872
 20
756.8742791946967
 30
0.0
 10
-448.7876006440965
 20
758.9788415193754
 30
0.0
 10
-449.1471417067759
 20
761.1650039275
 30
0.0
 10
-449.4946964267335
 20
763.2782810228491
 30
0.0
 10
-449.8278006597387
 20
765.3036905349109
 30
0.0
 10
-450.143603097957
 20
767.2238960040282
 30
0.0
 10
-450.4645943217917
 20
769.1756494691363
 30
0.0
 10
-450.7899346881682
 20
771.1538456779994
 30
0.0
 10
-451.1187845529768
 20
773.1533793785525
 30
0.0
 10
-451.4503042723696
 20
775.1691453186874
 30
0.0
 10
-451.7836542024087
 20
777.1960382463112
 30
0.0
 10
-452.117994699167
 20
779.2289529093285
 30
0.0
 10
-452.4524861187014
 20
781.2627840556464
 30
0.0
 10
-452.7862888170644
 20
783.292426433175
 30
0.0
 10
-453.1185631503016
 20
785.3127747898211
 30
0.0
 10
-453.4484694744531
 20
787.3187238734968
 30
0.0
 10
-453.7751681455563
 20
789.3051684321119
 30
0.0
 10
-454.0978195196453
 20
791.2670032135787
 30
0.0
 10
-454.4155839527513
 20
793.1991229658079
 30
0.0
 10
-454.7276218009048
 20
795.0964224367126
 30
0.0
 10
-455.0330934201356
 20
796.9537963742032
 30
0.0
 10
-455.3311591664705
 20
798.7661395261939
 30
0.0
 10
-455.6209793959534
 20
800.5283466405926
 30
0.0
 10
-455.9017144645691
 20
802.2353124653207
 30
0.0
 10
-456.1725247285284
 20
803.8819317482585
 30
0.0
 10
-456.4325705432607
 20
805.4630992374181
 30
0.0
 10
-456.6810122669613
 20
806.9737096803549
 30
0.0
 10
-458.1062250114407
 20
815.639488827403
 30
0.0
 10
-460.7120903061701
 20
831.4840179770823
 30
0.0
 10
-463.3908120125502
 20
847.7715148179491
 30
0.0
 10
-464.9533055076092
 20
857.2719798288379
 30
0.0
 10
-465.395452421266
 20
859.9603756145373
 30
0.0
 10
-465.8252769836874
 20
862.5738473366343
 30
0.0
 10
-466.243330516027
 20
865.1157472136772
 30
0.0
 10
-466.6501643381758
 20
867.5894274644234
 30
0.0
 10
-467.0463297703482
 20
869.9982403075763
 30
0.0
 10
-467.432378132676
 20
872.3455379618526
 30
0.0
 10
-467.8088607453107
 20
874.6346726459676
 30
0.0
 10
-468.1763289283986
 20
876.8689965786338
 30
0.0
 10
-468.5353340020867
 20
879.0518619785676
 30
0.0
 10
-468.8864272865214
 20
881.1866210644835
 30
0.0
 10
-469.2301601018478
 20
883.2766260550956
 30
0.0
 10
-469.5670837682109
 20
885.3252291691196
 30
0.0
 10
-469.8977496057557
 20
887.3357826252709
 30
0.0
 10
-470.2227089346217
 20
889.3116386422637
 30
0.0
 10
-470.5425130749675
 20
891.2561494388126
 30
0.0
 10
-470.857713346876
 20
893.1726672336416
 30
0.0
 10
-471.1688610707064
 20
895.0645442454312
 30
0.0
 10
-471.4765075658034
 20
896.9351326930273
 30
0.0
 10
-471.7812041552322
 20
898.7877847946654
 30
0.0
 10
-472.6151940437169
 20
903.8587086556607
 30
0.0
 10
-473.9794606720363
 20
912.1538816760462
 30
0.0
 10
-475.5590553368636
 20
921.7583140985944
 30
0.0
 10
-476.8229005018262
 20
929.4428939042068
 30
0.0
 10
-477.6130989303758
 20
934.2475493086956
 30
0.0
 10
-478.2453998649659
 20
938.0921311705661
 30
0.0
 10
-478.5814386710651
 20
940.1353562106542
 30
0.0
 10
-478.7791157395201
 20
941.3372970702806
 30
0.0
 10
-478.827820294444
 20
941.6334336543086
 30
0.0
 10
-478.8630290501478
 20
941.8475158488773
 30
0.0
 10
-478.882800979797
 20
941.9677367013446
 30
0.0
 10
-478.9032960043647
 20
942.0923514489828
 30
0.0
 10
-478.9274120547124
 20
942.2388902033053
 30
0.0
 10
-478.9699472379239
 20
942.4970773397887
 30
0.0
 10
-479.0291830931139
 20
942.8560483529145
 30
0.0
 10
-479.1086758706975
 20
943.3365742379674
 30
0.0
 10
-479.2004286872645
 20
943.8896346756037
 30
0.0
 10
-479.3041405741942
 20
944.5127526066967
 30
0.0
 10
-479.4196837568207
 20
945.2044205685562
 30
0.0
 10
-479.5453814772287
 20
945.9538948864137
 30
0.0
 10
-479.64619669439
 20
946.5524581722019
 30
0.0
 10
-479.71656617779
 20
946.9690626272757
 30
0.0
 10
-479.7507809596869
 20
947.1713793022957
 30
0.0
 10
-479.7778194548105
 20
947.331101996569
 30
0.0
 10
-479.8066235626286
 20
947.5011227643439
 30
0.0
 10
-479.8377602556166
 20
947.684743868846
 30
0.0
 10
-479.8718235825203
 20
947.8853812913169
 30
0.0
 10
-479.8992080627564
 20
948.0465238462949
 30
0.0
 10
-479.9250867003484
 20
948.1986772263526
 30
0.0
 10
-479.9551476642071
 20
948.3753324803861
 30
0.0
 10
-479.9952505439407
 20
948.6104959916756
 30
0.0
 10
-480.0450040865937
 20
948.9013839039359
 30
0.0
 10
-480.1036009767495
 20
949.2427546423833
 30
0.0
 10
-480.2045219674957
 20
949.8283032704737
 30
0.0
 10
-480.3418681623655
 20
950.6189588748654
 30
0.0
 10
-480.5099743197211
 20
951.5761912968293
 30
0.0
 10
-480.6994075505186
 20
952.6440572673293
 30
0.0
 10
-480.9181323995956
 20
953.8622072587569
 30
0.0
 10
-481.174818656908
 20
955.2708657174126
 30
0.0
 10
-481.4448357706967
 20
956.730513166301
 30
0.0
 10
-481.7136275562697
 20
958.1613442967503
 30
0.0
 10
-481.98231657762
 20
959.5710784332877
 30
0.0
 10
-482.252057110569
 20
960.9670442138578
 30
0.0
 10
-482.539640914114
 20
962.4342611691401
 30
0.0
 10
-482.8695236988085
 20
964.0926113220955
 30
0.0
 10
-483.2345066692159
 20
965.8964977694919
 30
0.0
 10
-483.6269705059367
 20
967.8006979559942
 30
0.0
 10
-484.1630286455699
 20
970.3563304625313
 30
0.0
 10
-484.8537170664503
 20
973.5630400973109
 30
0.0
 10
-485.7138519549039
 20
977.4198018085885
 30
0.0
 10
-486.5881595962894
 20
981.2119743716603
 30
0.0
 10
-487.4751607719177
 20
984.9389483926229
 30
0.0
 10
-488.3733773252453
 20
988.6001185026871
 30
0.0
 10
-489.5183027224385
 20
993.1330977352684
 30
0.0
 10
-490.9416647578856
 20
998.5545633898917
 30
0.0
 10
-492.6829076794065
 20
1004.878667293906
 30
0.0
 10
-494.5026534927289
 20
1011.192451472005
 30
0.0
 10
-496.4010058060788
 20
1017.495118463641
 30
0.0
 10
-498.3780698192675
 20
1023.785877993537
 30
0.0
 10
-500.433949693934
 20
1030.063935904826
 30
0.0
 10
-502.4713672200588
 20
1036.042730541501
 30
0.0
 10
-504.4858165324596
 20
1041.74493928824
 30
0.0
 10
-506.4744288527939
 20
1047.192810975284
 30
0.0
 10
-508.546503570509
 20
1052.688919010993
 30
0.0
 10
-510.4820190808253
 20
1057.661631996434
 30
0.0
 10
-512.2449484515694
 20
1062.071448955211
 30
0.0
 10
-513.8001224182076
 20
1065.878832419269
 30
0.0
 10
-515.3544200170791
 20
1069.605787692394
 30
0.0
 10
-516.9058117760237
 20
1073.251752537638
 30
0.0
 10
-518.4522670822288
 20
1076.816160453157
 30
0.0
 10
-519.5328786208906
 20
1079.260481485713
 30
0.0
 10
-520.1333782226875
 20
1080.60529602982
 30
0.0
 10
-520.2498273574336
 20
1080.865700773642
 30
0.0
 10
-520.3392510183146
 20
1081.06541379177
 30
0.0
 10
-520.4010727825529
 20
1081.203361227584
 30
0.0
 10
-520.4391167865989
 20
1081.288207984288
 30
0.0
 10
-520.4785663828288
 20
1081.37617817379
 30
0.0
 10
-520.5352262941202
 20
1081.502493077802
 30
0.0
 10
-520.6084524714987
 20
1081.665675801452
 30
0.0
 10
-520.7572453334948
 20
1081.997101930067
 30
0.0
 10
-520.9801306481081
 20
1082.493055400591
 30
0.0
 10
-521.2797157877135
 20
1083.158563518594
 30
0.0
 10
-521.5824542450014
 20
1083.829905451131
 30
0.0
 10
-521.8737032443229
 20
1084.474678272936
 30
0.0
 10
-522.0858296120687
 20
1084.943540520262
 30
0.0
 10
-522.2348383858321
 20
1085.272579104713
 30
0.0
 10
-522.3352539955662
 20
1085.494204859158
 30
0.0
 10
-522.4246784281237
 20
1085.69144314882
 30
0.0
 10
-522.4925686625006
 20
1085.841121549224
 30
0.0
 10
-522.530258719995
 20
1085.924215325753
 30
0.0
 10
-522.5679482829958
 20
1086.007309412966
 30
0.0
 10
-522.618200737262
 20
1086.11810149267
 30
0.0
 10
-522.6810166281975
 20
1086.256591411913
 30
0.0
 10
-522.8317745489647
 20
1086.588967401652
 30
0.0
 10
-523.0579110876523
 20
1087.087531617685
 30
0.0
 10
-523.4599343292082
 20
1087.973870135907
 30
0.0
 10
-523.962463263804
 20
1089.08179582358
 30
0.0
 10
-524.3846050339826
 20
1090.012491286786
 30
0.0
 10
-524.6373033412145
 20
1090.569615313156
 30
0.0
 10
-524.7310483547034
 20
1090.776294901055
 30
0.0
 10
-524.8562631146879
 20
1091.052355819612
 30
0.0
 10
-525.0100652720319
 20
1091.391443337434
 30
0.0
 10
-525.1895724677061
 20
1091.787202727616
 30
0.0
 10
-525.3919023462267
 20
1092.233279261645
 30
0.0
 10
-525.6141725508134
 20
1092.723318211598
 30
0.0
 10
-525.8535007250784
 20
1093.250964849369
 30
0.0
 10
-526.1070045124959
 20
1093.809864446921
 30
0.0
 10
-526.3718015565737
 20
1094.393662276196
 30
0.0
 10
-526.6450095008055
 20
1094.996003609147
 30
0.0
 10
-526.923745988687
 20
1095.610533717722
 30
0.0
 10
-527.2051286637108
 20
1096.230897873874
 30
0.0
 10
-527.4862751693721
 20
1096.850741349553
 30
0.0
 10
-527.7643031491646
 20
1097.46370941671
 30
0.0
 10
-528.0363302465813
 20
1098.063447347295
 30
0.0
 10
-528.2994741051289
 20
1098.643600413253
 30
0.0
 10
-528.5508523682773
 20
1099.197813886549
 30
0.0
 10
-528.7875826796403
 20
1099.719733039076
 30
0.0
 10
-529.0067826823722
 20
1100.203003142941
 30
0.0
 10
-529.2055700211912
 20
1100.641269469537
 30
0.0
 10
-530.9390647462355
 20
1104.463104466259
 30
0.0
 10
-534.2140713151773
 20
1111.683508759291
 30
0.0
 10
-540.646448636913
 20
1125.864964828285
 30
0.0
 10
-548.6869185724934
 20
1143.591782173397
 30
0.0
 10
-556.7273881962491
 20
1161.318597459186
 30
0.0
 10
-563.1597630214188
 20
1175.500047606803
 30
0.0
 10
-566.4632430507086
 20
1182.78322672883
 30
0.0
 10
-568.2460691652601
 20
1186.713821443234
 30
0.0
 10
-568.5089219314905
 20
1187.2933326303
 30
0.0
 10
-568.7738164427498
 20
1187.877345338957
 30
0.0
 10
-569.0423544673913
 20
1188.46939105601
 30
0.0
 10
-569.3161377710148
 20
1189.073001269515
 30
0.0
 10
-569.5967681200185
 20
1189.691707467164
 30
0.0
 10
-569.8858472806402
 20
1190.329041136725
 30
0.0
 10
-570.1849770192189
 20
1190.988533765916
 30
0.0
 10
-570.4957591021229
 20
1191.673716842445
 30
0.0
 10
-570.8197952957606
 20
1192.388121853999
 30
0.0
 10
-571.158687366571
 20
1193.135280288254
 30
0.0
 10
-571.5140370810147
 20
1193.918723632874
 30
0.0
 10
-571.8874462055686
 20
1194.741983375517
 30
0.0
 10
-572.2805165067184
 20
1195.608591003836
 30
0.0
 10
-572.6948497509541
 20
1196.522078005483
 30
0.0
 10
-573.1320477047633
 20
1197.48597586811
 30
0.0
 10
-573.5937121346378
 20
1198.503816079368
 30
0.0
 10
-574.0814448070402
 20
1199.579130126921
 30
0.0
 10
-574.5968474885171
 20
1200.715449498394
 30
0.0
 10
-575.1415219452482
 20
1201.916305681581
 30
0.0
 10
-575.7170699448642
 20
1203.185230163615
 30
0.0
 10
-576.3250932490745
 20
1204.525754434315
 30
0.0
 10
-576.9671936435567
 20
1205.94140997263
 30
0.0
 10
-577.4067974475532
 20
1206.910616533771
 30
0.0
 10
-577.6325458633845
 20
1207.40833025645
 30
0.0
 11
-440.4444653263112
 21
708.0194935032947
 31
0.0
 11
-440.4607622665782
 21
708.1535055324122
 31
0.0
 11
-440.478263727969
 21
708.2898198263771
 31
0.0
 11
-440.5301584274022
 21
708.6641193100346
 31
0.0
 11
-440.5931178479881
 21
709.0848609209567
 31
0.0
 11
-440.6399826056049
 21
709.3861152500184
 31
0.0
 11
-440.6955607839408
 21
709.7364719113394
 31
0.0
 11
-440.7348635012123
 21
709.9815119474607
 31
0.0
 11
-440.7799858542877
 21
710.2610875640031
 31
0.0
 11
-440.8318230528739
 21
710.5807277912528
 31
0.0
 11
-440.8912703066778
 21
710.9459616594959
 31
0.0
 11
-440.9592228254059
 21
711.3623181990175
 31
0.0
 11
-441.0193949570834
 21
711.7303324221346
 31
0.0
 11
-441.0874287092002
 21
712.1459098099621
 31
0.0
 11
-441.1642011227764
 21
712.6144021315705
 31
0.0
 11
-441.250589238832
 21
713.141161156029
 31
0.0
 11
-441.3474700983874
 21
713.7315386524078
 31
0.0
 11
-441.4407190312598
 21
714.2995276669716
 31
0.0
 11
-441.5445481547424
 21
714.9317490187786
 31
0.0
 11
-441.6598914320614
 21
715.6338886664187
 31
0.0
 11
-441.7876828264433
 21
716.4116325684823
 31
0.0
 11
-441.8967059628321
 21
717.0750451095541
 31
0.0
 11
-442.0154724348471
 21
717.7976608068774
 31
0.0
 11
-442.1446792675015
 21
718.5837199320916
 31
0.0
 11
-442.285023485808
 21
719.4374627568367
 31
0.0
 11
-442.4372021147799
 21
720.3631295527525
 31
0.0
 11
-442.6019121794298
 21
721.3649605914785
 31
0.0
 11
-442.7255228940362
 21
722.1167756728075
 31
0.0
 11
-442.8569805955792
 21
722.9162910872685
 31
0.0
 11
-442.9967110067607
 21
723.7660957847089
 31
0.0
 11
-443.1451398502825
 21
724.6687787149756
 31
0.0
 11
-443.3026928488465
 21
725.6269288279155
 31
0.0
 11
-443.4697957251547
 21
726.6431350733762
 31
0.0
 11
-443.6468742019085
 21
727.7199864012047
 31
0.0
 11
-443.8343540018102
 21
728.8600717612479
 31
0.0
 11
-444.0326608475613
 21
730.0659801033532
 31
0.0
 11
-444.2422204618639
 21
731.3403003773678
 31
0.0
 11
-444.4634585674197
 21
732.6856215331387
 31
0.0
 11
-444.6385175899467
 21
733.7501239405083
 31
0.0
 11
-444.8218470395705
 21
734.8649095076346
 31
0.0
 11
-445.0137688094209
 21
736.03193554225
 31
0.0
 11
-445.2146047926278
 21
737.2531593520877
 31
0.0
 11
-445.424676882321
 21
738.5305382448796
 31
0.0
 11
-445.6443069716302
 21
739.8660295283587
 31
0.0
 11
-445.8738169536853
 21
741.2615905102576
 31
0.0
 11
-446.1135287216161
 21
742.7191784983089
 31
0.0
 11
-446.3637641685526
 21
744.240750800245
 31
0.0
 11
-446.6248451876244
 21
745.828264723799
 31
0.0
 11
-446.8970936719613
 21
747.4836775767029
 31
0.0
 11
-447.1808315146931
 21
749.2089466666896
 31
0.0
 11
-447.4763806089499
 21
751.0060293014918
 31
0.0
 11
-447.7840628478612
 21
752.8768827888421
 31
0.0
 11
-448.1042001245569
 21
754.8234644364729
 31
0.0
 11
-448.4371143321669
 21
756.847731552117
 31
0.0
 11
-448.7831273638209
 21
758.9516414435072
 31
0.0
 11
-449.1425611126489
 21
761.1371514183757
 31
0.0
 11
-449.5157374717805
 21
763.4062187844553
 31
0.0
 11
-449.8257913471554
 21
765.2914727585884
 31
0.0
 11
-450.1418736538052
 21
767.213379980522
 31
0.0
 11
-450.4631447477274
 21
769.166835198174
 31
0.0
 11
-450.7887649849191
 21
771.1467331594611
 31
0.0
 11
-451.1178947213775
 21
773.1479686123012
 31
0.0
 11
-451.4496943131001
 21
775.1654363046113
 31
0.0
 11
-451.7833241160839
 21
777.194030984309
 31
0.0
 11
-452.1179444863265
 21
779.2286473993116
 31
0.0
 11
-452.4527157798248
 21
781.2641802975363
 31
0.0
 11
-452.7867983525762
 21
783.2955244269006
 31
0.0
 11
-453.1193525605781
 21
785.3175745353219
 31
0.0
 11
-453.4495387598276
 21
787.3252253707174
 31
0.0
 11
-453.7765173063219
 21
789.3133716810042
 31
0.0
 11
-454.0994485560585
 21
791.2769082141002
 31
0.0
 11
-454.4174928650346
 21
793.2107297179227
 31
0.0
 11
-454.7298105892473
 21
795.1097309403885
 31
0.0
 11
-455.0355620846941
 21
796.9688066294159
 31
0.0
 11
-455.333907707372
 21
798.7828515329211
 31
0.0
 11
-455.6240078132784
 21
800.546760398822
 31
0.0
 11
-455.9050227584107
 21
802.2554279750364
 31
0.0
 11
-456.176112898766
 21
803.9037490094809
 31
0.0
 11
-456.4364385903414
 21
805.4866182500731
 31
0.0
 11
-456.6851601891346
 21
806.9989304447307
 31
0.0
 11
-456.9214380511425
 21
808.4355803413706
 31
0.0
 11
-460.7120808670054
 21
831.4839550262504
 31
0.0
 11
-464.5027599389986
 21
854.5325172579984
 31
0.0
 11
-464.957596748584
 21
857.2980719201176
 31
0.0
 11
-465.3995598875374
 21
859.9853502997966
 31
0.0
 11
-465.8292006760065
 21
862.597704615749
 31
0.0
 11
-466.2470704341391
 21
865.1384870866893
 31
0.0
 11
-466.653720482083
 21
867.6110499313328
 31
0.0
 11
-467.049702139986
 21
870.0187453683931
 31
0.0
 11
-467.435566727996
 21
872.3649256165855
 31
0.0
 11
-467.8118655662607
 21
874.652942894624
 31
0.0
 11
-468.179149974928
 21
876.8861494212233
 31
0.0
 11
-468.5379712741455
 21
879.0678974150978
 31
0.0
 11
-468.8888807840612
 21
881.2015390949621
 31
0.0
 11
-469.2324298248229
 21
883.2904266795307
 31
0.0
 11
-469.5691697165784
 21
885.3379123875181
 31
0.0
 11
-469.8996517794752
 21
887.347348437639
 31
0.0
 11
-470.2244273336615
 21
889.3220870486075
 31
0.0
 11
-470.5440476992848
 21
891.2654804391381
 31
0.0
 11
-470.8590641964932
 21
893.180880827946
 31
0.0
 11
-471.1700281454343
 21
895.0716404337451
 31
0.0
 11
-471.4774908662559
 21
896.94111147525
 31
0.0
 11
-471.7820036791059
 21
898.7926461711751
 31
0.0
 11
-472.0841179041321
 21
900.6295967402353
 31
0.0
 11
-473.979460993165
 21
912.1538829823445
 31
0.0
 11
-475.8748037841018
 21
923.6781651961415
 31
0.0
 11
-476.8229006156222
 21
929.4428942188882
 31
0.0
 11
-477.77099785487
 21
935.2076221743861
 31
0.0
 11
-478.245399619896
 21
938.0921313191302
 31
0.0
 11
-478.7198003652374
 21
940.9766403068003
 31
0.0
 11
-478.7791158326631
 21
941.3372970381688
 31
0.0
 11
-478.8384314675117
 21
941.6979537923813
 31
0.0
 11
-478.8659128136243
 21
941.8650502589348
 31
0.0
 11
-478.8847428491034
 21
941.9795434986411
 31
0.0
 11
-478.897748493588
 21
942.0586161463071
 31
0.0
 11
-478.9274174721667
 21
942.2388912797574
 31
0.0
 11
-478.9571149370312
 21
942.419155817082
 31
0.0
 11
-479.0254332114667
 21
942.833164492981
 31
0.0
 11
-479.1052715360079
 21
943.3157800712904
 31
0.0
 11
-479.195677080409
 21
943.8607194686807
 31
0.0
 11
-479.3008021976945
 21
944.4923272589831
 31
0.0
 11
-479.4165320244622
 21
945.1851127830643
 31
0.0
 11
-479.5424168873697
 21
945.9357045214946
 31
0.0
 11
-479.6780071130742
 21
946.7407309548454
 31
0.0
 11
-479.7185695233591
 21
946.9808709888559
 31
0.0
 11
-479.7531880589336
 21
947.1855747562727
 31
0.0
 11
-479.7806307896721
 21
947.3476844643372
 31
0.0
 11
-479.7996657854495
 21
947.460042320292
 31
0.0
 11
-479.839615636072
 21
947.6956344705886
 31
0.0
 11
-479.8740643921683
 21
947.8985437788025
 31
0.0
 11
-479.9018354789848
 21
948.0619580219152
 31
0.0
 11
-479.9217523217684
 21
948.1790649769079
 31
0.0
 11
-479.9516975931916
 21
948.355004377242
 31
0.0
 11
-479.9920990043896
 21
948.5919100428238
 31
0.0
 11
-480.0421505798395
 21
948.8845401579204
 31
0.0
 11
-480.1010463440189
 21
949.2276529068004
 31
0.0
 11
-480.1679803214046
 21
949.6160064737315
 31
0.0
 11
-480.3460318205057
 21
950.6409921937244
 31
0.0
 11
-480.5143442151018
 21
951.599397266441
 31
0.0
 11
-480.671934882503
 21
952.4877629237086
 31
0.0
 11
-480.9155209979207
 21
953.8443731871815
 31
0.0
 11
-481.1722953448568
 21
955.2535171358419
 31
0.0
 11
-481.4424021462224
 21
956.7136488157364
 31
0.0
 11
-481.7259856249288
 21
958.2232222729114
 31
0.0
 11
-481.9781196445362
 21
959.5460974006409
 31
0.0
 11
-482.2480259512192
 21
960.9429212679456
 31
0.0
 11
-482.535777141247
 21
962.4109946551978
 31
0.0
 11
-482.841445810889
 21
963.9476183427693
 31
0.0
 11
-483.2400107595892
 21
965.9174831334082
 31
0.0
 11
-483.632589386526
 21
967.8222422792395
 31
0.0
 11
-484.0181370294285
 21
969.6603249120395
 31
0.0
 11
-484.8626577471771
 21
973.5812608230341
 31
0.0
 11
-485.7228332172477
 21
977.4382212797926
 31
0.0
 11
-486.5971846248349
 21
981.2305986494314
 31
0.0
 11
-487.4842331551328
 21
984.9577852990651
 31
0.0
 11
-488.3824999933362
 21
988.6191735958097
 31
0.0
 11
-489.2905063246393
 21
992.2141559067801
 31
0.0
 11
-490.9532820113775
 21
998.5475867953974
 31
0.0
 11
-492.6944520708668
 21
1004.871484298738
 31
0.0
 11
-494.514121133736
 21
1011.185056267662
 31
0.0
 11
-496.4123938306148
 21
1017.487510553032
 31
0.0
 11
-498.389374792132
 21
1023.778055005709
 31
0.0
 11
-500.4451686489168
 21
1030.055897476555
 31
0.0
 11
-502.5798800315984
 21
1036.320245816432
 31
0.0
 11
-504.4868064939653
 21
1041.718122806888
 31
0.0
 11
-506.475427179781
 21
1047.166045446266
 31
0.0
 11
-508.547504620012
 21
1052.662188960411
 31
0.0
 11
-510.704801345625
 21
1058.204728575169
 31
0.0
 11
-512.2589310720074
 21
1062.092260904882
 31
0.0
 11
-513.8142215605262
 21
1065.899938726019
 31
0.0
 11
-515.3686425472148
 21
1069.627197819515
 31
0.0
 11
-516.9201637681066
 21
1073.273473966305
 31
0.0
 11
-518.4667549592345
 21
1076.838202947325
 31
0.0
 11
-520.0063858566317
 21
1080.320820543511
 31
0.0
 11
-520.1384824392919
 21
1080.616650102067
 31
0.0
 11
-520.2554953702559
 21
1080.878315135949
 31
0.0
 11
-520.3556787644683
 21
1081.102058993668
 31
0.0
 11
-520.4066652980491
 21
1081.215828552551
 31
0.0
 11
-520.4409005363917
 21
1081.292184368817
 31
0.0
 11
-520.469791172782
 21
1081.356608050685
 31
0.0
 11
-520.5250211722413
 21
1081.479735942671
 31
0.0
 11
-520.6109021510397
 21
1081.671119262032
 31
0.0
 11
-520.68948203419
 21
1081.846150680477
 31
0.0
 11
-520.9716068804839
 21
1082.473921279719
 31
0.0
 11
-521.2799195348794
 21
1083.158816944126
 31
0.0
 11
-521.5882909523115
 21
1083.842650460754
 31
0.0
 11
-521.8797842646284
 21
1084.487963701261
 31
0.0
 11
-522.1535944863989
 21
1085.093167515601
 31
0.0
 11
-522.2243400427349
 21
1085.249386253644
 31
0.0
 11
-522.3266345321316
 21
1085.47515912828
 31
0.0
 11
-522.4548803663937
 21
1085.758027065484
 31
0.0
 11
-522.4925687128684
 21
1085.841121337317
 31
0.0
 11
-522.5302586687889
 21
1085.924215446341
 31
0.0
 11
-522.567948255984
 21
1086.007309430525
 31
0.0
 11
-522.605637655713
 21
1086.090403483818
 31
0.0
 11
-522.6810166085154
 21
1086.256591423773
 31
0.0
 11
-522.7563955561772
 21
1086.422779357263
 31
0.0
 11
-523.0579112645781
 21
1087.08753152263
 31
0.0
 11
-523.3594275175423
 21
1087.752283485414
 31
0.0
 11
-523.9624633205298
 21
1089.08179580108
 31
0.0
 11
-524.5654989615487
 21
1090.411308180519
 31
0.0
 11
-524.6258526463961
 21
1090.544369957449
 31
0.0
 11
-524.7205584400174
 21
1090.753167790468
 31
0.0
 11
-524.8467339859001
 21
1091.031346951528
 31
0.0
 11
-525.0014969275325
 21
1091.372552712583
 31
0.0
 11
-525.1819649084025
 21
1091.770430345587
 31
0.0
 11
-525.385255571998
 21
1092.218625122494
 31
0.0
 11
-525.6084865618067
 21
1092.710782315256
 31
0.0
 11
-525.848775521317
 21
1093.240547195827
 31
0.0
 11
-526.1032400940167
 21
1093.801565036161
 31
0.0
 11
-526.3689979233936
 21
1094.387481108212
 31
0.0
 11
-526.6431666529357
 21
1094.991940683932
 31
0.0
 11
-526.9228639261314
 21
1095.608589035276
 31
0.0
 11
-527.2052073864681
 21
1096.231071434197
 31
0.0
 11
-527.4873146774343
 21
1096.853033152649
 31
0.0
 11
-527.7663034425175
 21
1097.468119462584
 31
0.0
 11
-528.0392913252056
 21
1098.069975635957
 31
0.0
 11
-528.3033959689868
 21
1098.65224694472
 31
0.0
 11
-528.5557350173493
 21
1099.208578660829
 31
0.0
 11
-528.7934261137807
 21
1099.732616056236
 31
0.0
 11
-529.013586901769
 21
1100.218004402895
 31
0.0
 11
-529.2133350248024
 21
1100.658388972759
 31
0.0
 11
-529.3897881263687
 21
1101.047415037781
 31
0.0
 11
-534.2140715566543
 21
1111.683509175448
 31
0.0
 11
-539.0383547443961
 21
1122.319601846074
 31
0.0
 11
-548.6869193379332
 21
1143.591783586593
 31
0.0
 11
-558.33548227234
 21
1164.863960798512
 31
0.0
 11
-563.1597631494492
 21
1175.500047914904
 31
0.0
 11
-567.984043656585
 21
1186.136134100587
 31
0.0
 11
-568.2459225045699
 21
1186.713498099122
 31
0.0
 11
-568.5082413332046
 21
1187.291832130637
 31
0.0
 11
-568.7726019088898
 21
1187.874667682826
 31
0.0
 11
-569.0406059980268
 21
1188.46553624338
 31
0.0
 11
-569.3138553670168
 21
1189.067969299991
 31
0.0
 11
-569.5939517822608
 21
1189.68549834035
 31
0.0
 11
-569.8824970101598
 21
1190.321654852149
 31
0.0
 11
-570.1810928171154
 21
1190.97997032308
 31
0.0
 11
-570.4913409695283
 21
1191.663976240836
 31
0.0
 11
-570.8148432337998
 21
1192.377204093106
 31
0.0
 11
-571.153201376331
 21
1193.123185367585
 31
0.0
 11
-571.508017163523
 21
1193.905451551962
 31
0.0
 11
-571.8808923617769
 21
1194.727534133931
 31
0.0
 11
-572.2734287374941
 21
1195.592964601183
 31
0.0
 11
-572.6872280570755
 21
1196.505274441409
 31
0.0
 11
-573.1238920869222
 21
1197.467995142302
 31
0.0
 11
-573.5850225934354
 21
1198.484658191552
 31
0.0
 11
-574.072221343016
 21
1199.558795076853
 31
0.0
 11
-574.5870901020656
 21
1200.693937285896
 31
0.0
 11
-575.1312306369853
 21
1201.893616306373
 31
0.0
 11
-575.7062447141757
 21
1203.161363625974
 31
0.0
 11
-576.3137341000383
 21
1204.500710732393
 31
0.0
 11
-576.9553005609741
 21
1205.915189113321
 31
0.0
 11
-577.6325458633845
 21
1207.40833025645
 31
0.0
  0
SPLINE
  5
99
330
1F
100
AcDbEntity
  8
0
  6
Continuous
 62
     1
100
AcDbSpline
210
0.0
220
0.0
230
1.0
 70
     8
 71
     3
 72
    19
 73
    15
 74
    13
 42
0.0000000001
 43
0.0000000001
 44
0.00000001
 40
0.0
 40
0.0
 40
0.0
 40
0.0
 40
0.9297160794518363
 40
1.741385871800271
 40
2.42197036695108
 40
3.971784600867034
 40
5.411023253759325
 40
6.710590991535338
 40
7.828457433394858
 40
8.735194479705301
 40
9.412152384411181
 40
9.687202440953644
 40
9.858128111648133
 40
9.950626483629323
 40
9.950626483629323
 40
9.950626483629323
 40
9.950626483629323
 10
-430.5068977223276
 20
709.1402046505806
 30
0.0
 10
-430.8146328904941
 20
709.1035931768531
 30
0.0
 10
-431.3910300142452
 20
709.0350187975306
 30
0.0
 10
-432.1927373773214
 20
708.9399583135967
 30
0.0
 10
-433.1997361368578
 20
708.8208120494793
 30
0.0
 10
-434.4145369243355
 20
708.6776060962799
 30
0.0
 10
-435.8343567527882
 20
708.5111807566018
 30
0.0
 10
-437.1112914378431
 20
708.3625333022851
 30
0.0
 10
-438.2120402731602
 20
708.2354729483002
 30
0.0
 10
-439.1067726769091
 20
708.1335462275167
 30
0.0
 10
-439.7225014572399
 20
708.0645232330771
 30
0.0
 10
-440.0946598379846
 20
708.0244560635747
 30
0.0
 10
-440.2731705288264
 20
708.0056766998018
 30
0.0
 10
-440.36061440752
 20
707.9976808928584
 30
0.0
 10
-440.3913193361085
 20
707.9948732557215
 30
0.0
 11
-430.5068977223276
 21
709.1402046505806
 31
0.0
 11
-431.4301108910821
 21
709.0304347392675
 31
0.0
 11
-432.2361328539239
 21
708.9348499746471
 31
0.0
 11
-432.912003404041
 21
708.8548858919345
 31
0.0
 11
-434.4511626250317
 21
708.673466344785
 31
0.0
 11
-435.8806203764644
 21
708.5059598170078
 31
0.0
 11
-437.1714783606448
 21
708.3557533932236
 31
0.0
 11
-438.2819871486679
 21
708.2277080357944
 31
0.0
 11
-439.1829095802349
 21
708.1251856311644
 31
0.0
 11
-439.8557125957613
 21
708.0502983355636
 31
0.0
 11
-440.129184618699
 21
708.0208774879484
 31
0.0
 11
-440.2992188055501
 21
708.0034430334339
 31
0.0
 11
-440.3913193361085
 21
707.9948732557215
 31
0.0
  0
SPLINE
  5
9A
330
1F
100
AcDbEntity
  8
0
  6
Continuous
 62
     1
100
AcDbSpline
210
0.0
220
0.0
230
1.0
 70
     8
 71
     3
 72
    15
 73
    11
 74
     9
 42
0.0000000001
 43
0.0000000001
 44
0.00000001
 40
0.0
 40
0.0
 40
0.0
 40
0.0
 40
3.723891035697063
 40
7.447679024296852
 40
11.17835501944645
 40
14.90892294132015
 40
18.63938112366862
 40
22.36972814513566
 40
26.09296172725941
 40
29.81608337477959
 40
29.81608337477959
 40
29.81608337477959
 40
29.81608337477959
 10
196.54113713053
 20
878.4477460250451
 30
0.0
 10
196.0555472264296
 20
877.3052657434147
 30
0.0
 10
195.0843808554183
 20
875.0203367947405
 30
0.0
 10
193.4946592432255
 20
871.6493870168781
 30
0.0
 10
191.809027238902
 20
868.3233378621928
 30
0.0
 10
190.0191003330012
 20
865.0495185609755
 30
0.0
 10
188.1307854050866
 20
861.8315719533293
 30
0.0
 10
186.144172012871
 20
858.6764400746647
 30
0.0
 10
184.0698596055462
 20
855.5806942026493
 30
0.0
 10
182.6091705969677
 20
853.5736412118579
 30
0.0
 10
181.8788370713143
 20
852.5701298016063
 30
0.0
 11
196.54113713053
 21
878.4477460250451
 31
0.0
 11
195.0623668410639
 21
875.030056326325
 31
0.0
 11
193.4798459551777
 21
871.6592664144833
 31
0.0
 11
191.7917952553425
 21
868.3323416759941
 31
0.0
 11
190.0026752832892
 21
865.0587829480479
 31
0.0
 11
188.1141661898241
 21
861.8416644152378
 31
0.0
 11
186.1280415521575
 21
858.6840074002627
 31
0.0
 11
184.0501629574871
 21
855.5945270470536
 31
0.0
 11
181.8788370713143
 21
852.5701298016063
 31
0.0
  0
SPLINE
  5
9B
330
1F
100
AcDbEntity
  8
0
  6
Continuous
 62
     1
100
AcDbSpline
210
0.0
220
0.0
230
1.0
 70
     8
 71
     3
 72
    23
 73
    19
 74
    17
 42
0.0000000001
 43
0.0000000001
 44
0.00000001
 40
0.0
 40
0.0
 40
0.0
 40
0.0
 40
3.498394428907948
 40
6.996824884851554
 40
12.91798441423261
 40
18.26550170815322
 40
24.32346117945666
 40
29.78232422250354
 40
41.50949245299326
 40
53.23794202610335
 40
64.96774773123936
 40
76.69890093380276
 40
82.16044950849275
 40
88.22195880692071
 40
93.57305895240344
 40
99.4986269044648
 40
102.9998511207009
 40
106.501162952804
 40
106.501162952804
 40
106.501162952804
 40
106.501162952804
 10
107.4416385797768
 20
926.3990435201255
 30
0.0
 10
108.6064860724694
 20
926.4565805937855
 30
0.0
 10
110.9361930536437
 20
926.5716553336315
 30
0.0
 10
115.2434394796422
 20
926.5862799230945
 30
0.0
 10
120.164343962217
 20
926.3746953904141
 30
0.0
 10
125.9124795894498
 20
925.783802244654
 30
0.0
 10
131.4647154708965
 20
924.879088858585
 30
0.0
 10
139.0266666580716
 20
923.1766606591502
 30
0.0
 10
148.2281160320452
 20
920.2213478740803
 30
0.0
 10
158.9011456772453
 20
915.290429260822
 30
0.0
 10
168.8966578840636
 20
909.0978287563487
 30
0.0
 10
176.4339893662009
 20
903.0447058856705
 30
0.0
 10
182.0233716255931
 20
897.6694941798463
 30
0.0
 10
185.8398223086873
 20
893.5321894341432
 30
0.0
 10
189.5028805316782
 20
889.0581949112403
 30
0.0
 10
192.3935744392131
 20
885.0657874004439
 30
0.0
 10
194.7573166087348
 20
881.4610196484155
 30
0.0
 10
195.9465253301307
 20
879.4521789443864
 30
0.0
 10
196.54113713053
 20
878.4477460250451
 30
0.0
 11
107.4416385797768
 21
926.3990435201255
 31
0.0
 11
110.9369925248939
 21
926.5448666272395
 31
0.0
 11
114.43537362677
 21
926.563449444841
 31
0.0
 11
120.3508878319754
 21
926.3049501984325
 31
0.0
 11
125.6704661679088
 21
925.7590312148392
 31
0.0
 11
131.6495278687361
 21
924.7845086991141
 31
0.0
 11
136.9750933740948
 21
923.585535066845
 31
0.0
 11
148.1403860117521
 21
919.9990723217877
 31
0.0
 11
158.7876328643562
 21
915.0804684702158
 31
0.0
 11
168.7587831565984
 21
908.9027258622918
 31
0.0
 11
177.9058285746324
 21
901.5575563215367
 31
0.0
 11
181.8424363432019
 21
897.7718421075294
 31
0.0
 11
185.9525269678944
 21
893.3166148370366
 31
0.0
 11
189.341742563221
 21
889.1756619979692
 31
0.0
 11
192.8202269003242
 21
884.3785271998814
 31
0.0
 11
194.7345217996433
 21
881.4469668558328
 31
0.0
 11
196.54113713053
 21
878.4477460250451
 31
0.0
  0
SPLINE
  5
9C
330
1F
100
AcDbEntity
  8
0
  6
Continuous
 62
     1
100
AcDbSpline
210
0.0
220
0.0
230
1.0
 70
     8
 71
     3
 72
    90
 73
    86
 74
    84
 42
0.0000000001
 43
0.0000000001
 44
0.00000001
 40
0.0
 40
0.0
 40
0.0
 40
0.0
 40
0.155980998233392
 40
0.3119708622467803
 40
0.4476598718055962
 40
0.583378602332265
 40
0.6903349243290836
 40
0.7973620700807686
 40
0.8957065770384666
 40
0.9943133021182579
 40
1.109855477586952
 40
1.206246217509774
 40
1.290221647774252
 40
1.363276029802602
 40
1.400730018158256
 40
1.435811470835513
 40
1.47324553313806
 40
1.510623714335922
 40
1.592541310229443
 40
1.714646634432066
 40
1.819540850902399
 40
1.961610331895752
 40
2.148322846693863
 40
2.387146396604358
 40
2.743410380303942
 40
3.154880058917116
 40
3.61892216912744
 40
4.132902474615579
 40
4.694186174406973
 40
5.443725600652224
 40
6.257126546957799
 40
7.130088006327903
 40
8.05830876952411
 40
9.03748749378231
 40
9.882929415504739
 40
10.6803508353314
 40
11.41651205247488
 40
12.07817324841231
 40
12.88620346320711
 40
13.64628070632668
 40
14.35172574223671
 40
14.99585927981346
 40
15.57200198052632
 40
17.27039205064156
 40
18.93774283219754
 40
20.55585173093311
 40
22.10651627986623
 40
22.88612318870638
 40
23.57662202000469
 40
24.17911940317967
 40
24.69472186201328
 40
25.25148685028419
 40
25.84239302235814
 40
26.4498176829455
 40
27.01863816514961
 40
27.53707322469076
 40
28.00297329086781
 40
28.40354939892052
 40
28.75685746544607
 40
28.99568101533933
 40
29.18239353013739
 40
29.32446301113939
 40
29.42935722761841
 40
29.55146255184412
 40
29.63338014771458
 40
29.67075832874122
 40
29.70819239121475
 40
29.74327384416316
 40
29.78072783224787
 40
29.8537822144133
 40
29.93775764454024
 40
30.05216221558192
 40
30.14969125626935
 40
30.24829798126443
 40
30.34664248830641
 40
30.44365236293492
 40
30.5606232849545
 40
30.62388571027453
 40
30.69498321158453
 40
30.76767704504402
 40
30.83218666255869
 40
30.90492883089081
 40
30.98827926155317
 40
31.06102825800651
 40
31.14439391502625
 40
31.14439391502625
 40
31.14439391502625
 40
31.14439391502625
 10
-381.1962932460644
 20
473.3208863291618
 30
0.0
 10
-381.1986139309784
 20
473.2688398467427
 30
0.0
 10
-381.2032554327118
 20
473.1647439236426
 30
0.0
 10
-381.2392832684079
 20
473.0189702062899
 30
0.0
 10
-381.2918888876219
 20
472.8862442195047
 30
0.0
 10
-381.3542942961737
 20
472.7761343645454
 30
0.0
 10
-381.4236757342397
 20
472.682214663134
 30
0.0
 10
-381.4942639125107
 20
472.6054093811536
 30
0.0
 10
-381.570223322072
 20
472.5381064059764
 30
0.0
 10
-381.6547165650574
 20
472.4769100252872
 30
0.0
 10
-381.7447484196058
 20
472.4253441750163
 30
0.0
 10
-381.8351493759261
 20
472.3855247400994
 30
0.0
 10
-381.9152634863341
 20
472.3584402026932
 30
0.0
 10
-381.9781343267238
 20
472.3424051424063
 30
0.0
 10
-382.0257234498841
 20
472.3328551943416
 30
0.0
 10
-382.0618840289071
 20
472.3268102657681
 30
0.0
 10
-382.0981845448391
 20
472.3218602213373
 30
0.0
 10
-382.1501256994638
 20
472.3162013020797
 30
0.0
 10
-382.2303836057901
 20
472.3101712504461
 30
0.0
 10
-382.3332360541771
 20
472.3051071573404
 30
0.0
 10
-382.4561689395575
 20
472.3003794133004
 30
0.0
 10
-382.6006584447792
 20
472.2958690853603
 30
0.0
 10
-382.7897977118029
 20
472.2909800763002
 30
0.0
 10
-383.0503374965302
 20
472.2853478505487
 30
0.0
 10
-383.3858031236073
 20
472.2793221914477
 30
0.0
 10
-383.796348622687
 20
472.2731220255188
 30
0.0
 10
-384.2594742353255
 20
472.2671342662877
 30
0.0
 10
-384.7725441947178
 20
472.2613790140766
 30
0.0
 10
-385.3807828398465
 20
472.2554060883927
 30
0.0
 10
-386.0888321111158
 20
472.2493814940882
 30
0.0
 10
-386.9007777867348
 20
472.2434372349882
 30
0.0
 10
-387.7722883316259
 20
472.237944272999
 30
0.0
 10
-388.6990618622067
 20
472.2329308008364
 30
0.0
 10
-389.61666601138
 20
472.2287018191291
 30
0.0
 10
-390.4906732897255
 20
472.225256279878
 30
0.0
 10
-391.2836769350819
 20
472.222562494493
 30
0.0
 10
-392.0154217730272
 20
472.2204222214731
 30
0.0
 10
-392.7507036680852
 20
472.2185708951835
 30
0.0
 10
-393.4939582602416
 20
472.2170042602185
 30
0.0
 10
-394.2518080329555
 20
472.215725612909
 30
0.0
 10
-394.9550260551025
 20
472.2148079787896
 30
0.0
 10
-395.5969328639612
 20
472.214192493729
 30
0.0
 10
-396.5698214377392
 20
472.2135619120632
 30
0.0
 10
-397.8837828011046
 20
472.2134662035143
 30
0.0
 10
-399.5450657363652
 20
472.2147900127495
 30
0.0
 10
-401.1571050329397
 20
472.2175371447094
 30
0.0
 10
-402.4732273459751
 20
472.2210672661736
 30
0.0
 10
-403.4801445532639
 20
472.2246228454652
 30
0.0
 10
-404.1710064073596
 20
472.2274769930656
 30
0.0
 10
-404.7738659435142
 20
472.2303241265609
 30
0.0
 10
-405.3321464109021
 20
472.2332823884592
 30
0.0
 10
-405.8865612823496
 20
472.2365639974352
 30
0.0
 10
-406.4715802183938
 20
472.2404753059332
 30
0.0
 10
-407.0606135606626
 20
472.2449781127405
 30
0.0
 10
-407.6254851323612
 20
472.2499620700531
 30
0.0
 10
-408.143176727937
 20
472.2552635636525
 30
0.0
 10
-408.6047810027729
 20
472.2607918395325
 30
0.0
 10
-409.0113353983098
 20
472.2665461801508
 30
0.0
 10
-409.3421909589836
 20
472.2721624180685
 30
0.0
 10
-409.6017511708854
 20
472.2775126256489
 30
0.0
 10
-409.7908952539572
 20
472.2822116214342
 30
0.0
 10
-409.9353892173412
 20
472.2865767958157
 30
0.0
 10
-410.0583267899348
 20
472.2911810406046
 30
0.0
 10
-410.1611842744405
 20
472.2961418075578
 30
0.0
 10
-410.2414481963245
 20
472.3020912291759
 30
0.0
 10
-410.2933950122685
 20
472.3076979679638
 30
0.0
 10
-410.3297004749833
 20
472.312611537936
 30
0.0
 10
-410.3658671363817
 20
472.3186201551109
 30
0.0
 10
-410.4134656842281
 20
472.3281221973044
 30
0.0
 10
-410.4763537525975
 20
472.3440948339934
 30
0.0
 10
-410.5621856076277
 20
472.3730144661843
 30
0.0
 10
-410.6523432601457
 20
472.4135810854415
 30
0.0
 10
-410.7418864469391
 20
472.4658225718578
 30
0.0
 10
-410.821573938901
 20
472.5234132077745
 30
0.0
 10
-410.8950979382849
 20
472.5884289731887
 30
0.0
 10
-410.9661087140692
 20
472.6647680280911
 30
0.0
 10
-411.0216130099806
 20
472.7389528607107
 30
0.0
 10
-411.0655893638801
 20
472.8103127647259
 30
0.0
 10
-411.0978062701409
 20
472.8714185885916
 30
0.0
 10
-411.1257221878075
 20
472.9350614273758
 30
0.0
 10
-411.1493864983345
 20
473.000968818572
 30
0.0
 10
-411.1694813300022
 20
473.0717771291149
 30
0.0
 10
-411.1844219511305
 20
473.1466549705404
 30
0.0
 10
-411.194344471925
 20
473.225966650661
 30
0.0
 10
-411.1956123898901
 20
473.2780205938949
 30
0.0
 10
-411.1962894615925
 20
473.3058175436468
 30
0.0
 11
-381.1962932460644
 21
473.3208863291618
 31
0.0
 11
-381.2083715177987
 21
473.1653736699928
 31
0.0
 11
-381.2444711904245
 21
473.0136184351203
 31
0.0
 11
-381.2947242964616
 21
472.8875782326106
 31
0.0
 11
-381.3615784133815
 21
472.7694676874987
 31
0.0
 11
-381.4251374635517
 21
472.6834450046962
 31
0.0
 11
-381.4975580469858
 21
472.6046410135357
 31
0.0
 11
-381.5711644786406
 21
472.5394203475793
 31
0.0
 11
-381.6510245335754
 21
472.4815786856325
 31
0.0
 11
-381.7512823881398
 21
472.4241473622088
 31
0.0
 11
-381.8394897633045
 21
472.3852804905903
 31
0.0
 11
-381.9190365774119
 21
472.3583699489111
 31
0.0
 11
-381.9898167809517
 21
472.3402838901803
 31
0.0
 11
-382.0265367235585
 21
472.3329050651587
 31
0.0
 11
-382.0611358962251
 21
472.3271080337863
 31
0.0
 11
-382.0982232657384
 21
472.3220251170002
 31
0.0
 11
-382.135377515943
 21
472.3179397624997
 31
0.0
 11
-382.2170382356736
 21
472.3114575275409
 31
0.0
 11
-382.3389758691401
 21
472.3050603607298
 31
0.0
 11
-382.4437900291781
 21
472.3009629829769
 31
0.0
 11
-382.585787592052
 21
472.2964430750577
 31
0.0
 11
-382.7724358332543
 21
472.2915443774429
 31
0.0
 11
-383.0112020282775
 21
472.2863106306035
 31
0.0
 11
-383.367406703433
 21
472.2798102091652
 31
0.0
 11
-383.7788284018058
 21
472.2735266969257
 31
0.0
 11
-384.2428310502859
 21
472.2674750647585
 31
0.0
 11
-384.7567785757636
 21
472.2616702835373
 31
0.0
 11
-385.3180349051289
 21
472.2561273241356
 31
0.0
 11
-386.0675468157183
 21
472.2497049117666
 31
0.0
 11
-386.8809257121335
 21
472.2437157284171
 31
0.0
 11
-387.7538696595287
 21
472.2381863295624
 31
0.0
 11
-388.682076723058
 21
472.2331432706775
 31
0.0
 11
-389.6612449678756
 21
472.2286131072377
 31
0.0
 11
-390.5066802887185
 21
472.2252722575016
 31
0.0
 11
-391.3040970904103
 21
472.2225583713536
 31
0.0
 11
-392.04025514987
 21
472.2204021898617
 31
0.0
 11
-392.7019142440165
 21
472.2187344540935
 31
0.0
 11
-393.5099426588968
 21
472.2170289431928
 31
0.0
 11
-394.270018817786
 21
472.2157451221473
 31
0.0
 11
-394.975463252127
 21
472.2148238473208
 31
0.0
 11
-395.6195964933629
 21
472.2142059750763
 31
0.0
 11
-396.1957390729366
 21
472.2138323617776
 31
0.0
 11
-397.8941291389206
 21
472.2137139015981
 31
0.0
 11
-399.5614793779164
 21
472.215058994862
 31
0.0
 11
-401.1795858784985
 21
472.217844841456
 31
0.0
 11
-402.7302447292407
 21
472.2220486412664
 31
0.0
 11
-403.5098467461844
 21
472.2248104321102
 31
0.0
 11
-404.20033965267
 21
472.2276708721836
 31
0.0
 11
-404.802830283772
 21
472.2305232688985
 31
0.0
 11
-405.3184254745649
 21
472.2332609296675
 31
0.0
 11
-405.8751806549521
 21
472.2365656650982
 31
0.0
 11
-406.4660735179999
 21
472.2405315942822
 31
0.0
 11
-407.0734802408057
 21
472.2451997181056
 31
0.0
 11
-407.6422782956017
 21
472.2502508402791
 31
0.0
 11
-408.160685749862
 21
472.2556008242742
 31
0.0
 11
-408.6265517547279
 21
472.2612343998753
 31
0.0
 11
-409.0270868093141
 21
472.2669692399186
 31
0.0
 11
-409.380342275353
 21
472.2730655983128
 31
0.0
 11
-409.619113607625
 21
472.2780594814358
 31
0.0
 11
-409.8057666758062
 21
472.2827706724481
 31
0.0
 11
-409.9477687076716
 21
472.2871479293835
 31
0.0
 11
-410.0525869309961
 21
472.291140010276
 31
0.0
 11
-410.1745309294579
 21
472.2974146770731
 31
0.0
 11
-410.2561981199195
 21
472.3038148735784
 31
0.0
 11
-410.2933564552944
 21
472.3078629013731
 31
0.0
 11
-410.3304489124882
 21
472.3129085581785
 31
0.0
 11
-410.3650538915771
 21
472.3186708288445
 31
0.0
 11
-410.4017812280497
 21
472.3260127617697
 31
0.0
 11
-410.4725795649994
 21
472.3440277066414
 31
0.0
 11
-410.5521533727776
 21
472.3708583231211
 31
0.0
 11
-410.6564761676578
 21
472.4178174579472
 31
0.0
 11
-410.7407152471857
 21
472.4669671401202
 31
0.0
 11
-410.8206333686563
 21
472.5247285465682
 31
0.0
 11
-410.8943052829758
 21
472.5898752357077
 31
0.0
 11
-410.9603757993111
 21
472.6609076413169
 31
0.0
 11
-411.030450430464
 21
472.7545652233212
 31
0.0
 11
-411.0636412491207
 21
472.8084215508442
 31
0.0
 11
-411.0967992751522
 21
472.8713135217326
 31
0.0
 11
-411.1259986110393
 21
472.9378852289872
 31
0.0
 11
-411.1478028646488
 21
472.9985982035183
 31
0.0
 11
-411.1676403209444
 21
473.0685831903468
 31
0.0
 11
-411.1840525574966
 21
473.1503018099078
 31
0.0
 11
-411.192775169396
 21
473.2225259923304
 31
0.0
 11
-411.1962894615925
 21
473.3058175436468
 31
0.0
  0
ENDSEC
  0
SECTION
  2
OBJECTS
  0
DICTIONARY
  5
C
330
0
100
AcDbDictionary
281
     1
  3
ACAD_GROUP
350
D
  3
ACAD_LAYOUT
350
1A
  3
ACAD_MATERIAL
350
3B
  3
ACAD_MLEADERSTYLE
350
9F
  3
ACAD_MLINESTYLE
350
17
  3
ACAD_PLOTSETTINGS
350
19
  3
ACAD_PLOTSTYLENAME
350
E
  3
ACAD_VISUALSTYLE
350
2A
  3
AcDbVariableDictionary
350
9D
  0
DICTIONARY
  5
D
102
{ACAD_REACTORS
330
C
102
}
330
C
100
AcDbDictionary
281
     1
  0
DICTIONARY
  5
1A
102
{ACAD_REACTORS
330
C
102
}
330
C
100
AcDbDictionary
281
     1
  3
Layout1
350
1E
  3
Layout2
350
26
  3
Model
350
22
  0
DICTIONARY
  5
3B
102
{ACAD_REACTORS
330
C
102
}
330
C
100
AcDbDictionary
281
     1
  3
ByBlock
350
3D
  3
ByLayer
350
3C
  3
Global
350
3E
  0
DICTIONARY
  5
9F
102
{ACAD_REACTORS
330
C
102
}
330
C
100
AcDbDictionary
281
     1
  0
DICTIONARY
  5
17
102
{ACAD_REACTORS
330
C
102
}
330
C
100
AcDbDictionary
281
     1
  3
Standard
350
18
  0
DICTIONARY
  5
19
102
{ACAD_REACTORS
330
C
102
}
330
C
100
AcDbDictionary
281
     1
  0
ACDBDICTIONARYWDFLT
  5
E
102
{ACAD_REACTORS
330
C
102
}
330
C
100
AcDbDictionary
281
     1
  3
Normal
350
F
100
AcDbDictionaryWithDefault
340
F
  0
DICTIONARY
  5
2A
102
{ACAD_REACTORS
330
C
102
}
330
C
100
AcDbDictionary
281
     1
  3
2dWireframe
350
2F
  3
3D Hidden
350
31
  3
3dWireframe
350
30
  3
Basic
350
32
  3
Brighten
350
36
  3
ColorChange
350
3A
  3
Conceptual
350
34
  3
Dim
350
35
  3
Facepattern
350
39
  3
Flat
350
2B
  3
FlatWithEdges
350
2C
  3
Gouraud
350
2D
  3
GouraudWithEdges
350
2E
  3
Linepattern
350
38
  3
Realistic
350
33
  3
Thicken
350
37
  0
DICTIONARY
  5
9D
102
{ACAD_REACTORS
330
C
102
}
330
C
100
AcDbDictionary
281
     1
  3
DIMASSOC
350
A0
  3
HIDETEXT
350
A1
  0
LAYOUT
  5
1E
102
{ACAD_REACTORS
330
1A
102
}
330
1A
100
AcDbPlotSettings
  1

  2
none_device
  4

  6

 40
0.0
 41
0.0
 42
0.0
 43
0.0
 44
0.0
 45
0.0
 46
0.0
 47
0.0
 48
0.0
 49
0.0
140
0.0
141
0.0
142
1.0
143
1.0
 70
   688
 72
     0
 73
     0
 74
     5
  7

 75
    16
147
1.0
148
0.0
149
0.0
100
AcDbLayout
  1
Layout1
 70
     1
 71
     1
 10
0.0
 20
0.0
 11
12.0
 21
9.0
 12
0.0
 22
0.0
 32
0.0
 14
1.00000000000000E+20
 24
1.00000000000000E+20
 34
1.00000000000000E+20
 15
-1.00000000000000E+20
 25
-1.00000000000000E+20
 35
-1.00000000000000E+20
146
0.0
 13
0.0
 23
0.0
 33
0.0
 16
1.0
 26
0.0
 36
0.0
 17
0.0
 27
1.0
 37
0.0
 76
     0
330
1B
  0
LAYOUT
  5
26
102
{ACAD_REACTORS
330
1A
102
}
330
1A
100
AcDbPlotSettings
  1

  2
none_device
  4

  6

 40
0.0
 41
0.0
 42
0.0
 43
0.0
 44
0.0
 45
0.0
 46
0.0
 47
0.0
 48
0.0
 49
0.0
140
0.0
141
0.0
142
1.0
143
1.0
 70
   688
 72
     0
 73
     0
 74
     5
  7

 75
    16
147
1.0
148
0.0
149
0.0
100
AcDbLayout
  1
Layout2
 70
     1
 71
     2
 10
0.0
 20
0.0
 11
0.0
 21
0.0
 12
0.0
 22
0.0
 32
0.0
 14
0.0
 24
0.0
 34
0.0
 15
0.0
 25
0.0
 35
0.0
146
0.0
 13
0.0
 23
0.0
 33
0.0
 16
1.0
 26
0.0
 36
0.0
 17
0.0
 27
1.0
 37
0.0
 76
     0
330
23
  0
LAYOUT
  5
22
102
{ACAD_REACTORS
330
1A
102
}
330
1A
100
AcDbPlotSettings
  1

  2
none_device
  4

  6

 40
0.0
 41
0.0
 42
0.0
 43
0.0
 44
0.0
 45
0.0
 46
0.0
 47
0.0
 48
0.0
 49
0.0
140
0.0
141
0.0
142
1.0
143
1.0
 70
  1712
 72
     0
 73
     0
 74
     0
  7

 75
     0
147
1.0
148
0.0
149
0.0
100
AcDbLayout
  1
Model
 70
     1
 71
     0
 10
0.0
 20
0.0
 11
12.0
 21
9.0
 12
0.0
 22
0.0
 32
0.0
 14
-626.4893193949891
 24
472.0637298119492
 34
0.0
 15
905.565681537159
 25
1563.032888000836
 35
0.0
146
0.0
 13
0.0
 23
0.0
 33
0.0
 16
1.0
 26
0.0
 36
0.0
 17
0.0
 27
1.0
 37
0.0
 76
     0
330
1F
331
29
  0
MATERIAL
  5
3D
102
{ACAD_REACTORS
330
3B
102
}
102
{ACAD_XDICTIONARY
360
C4
102
}
330
3B
100
AcDbMaterial
  1
ByBlock
  0
MATERIAL
  5
3C
102
{ACAD_REACTORS
330
3B
102
}
102
{ACAD_XDICTIONARY
360
C2
102
}
330
3B
100
AcDbMaterial
  1
ByLayer
  0
MATERIAL
  5
3E
102
{ACAD_REACTORS
330
3B
102
}
102
{ACAD_XDICTIONARY
360
C6
102
}
330
3B
100
AcDbMaterial
  1
Global
  0
MLINESTYLE
  5
18
102
{ACAD_REACTORS
330
17
102
}
330
17
100
AcDbMlineStyle
  2
Standard
 70
     0
  3

 62
   256
 51
90.0
 52
90.0
 71
     2
 49
0.5
 62
   256
  6
BYLAYER
 49
-0.5
 62
   256
  6
BYLAYER
  0
ACDBPLACEHOLDER
  5
F
102
{ACAD_REACTORS
330
E
102
}
330
E
  0
VISUALSTYLE
  5
2F
102
{ACAD_REACTORS
330
2A
102
}
102
{ACAD_XDICTIONARY
360
AA
102
}
330
2A
100
AcDbVisualStyle
  2
2dWireframe
 70
     4
 71
     0
 72
     2
 73
     0
 90
        0
 40
-0.6
 41
-30.0
 62
     5
 63
     7
 74
     1
 91
        4
 64
     7
 65
   257
 75
     1
175
     1
 42
1.0
 92
        0
 66
   257
 43
1.0
 76
     1
 77
     6
 78
     2
 67
     7
 79
     5
170
     0
171
     0
290
     0
174
     0
 93
        1
 44
0.0
173
     0
291
     0
 45
0.0
1001
ACAD
1000
AcDbSavedByObjectVersion
1070
     0
  0
VISUALSTYLE
  5
31
102
{ACAD_REACTORS
330
2A
102
}
102
{ACAD_XDICTIONARY
360
AE
102
}
330
2A
100
AcDbVisualStyle
  2
3D Hidden
 70
     6
 71
     1
 72
     2
 73
     2
 90
        0
 40
-0.6
 41
-30.0
 62
     5
 63
     7
 74
     2
 91
        2
 64
     7
 65
   257
 75
     2
175
     1
 42
40.0
 92
        0
 66
   257
 43
1.0
 76
     1
 77
     6
 78
     2
 67
     7
 79
     3
170
     0
171
     0
290
     0
174
     0
 93
        1
 44
0.0
173
     0
291
     0
 45
0.0
1001
ACAD
1000
AcDbSavedByObjectVersion
1070
     0
  0
VISUALSTYLE
  5
30
102
{ACAD_REACTORS
330
2A
102
}
102
{ACAD_XDICTIONARY
360
AC
102
}
330
2A
100
AcDbVisualStyle
  2
3dWireframe
 70
     5
 71
     0
 72
     2
 73
     0
 90
        0
 40
-0.6
 41
-30.0
 62
     5
 63
     7
 74
     1
 91
        4
 64
     7
 65
   257
 75
     1
175
     1
 42
1.0
 92
        0
 66
   257
 43
1.0
 76
     1
 77
     6
 78
     2
 67
     7
 79
     5
170
     0
171
     0
290
     0
174
     0
 93
        1
 44
0.0
173
     0
291
     0
 45
0.0
1001
ACAD
1000
AcDbSavedByObjectVersion
1070
     0
  0
VISUALSTYLE
  5
32
102
{ACAD_REACTORS
330
2A
102
}
102
{ACAD_XDICTIONARY
360
B0
102
}
330
2A
100
AcDbVisualStyle
  2
Basic
 70
     7
 71
     1
 72
     0
 73
     1
 90
        0
 40
-0.6
 41
-30.0
 62
     5
 63
     7
 74
     0
 91
        4
 64
     7
 65
   257
 75
     1
175
     1
 42
1.0
 92
        8
 66
     7
 43
1.0
 76
     1
 77
     6
 78
     2
 67
     7
 79
     5
170
     0
171
     0
290
     0
174
     0
 93
        1
 44
0.0
173
     0
291
     1
 45
0.0
1001
ACAD
1000
AcDbSavedByObjectVersion
1070
     0
  0
VISUALSTYLE
  5
36
102
{ACAD_REACTORS
330
2A
102
}
102
{ACAD_XDICTIONARY
360
B8
102
}
330
2A
100
AcDbVisualStyle
  2
Brighten
 70
    12
 71
     2
 72
     2
 73
     0
 90
        0
 40
-0.6
 41
-30.0
 62
     5
 63
     7
 74
     1
 91
        4
 64
     7
 65
   257
 75
     1
175
     1
 42
1.0
 92
        8
 66
     7
 43
1.0
 76
     1
 77
     6
 78
     2
 67
     7
 79
     5
170
     0
171
     0
290
     0
174
     0
 93
        1
 44
50.0
173
     0
291
     1
 45
0.0
1001
ACAD
1000
AcDbSavedByObjectVersion
1070
     0
  0
VISUALSTYLE
  5
3A
102
{ACAD_REACTORS
330
2A
102
}
102
{ACAD_XDICTIONARY
360
C0
102
}
330
2A
100
AcDbVisualStyle
  2
ColorChange
 70
    16
 71
     2
 72
     2
 73
     3
 90
        0
 40
-0.6
 41
-30.0
 62
     5
 63
     8
 74
     1
 91
        4
 64
     7
 65
   257
 75
     1
175
     1
 42
1.0
 92
        8
 66
     8
 43
1.0
 76
     1
 77
     6
 78
     2
 67
     7
 79
     5
170
     0
171
     0
290
     0
174
     0
 93
        1
 44
0.0
173
     0
291
     1
 45
0.0
1001
ACAD
1000
AcDbSavedByObjectVersion
1070
     0
  0
VISUALSTYLE
  5
34
102
{ACAD_REACTORS
330
2A
102
}
102
{ACAD_XDICTIONARY
360
B4
102
}
330
2A
100
AcDbVisualStyle
  2
Conceptual
 70
     9
 71
     3
 72
     2
 73
     0
 90
        0
 40
-0.6
 41
-30.0
 62
     5
 63
     7
 74
     2
 91
        2
 64
     7
 65
   257
 75
     1
175
     1
 42
40.0
 92
        8
 66
     7
 43
1.0
 76
     1
 77
     6
 78
     2
 67
     7
 79
     3
170
     0
171
     0
290
     0
174
     0
 93
        1
 44
0.0
173
     0
291
     0
 45
0.0
1001
ACAD
1000
AcDbSavedByObjectVersion
1070
     0
  0
VISUALSTYLE
  5
35
102
{ACAD_REACTORS
330
2A
102
}
102
{ACAD_XDICTIONARY
360
B6
102
}
330
2A
100
AcDbVisualStyle
  2
Dim
 70
    11
 71
     2
 72
     2
 73
     0
 90
        0
 40
-0.6
 41
-30.0
 62
     5
 63
     7
 74
     1
 91
        4
 64
     7
 65
   257
 75
     1
175
     1
 42
1.0
 92
        8
 66
     7
 43
1.0
 76
     1
 77
     6
 78
     2
 67
     7
 79
     5
170
     0
171
     0
290
     0
174
     0
 93
        1
 44
-50.0
173
     0
291
     1
 45
0.0
1001
ACAD
1000
AcDbSavedByObjectVersion
1070
     0
  0
VISUALSTYLE
  5
39
102
{ACAD_REACTORS
330
2A
102
}
102
{ACAD_XDICTIONARY
360
BE
102
}
330
2A
100
AcDbVisualStyle
  2
Facepattern
 70
    15
 71
     2
 72
     2
 73
     0
 90
        0
 40
-0.6
 41
-30.0
 62
     5
 63
     7
 74
     1
 91
        4
 64
     7
 65
   257
 75
     1
175
     1
 42
1.0
 92
        8
 66
     7
 43
1.0
 76
     1
 77
     6
 78
     2
 67
     7
 79
     5
170
     0
171
     0
290
     0
174
     0
 93
        1
 44
0.0
173
     0
291
     1
 45
0.0
1001
ACAD
1000
AcDbSavedByObjectVersion
1070
     0
  0
VISUALSTYLE
  5
2B
102
{ACAD_REACTORS
330
2A
102
}
102
{ACAD_XDICTIONARY
360
A2
102
}
330
2A
100
AcDbVisualStyle
  2
Flat
 70
     0
 71
     2
 72
     1
 73
     1
 90
        2
 40
-0.6
 41
30.0
 62
     5
 63
     7
 74
     0
 91
        4
 64
     7
 65
   257
 75
     1
175
     1
 42
1.0
 92
        8
 66
     7
 43
1.0
 76
     1
 77
     6
 78
     2
 67
     7
 79
     5
170
     0
171
     0
290
     0
174
     0
 93
       13
 44
0.0
173
     0
291
     1
 45
0.0
1001
ACAD
1000
AcDbSavedByObjectVersion
1070
     0
  0
VISUALSTYLE
  5
2C
102
{ACAD_REACTORS
330
2A
102
}
102
{ACAD_XDICTIONARY
360
A4
102
}
330
2A
100
AcDbVisualStyle
  2
FlatWithEdges
 70
     1
 71
     2
 72
     1
 73
     1
 90
        2
 40
-0.6
 41
30.0
 62
     5
 63
     7
 74
     1
 91
        4
 64
     7
 65
   257
 75
     1
175
     1
 42
1.0
 92
        0
 66
   257
 43
1.0
 76
     1
 77
     6
 78
     2
 67
     7
 79
     5
170
     0
171
     0
290
     0
174
     0
 93
       13
 44
0.0
173
     0
291
     1
 45
0.0
1001
ACAD
1000
AcDbSavedByObjectVersion
1070
     0
  0
VISUALSTYLE
  5
2D
102
{ACAD_REACTORS
330
2A
102
}
102
{ACAD_XDICTIONARY
360
A6
102
}
330
2A
100
AcDbVisualStyle
  2
Gouraud
 70
     2
 71
     2
 72
     2
 73
     1
 90
        2
 40
-0.6
 41
30.0
 62
     5
 63
     7
 74
     0
 91
        4
 64
     7
 65
   257
 75
     1
175
     1
 42
1.0
 92
        0
 66
     7
 43
1.0
 76
     1
 77
     6
 78
     2
 67
     7
 79
     5
170
     0
171
     0
290
     0
174
     0
 93
       13
 44
0.0
173
     0
291
     1
 45
0.0
1001
ACAD
1000
AcDbSavedByObjectVersion
1070
     0
  0
VISUALSTYLE
  5
2E
102
{ACAD_REACTORS
330
2A
102
}
102
{ACAD_XDICTIONARY
360
A8
102
}
330
2A
100
AcDbVisualStyle
  2
GouraudWithEdges
 70
     3
 71
     2
 72
     2
 73
     1
 90
        2
 40
-0.6
 41
30.0
 62
     5
 63
     7
 74
     1
 91
        4
 64
     7
 65
   257
 75
     1
175
     1
 42
1.0
 92
        0
 66
   257
 43
1.0
 76
     1
 77
     6
 78
     2
 67
     7
 79
     5
170
     0
171
     0
290
     0
174
     0
 93
       13
 44
0.0
173
     0
291
     1
 45
0.0
1001
ACAD
1000
AcDbSavedByObjectVersion
1070
     0
  0
VISUALSTYLE
  5
38
102
{ACAD_REACTORS
330
2A
102
}
102
{ACAD_XDICTIONARY
360
BC
102
}
330
2A
100
AcDbVisualStyle
  2
Linepattern
 70
    14
 71
     2
 72
     2
 73
     0
 90
        0
 40
-0.6
 41
-30.0
 62
     5
 63
     7
 74
     1
 91
        4
 64
     7
 65
   257
 75
     7
175
     7
 42
1.0
 92
        8
 66
     7
 43
1.0
 76
     1
 77
     6
 78
     2
 67
     7
 79
     5
170
     0
171
     0
290
     0
174
     0
 93
        1
 44
0.0
173
     0
291
     1
 45
0.0
1001
ACAD
1000
AcDbSavedByObjectVersion
1070
     0
  0
VISUALSTYLE
  5
33
102
{ACAD_REACTORS
330
2A
102
}
102
{ACAD_XDICTIONARY
360
B2
102
}
330
2A
100
AcDbVisualStyle
  2
Realistic
 70
     8
 71
     2
 72
     2
 73
     0
 90
        0
 40
-0.6
 41
-30.0
 62
     5
 63
     7
 74
     1
 91
        0
 64
     7
 65
   257
 75
     1
175
     1
 42
1.0
 92
        8
 66
     8
 43
1.0
 76
     1
 77
     6
 78
     2
 67
     7
 79
     5
170
     0
171
     0
290
     0
174
     0
 93
       13
 44
0.0
173
     0
291
     0
 45
0.0
1001
ACAD
1000
AcDbSavedByObjectVersion
1070
     0
  0
VISUALSTYLE
  5
37
102
{ACAD_REACTORS
330
2A
102
}
102
{ACAD_XDICTIONARY
360
BA
102
}
330
2A
100
AcDbVisualStyle
  2
Thicken
 70
    13
 71
     2
 72
     2
 73
     0
 90
        0
 40
-0.6
 41
-30.0
 62
     5
 63
     7
 74
     1
 91
        4
 64
     7
 65
   257
 75
     1
175
     1
 42
1.0
 92
       12
 66
     7
 43
1.0
 76
     1
 77
     6
 78
     2
 67
     7
 79
     5
170
     0
171
     0
290
     0
174
     0
 93
        1
 44
0.0
173
     0
291
     1
 45
0.0
1001
ACAD
1000
AcDbSavedByObjectVersion
1070
     0
  0
DICTIONARYVAR
  5
A0
102
{ACAD_REACTORS
330
9D
102
}
330
9D
100
DictionaryVariables
280
     0
  1
2
  0
DICTIONARYVAR
  5
A1
102
{ACAD_REACTORS
330
9D
102
}
330
9D
100
DictionaryVariables
280
     0
  1
1
  0
DICTIONARY
  5
C4
330
3D
100
AcDbDictionary
280
     1
281
     1
  3
ACAD_XREC_ROUNDTRIP
360
C5
  0
DICTIONARY
  5
C2
330
3C
100
AcDbDictionary
280
     1
281
     1
  3
ACAD_XREC_ROUNDTRIP
360
C3
  0
DICTIONARY
  5
C6
330
3E
100
AcDbDictionary
280
     1
281
     1
  3
ACAD_XREC_ROUNDTRIP
360
C7
  0
DICTIONARY
  5
AA
330
2F
100
AcDbDictionary
280
     1
281
     1
  3
ACAD_XREC_ROUNDTRIP
360
AB
  0
DICTIONARY
  5
AE
330
31
100
AcDbDictionary
280
     1
281
     1
  3
ACAD_XREC_ROUNDTRIP
360
AF
  0
DICTIONARY
  5
AC
330
30
100
AcDbDictionary
280
     1
281
     1
  3
ACAD_XREC_ROUNDTRIP
360
AD
  0
DICTIONARY
  5
B0
330
32
100
AcDbDictionary
280
     1
281
     1
  3
ACAD_XREC_ROUNDTRIP
360
B1
  0
DICTIONARY
  5
B8
330
36
100
AcDbDictionary
280
     1
281
     1
  3
ACAD_XREC_ROUNDTRIP
360
B9
  0
DICTIONARY
  5
C0
330
3A
100
AcDbDictionary
280
     1
281
     1
  3
ACAD_XREC_ROUNDTRIP
360
C1
  0
DICTIONARY
  5
B4
330
34
100
AcDbDictionary
280
     1
281
     1
  3
ACAD_XREC_ROUNDTRIP
360
B5
  0
DICTIONARY
  5
B6
330
35
100
AcDbDictionary
280
     1
281
     1
  3
ACAD_XREC_ROUNDTRIP
360
B7
  0
DICTIONARY
  5
BE
330
39
100
AcDbDictionary
280
     1
281
     1
  3
ACAD_XREC_ROUNDTRIP
360
BF
  0
DICTIONARY
  5
A2
330
2B
100
AcDbDictionary
280
     1
281
     1
  3
ACAD_XREC_ROUNDTRIP
360
A3
  0
DICTIONARY
  5
A4
330
2C
100
AcDbDictionary
280
     1
281
     1
  3
ACAD_XREC_ROUNDTRIP
360
A5
  0
DICTIONARY
  5
A6
330
2D
100
AcDbDictionary
280
     1
281
     1
  3
ACAD_XREC_ROUNDTRIP
360
A7
  0
DICTIONARY
  5
A8
330
2E
100
AcDbDictionary
280
     1
281
     1
  3
ACAD_XREC_ROUNDTRIP
360
A9
  0
DICTIONARY
  5
BC
330
38
100
AcDbDictionary
280
     1
281
     1
  3
ACAD_XREC_ROUNDTRIP
360
BD
  0
DICTIONARY
  5
B2
330
33
100
AcDbDictionary
280
     1
281
     1
  3
ACAD_XREC_ROUNDTRIP
360
B3
  0
DICTIONARY
  5
BA
330
37
100
AcDbDictionary
280
     1
281
     1
  3
ACAD_XREC_ROUNDTRIP
360
BB
  0
XRECORD
  5
C5
102
{ACAD_REACTORS
330
C4
102
}
330
C4
100
AcDbXrecord
280
     1
102
MATERIAL
148
0.0
149
0.0
149
0.0
 93
        0
 94
      127
282
     0
 72
     1
 77
     1
171
     1
175
     1
179
     1
273
     0
  0
XRECORD
  5
C3
102
{ACAD_REACTORS
330
C2
102
}
330
C2
100
AcDbXrecord
280
     1
102
MATERIAL
148
0.0
149
0.0
149
0.0
 93
        0
 94
      127
282
     0
 72
     1
 77
     1
171
     1
175
     1
179
     1
273
     0
  0
XRECORD
  5
C7
102
{ACAD_REACTORS
330
C6
102
}
330
C6
100
AcDbXrecord
280
     1
102
MATERIAL
148
0.0
149
0.0
149
0.0
 93
        0
 94
      127
282
     0
 72
     1
 77
     1
171
     1
175
     1
179
     1
273
     0
  0
XRECORD
  5
AB
102
{ACAD_REACTORS
330
AA
102
}
330
AA
100
AcDbXrecord
280
     1
102
RTVSPropertyOp0
 70
     1
102
RTVSPropertyOp1
 70
     1
102
RTVSPropertyOp2
 70
     1
102
RTVSPropertyOp3
 70
     1
102
RTVSPropertyOp4
 70
     1
102
RTVSPropertyOp5
 70
     1
102
RTVSPropertyOp6
 70
     1
102
RTVSPropertyOp7
 70
     1
102
RTVSPropertyOp8
 70
     1
102
RTVSPropertyOp9
 70
     1
102
RTVSPropertyOp10
 70
     1
102
RTVSPropertyOp11
 70
     1
102
RTVSPropertyOp12
 70
     1
102
RTVSPropertyOp13
 70
     1
102
RTVSPropertyOp14
 70
     1
102
RTVSPropertyOp15
 70
     1
102
RTVSPropertyOp16
 70
     1
102
RTVSPropertyOp17
 70
     1
102
RTVSPropertyOp18
 70
     1
102
RTVSPropertyOp19
 70
     1
102
RTVSPropertyOp20
 70
     1
102
RTVSPropertyOp21
 70
     1
102
RTVSPropertyOp22
 70
     1
102
RTVSPropertyOp23
 70
     1
102
RTVSPropertyOp24
 70
     1
102
RTVSPropertyOp25
 70
     1
102
RTVSPropertyOp26
 70
     1
102
RTVSPropertyOp27
 70
     1
  0
XRECORD
  5
AF
102
{ACAD_REACTORS
330
AE
102
}
330
AE
100
AcDbXrecord
280
     1
102
RTVSPropertyOp0
 70
     1
102
RTVSPropertyOp1
 70
     1
102
RTVSPropertyOp2
 70
     1
102
RTVSPropertyOp3
 70
     1
102
RTVSPropertyOp4
 70
     1
102
RTVSPropertyOp5
 70
     1
102
RTVSPropertyOp6
 70
     1
102
RTVSPropertyOp7
 70
     1
102
RTVSPropertyOp8
 70
     1
102
RTVSPropertyOp9
 70
     1
102
RTVSPropertyOp10
 70
     1
102
RTVSPropertyOp11
 70
     1
102
RTVSPropertyOp12
 70
     1
102
RTVSPropertyOp13
 70
     1
102
RTVSPropertyOp14
 70
     1
102
RTVSPropertyOp15
 70
     1
102
RTVSPropertyOp16
 70
     1
102
RTVSPropertyOp17
 70
     1
102
RTVSPropertyOp18
 70
     1
102
RTVSPropertyOp19
 70
     1
102
RTVSPropertyOp20
 70
     1
102
RTVSPropertyOp21
 70
     1
102
RTVSPropertyOp22
 70
     1
102
RTVSPropertyOp23
 70
     1
102
RTVSPropertyOp24
 70
     1
102
RTVSPropertyOp25
 70
     1
102
RTVSPropertyOp26
 70
     1
102
RTVSPropertyOp27
 70
     1
  0
XRECORD
  5
AD
102
{ACAD_REACTORS
330
AC
102
}
330
AC
100
AcDbXrecord
280
     1
102
RTVSPropertyOp0
 70
     1
102
RTVSPropertyOp1
 70
     1
102
RTVSPropertyOp2
 70
     1
102
RTVSPropertyOp3
 70
     1
102
RTVSPropertyOp4
 70
     1
102
RTVSPropertyOp5
 70
     1
102
RTVSPropertyOp6
 70
     1
102
RTVSPropertyOp7
 70
     1
102
RTVSPropertyOp8
 70
     1
102
RTVSPropertyOp9
 70
     1
102
RTVSPropertyOp10
 70
     1
102
RTVSPropertyOp11
 70
     1
102
RTVSPropertyOp12
 70
     1
102
RTVSPropertyOp13
 70
     1
102
RTVSPropertyOp14
 70
     1
102
RTVSPropertyOp15
 70
     1
102
RTVSPropertyOp16
 70
     1
102
RTVSPropertyOp17
 70
     1
102
RTVSPropertyOp18
 70
     1
102
RTVSPropertyOp19
 70
     1
102
RTVSPropertyOp20
 70
     1
102
RTVSPropertyOp21
 70
     1
102
RTVSPropertyOp22
 70
     1
102
RTVSPropertyOp23
 70
     1
102
RTVSPropertyOp24
 70
     1
102
RTVSPropertyOp25
 70
     1
102
RTVSPropertyOp26
 70
     1
102
RTVSPropertyOp27
 70
     1
  0
XRECORD
  5
B1
102
{ACAD_REACTORS
330
B0
102
}
330
B0
100
AcDbXrecord
280
     1
102
RTVSPropertyOp0
 70
     1
102
RTVSPropertyOp1
 70
     1
102
RTVSPropertyOp2
 70
     1
102
RTVSPropertyOp3
 70
     1
102
RTVSPropertyOp4
 70
     1
102
RTVSPropertyOp5
 70
     1
102
RTVSPropertyOp6
 70
     1
102
RTVSPropertyOp7
 70
     1
102
RTVSPropertyOp8
 70
     1
102
RTVSPropertyOp9
 70
     1
102
RTVSPropertyOp10
 70
     1
102
RTVSPropertyOp11
 70
     1
102
RTVSPropertyOp12
 70
     1
102
RTVSPropertyOp13
 70
     1
102
RTVSPropertyOp14
 70
     1
102
RTVSPropertyOp15
 70
     1
102
RTVSPropertyOp16
 70
     1
102
RTVSPropertyOp17
 70
     1
102
RTVSPropertyOp18
 70
     1
102
RTVSPropertyOp19
 70
     1
102
RTVSPropertyOp20
 70
     1
102
RTVSPropertyOp21
 70
     1
102
RTVSPropertyOp22
 70
     1
102
RTVSPropertyOp23
 70
     1
102
RTVSPropertyOp24
 70
     1
102
RTVSPropertyOp25
 70
     1
102
RTVSPropertyOp26
 70
     1
102
RTVSPropertyOp27
 70
     1
  0
XRECORD
  5
B9
102
{ACAD_REACTORS
330
B8
102
}
330
B8
100
AcDbXrecord
280
     1
102
RTVSPropertyOp0
 70
     1
102
RTVSPropertyOp1
 70
     1
102
RTVSPropertyOp2
 70
     1
102
RTVSPropertyOp3
 70
     1
102
RTVSPropertyOp4
 70
     1
102
RTVSPropertyOp5
 70
     1
102
RTVSPropertyOp6
 70
     1
102
RTVSPropertyOp7
 70
     1
102
RTVSPropertyOp8
 70
     1
102
RTVSPropertyOp9
 70
     1
102
RTVSPropertyOp10
 70
     1
102
RTVSPropertyOp11
 70
     1
102
RTVSPropertyOp12
 70
     1
102
RTVSPropertyOp13
 70
     1
102
RTVSPropertyOp14
 70
     1
102
RTVSPropertyOp15
 70
     1
102
RTVSPropertyOp16
 70
     1
102
RTVSPropertyOp17
 70
     1
102
RTVSPropertyOp18
 70
     1
102
RTVSPropertyOp19
 70
     1
102
RTVSPropertyOp20
 70
     1
102
RTVSPropertyOp21
 70
     1
102
RTVSPropertyOp22
 70
     1
102
RTVSPropertyOp23
 70
     1
102
RTVSPropertyOp24
 70
     1
102
RTVSPropertyOp25
 70
     1
102
RTVSPropertyOp26
 70
     1
102
RTVSPropertyOp27
 70
     1
  0
XRECORD
  5
C1
102
{ACAD_REACTORS
330
C0
102
}
330
C0
100
AcDbXrecord
280
     1
102
RTVSPropertyOp0
 70
     1
102
RTVSPropertyOp1
 70
     1
102
RTVSPropertyOp2
 70
     1
102
RTVSPropertyOp3
 70
     1
102
RTVSPropertyOp4
 70
     1
102
RTVSPropertyOp5
 70
     1
102
RTVSPropertyOp6
 70
     1
102
RTVSPropertyOp7
 70
     1
102
RTVSPropertyOp8
 70
     1
102
RTVSPropertyOp9
 70
     1
102
RTVSPropertyOp10
 70
     1
102
RTVSPropertyOp11
 70
     1
102
RTVSPropertyOp12
 70
     1
102
RTVSPropertyOp13
 70
     1
102
RTVSPropertyOp14
 70
     1
102
RTVSPropertyOp15
 70
     1
102
RTVSPropertyOp16
 70
     1
102
RTVSPropertyOp17
 70
     1
102
RTVSPropertyOp18
 70
     1
102
RTVSPropertyOp19
 70
     1
102
RTVSPropertyOp20
 70
     1
102
RTVSPropertyOp21
 70
     1
102
RTVSPropertyOp22
 70
     1
102
RTVSPropertyOp23
 70
     1
102
RTVSPropertyOp24
 70
     1
102
RTVSPropertyOp25
 70
     1
102
RTVSPropertyOp26
 70
     1
102
RTVSPropertyOp27
 70
     1
  0
XRECORD
  5
B5
102
{ACAD_REACTORS
330
B4
102
}
330
B4
100
AcDbXrecord
280
     1
102
RTVSPropertyOp0
 70
     1
102
RTVSPropertyOp1
 70
     1
102
RTVSPropertyOp2
 70
     1
102
RTVSPropertyOp3
 70
     1
102
RTVSPropertyOp4
 70
     1
102
RTVSPropertyOp5
 70
     1
102
RTVSPropertyOp6
 70
     1
102
RTVSPropertyOp7
 70
     1
102
RTVSPropertyOp8
 70
     1
102
RTVSPropertyOp9
 70
     1
102
RTVSPropertyOp10
 70
     1
102
RTVSPropertyOp11
 70
     1
102
RTVSPropertyOp12
 70
     1
102
RTVSPropertyOp13
 70
     1
102
RTVSPropertyOp14
 70
     1
102
RTVSPropertyOp15
 70
     1
102
RTVSPropertyOp16
 70
     1
102
RTVSPropertyOp17
 70
     1
102
RTVSPropertyOp18
 70
     1
102
RTVSPropertyOp19
 70
     1
102
RTVSPropertyOp20
 70
     1
102
RTVSPropertyOp21
 70
     1
102
RTVSPropertyOp22
 70
     1
102
RTVSPropertyOp23
 70
     1
102
RTVSPropertyOp24
 70
     1
102
RTVSPropertyOp25
 70
     1
102
RTVSPropertyOp26
 70
     1
102
RTVSPropertyOp27
 70
     1
  0
XRECORD
  5
B7
102
{ACAD_REACTORS
330
B6
102
}
330
B6
100
AcDbXrecord
280
     1
102
RTVSPropertyOp0
 70
     1
102
RTVSPropertyOp1
 70
     1
102
RTVSPropertyOp2
 70
     1
102
RTVSPropertyOp3
 70
     1
102
RTVSPropertyOp4
 70
     1
102
RTVSPropertyOp5
 70
     1
102
RTVSPropertyOp6
 70
     1
102
RTVSPropertyOp7
 70
     1
102
RTVSPropertyOp8
 70
     1
102
RTVSPropertyOp9
 70
     1
102
RTVSPropertyOp10
 70
     1
102
RTVSPropertyOp11
 70
     1
102
RTVSPropertyOp12
 70
     1
102
RTVSPropertyOp13
 70
     1
102
RTVSPropertyOp14
 70
     1
102
RTVSPropertyOp15
 70
     1
102
RTVSPropertyOp16
 70
     1
102
RTVSPropertyOp17
 70
     1
102
RTVSPropertyOp18
 70
     1
102
RTVSPropertyOp19
 70
     1
102
RTVSPropertyOp20
 70
     1
102
RTVSPropertyOp21
 70
     1
102
RTVSPropertyOp22
 70
     1
102
RTVSPropertyOp23
 70
     1
102
RTVSPropertyOp24
 70
     1
102
RTVSPropertyOp25
 70
     1
102
RTVSPropertyOp26
 70
     1
102
RTVSPropertyOp27
 70
     1
  0
XRECORD
  5
BF
102
{ACAD_REACTORS
330
BE
102
}
330
BE
100
AcDbXrecord
280
     1
102
RTVSPropertyOp0
 70
     1
102
RTVSPropertyOp1
 70
     1
102
RTVSPropertyOp2
 70
     1
102
RTVSPropertyOp3
 70
     1
102
RTVSPropertyOp4
 70
     1
102
RTVSPropertyOp5
 70
     1
102
RTVSPropertyOp6
 70
     1
102
RTVSPropertyOp7
 70
     1
102
RTVSPropertyOp8
 70
     1
102
RTVSPropertyOp9
 70
     1
102
RTVSPropertyOp10
 70
     1
102
RTVSPropertyOp11
 70
     1
102
RTVSPropertyOp12
 70
     1
102
RTVSPropertyOp13
 70
     1
102
RTVSPropertyOp14
 70
     1
102
RTVSPropertyOp15
 70
     1
102
RTVSPropertyOp16
 70
     1
102
RTVSPropertyOp17
 70
     1
102
RTVSPropertyOp18
 70
     1
102
RTVSPropertyOp19
 70
     1
102
RTVSPropertyOp20
 70
     1
102
RTVSPropertyOp21
 70
     1
102
RTVSPropertyOp22
 70
     1
102
RTVSPropertyOp23
 70
     1
102
RTVSPropertyOp24
 70
     1
102
RTVSPropertyOp25
 70
     1
102
RTVSPropertyOp26
 70
     1
102
RTVSPropertyOp27
 70
     1
  0
XRECORD
  5
A3
102
{ACAD_REACTORS
330
A2
102
}
330
A2
100
AcDbXrecord
280
     1
102
RTVSPropertyOp0
 70
     1
102
RTVSPropertyOp1
 70
     1
102
RTVSPropertyOp2
 70
     1
102
RTVSPropertyOp3
 70
     1
102
RTVSPropertyOp4
 70
     1
102
RTVSPropertyOp5
 70
     1
102
RTVSPropertyOp6
 70
     1
102
RTVSPropertyOp7
 70
     1
102
RTVSPropertyOp8
 70
     1
102
RTVSPropertyOp9
 70
     1
102
RTVSPropertyOp10
 70
     1
102
RTVSPropertyOp11
 70
     1
102
RTVSPropertyOp12
 70
     1
102
RTVSPropertyOp13
 70
     1
102
RTVSPropertyOp14
 70
     1
102
RTVSPropertyOp15
 70
     1
102
RTVSPropertyOp16
 70
     1
102
RTVSPropertyOp17
 70
     1
102
RTVSPropertyOp18
 70
     1
102
RTVSPropertyOp19
 70
     1
102
RTVSPropertyOp20
 70
     1
102
RTVSPropertyOp21
 70
     1
102
RTVSPropertyOp22
 70
     1
102
RTVSPropertyOp23
 70
     1
102
RTVSPropertyOp24
 70
     1
102
RTVSPropertyOp25
 70
     1
102
RTVSPropertyOp26
 70
     1
102
RTVSPropertyOp27
 70
     1
  0
XRECORD
  5
A5
102
{ACAD_REACTORS
330
A4
102
}
330
A4
100
AcDbXrecord
280
     1
102
RTVSPropertyOp0
 70
     1
102
RTVSPropertyOp1
 70
     1
102
RTVSPropertyOp2
 70
     1
102
RTVSPropertyOp3
 70
     1
102
RTVSPropertyOp4
 70
     1
102
RTVSPropertyOp5
 70
     1
102
RTVSPropertyOp6
 70
     1
102
RTVSPropertyOp7
 70
     1
102
RTVSPropertyOp8
 70
     1
102
RTVSPropertyOp9
 70
     1
102
RTVSPropertyOp10
 70
     1
102
RTVSPropertyOp11
 70
     1
102
RTVSPropertyOp12
 70
     1
102
RTVSPropertyOp13
 70
     1
102
RTVSPropertyOp14
 70
     1
102
RTVSPropertyOp15
 70
     1
102
RTVSPropertyOp16
 70
     1
102
RTVSPropertyOp17
 70
     1
102
RTVSPropertyOp18
 70
     1
102
RTVSPropertyOp19
 70
     1
102
RTVSPropertyOp20
 70
     1
102
RTVSPropertyOp21
 70
     1
102
RTVSPropertyOp22
 70
     1
102
RTVSPropertyOp23
 70
     1
102
RTVSPropertyOp24
 70
     1
102
RTVSPropertyOp25
 70
     1
102
RTVSPropertyOp26
 70
     1
102
RTVSPropertyOp27
 70
     1
  0
XRECORD
  5
A7
102
{ACAD_REACTORS
330
A6
102
}
330
A6
100
AcDbXrecord
280
     1
102
RTVSPropertyOp0
 70
     1
102
RTVSPropertyOp1
 70
     1
102
RTVSPropertyOp2
 70
     1
102
RTVSPropertyOp3
 70
     1
102
RTVSPropertyOp4
 70
     1
102
RTVSPropertyOp5
 70
     1
102
RTVSPropertyOp6
 70
     1
102
RTVSPropertyOp7
 70
     1
102
RTVSPropertyOp8
 70
     1
102
RTVSPropertyOp9
 70
     1
102
RTVSPropertyOp10
 70
     1
102
RTVSPropertyOp11
 70
     1
102
RTVSPropertyOp12
 70
     1
102
RTVSPropertyOp13
 70
     1
102
RTVSPropertyOp14
 70
     1
102
RTVSPropertyOp15
 70
     1
102
RTVSPropertyOp16
 70
     1
102
RTVSPropertyOp17
 70
     1
102
RTVSPropertyOp18
 70
     1
102
RTVSPropertyOp19
 70
     1
102
RTVSPropertyOp20
 70
     1
102
RTVSPropertyOp21
 70
     1
102
RTVSPropertyOp22
 70
     1
102
RTVSPropertyOp23
 70
     1
102
RTVSPropertyOp24
 70
     1
102
RTVSPropertyOp25
 70
     1
102
RTVSPropertyOp26
 70
     1
102
RTVSPropertyOp27
 70
     1
  0
XRECORD
  5
A9
102
{ACAD_REACTORS
330
A8
102
}
330
A8
100
AcDbXrecord
280
     1
102
RTVSPropertyOp0
 70
     1
102
RTVSPropertyOp1
 70
     1
102
RTVSPropertyOp2
 70
     1
102
RTVSPropertyOp3
 70
     1
102
RTVSPropertyOp4
 70
     1
102
RTVSPropertyOp5
 70
     1
102
RTVSPropertyOp6
 70
     1
102
RTVSPropertyOp7
 70
     1
102
RTVSPropertyOp8
 70
     1
102
RTVSPropertyOp9
 70
     1
102
RTVSPropertyOp10
 70
     1
102
RTVSPropertyOp11
 70
     1
102
RTVSPropertyOp12
 70
     1
102
RTVSPropertyOp13
 70
     1
102
RTVSPropertyOp14
 70
     1
102
RTVSPropertyOp15
 70
     1
102
RTVSPropertyOp16
 70
     1
102
RTVSPropertyOp17
 70
     1
102
RTVSPropertyOp18
 70
     1
102
RTVSPropertyOp19
 70
     1
102
RTVSPropertyOp20
 70
     1
102
RTVSPropertyOp21
 70
     1
102
RTVSPropertyOp22
 70
     1
102
RTVSPropertyOp23
 70
     1
102
RTVSPropertyOp24
 70
     1
102
RTVSPropertyOp25
 70
     1
102
RTVSPropertyOp26
 70
     1
102
RTVSPropertyOp27
 70
     1
  0
XRECORD
  5
BD
102
{ACAD_REACTORS
330
BC
102
}
330
BC
100
AcDbXrecord
280
     1
102
RTVSPropertyOp0
 70
     1
102
RTVSPropertyOp1
 70
     1
102
RTVSPropertyOp2
 70
     1
102
RTVSPropertyOp3
 70
     1
102
RTVSPropertyOp4
 70
     1
102
RTVSPropertyOp5
 70
     1
102
RTVSPropertyOp6
 70
     1
102
RTVSPropertyOp7
 70
     1
102
RTVSPropertyOp8
 70
     1
102
RTVSPropertyOp9
 70
     1
102
RTVSPropertyOp10
 70
     1
102
RTVSPropertyOp11
 70
     1
102
RTVSPropertyOp12
 70
     1
102
RTVSPropertyOp13
 70
     1
102
RTVSPropertyOp14
 70
     1
102
RTVSPropertyOp15
 70
     1
102
RTVSPropertyOp16
 70
     1
102
RTVSPropertyOp17
 70
     1
102
RTVSPropertyOp18
 70
     1
102
RTVSPropertyOp19
 70
     1
102
RTVSPropertyOp20
 70
     1
102
RTVSPropertyOp21
 70
     1
102
RTVSPropertyOp22
 70
     1
102
RTVSPropertyOp23
 70
     1
102
RTVSPropertyOp24
 70
     1
102
RTVSPropertyOp25
 70
     1
102
RTVSPropertyOp26
 70
     1
102
RTVSPropertyOp27
 70
     1
  0
XRECORD
  5
B3
102
{ACAD_REACTORS
330
B2
102
}
330
B2
100
AcDbXrecord
280
     1
102
RTVSPropertyOp0
 70
     1
102
RTVSPropertyOp1
 70
     1
102
RTVSPropertyOp2
 70
     1
102
RTVSPropertyOp3
 70
     1
102
RTVSPropertyOp4
 70
     1
102
RTVSPropertyOp5
 70
     1
102
RTVSPropertyOp6
 70
     1
102
RTVSPropertyOp7
 70
     1
102
RTVSPropertyOp8
 70
     1
102
RTVSPropertyOp9
 70
     1
102
RTVSPropertyOp10
 70
     1
102
RTVSPropertyOp11
 70
     1
102
RTVSPropertyOp12
 70
     1
102
RTVSPropertyOp13
 70
     1
102
RTVSPropertyOp14
 70
     1
102
RTVSPropertyOp15
 70
     1
102
RTVSPropertyOp16
 70
     1
102
RTVSPropertyOp17
 70
     1
102
RTVSPropertyOp18
 70
     1
102
RTVSPropertyOp19
 70
     1
102
RTVSPropertyOp20
 70
     1
102
RTVSPropertyOp21
 70
     1
102
RTVSPropertyOp22
 70
     1
102
RTVSPropertyOp23
 70
     1
102
RTVSPropertyOp24
 70
     1
102
RTVSPropertyOp25
 70
     1
102
RTVSPropertyOp26
 70
     1
102
RTVSPropertyOp27
 70
     1
  0
XRECORD
  5
BB
102
{ACAD_REACTORS
330
BA
102
}
330
BA
100
AcDbXrecord
280
     1
102
RTVSPropertyOp0
 70
     1
102
RTVSPropertyOp1
 70
     1
102
RTVSPropertyOp2
 70
     1
102
RTVSPropertyOp3
 70
     1
102
RTVSPropertyOp4
 70
     1
102
RTVSPropertyOp5
 70
     1
102
RTVSPropertyOp6
 70
     1
102
RTVSPropertyOp7
 70
     1
102
RTVSPropertyOp8
 70
     1
102
RTVSPropertyOp9
 70
     1
102
RTVSPropertyOp10
 70
     1
102
RTVSPropertyOp11
 70
     1
102
RTVSPropertyOp12
 70
     1
102
RTVSPropertyOp13
 70
     1
102
RTVSPropertyOp14
 70
     1
102
RTVSPropertyOp15
 70
     1
102
RTVSPropertyOp16
 70
     1
102
RTVSPropertyOp17
 70
     1
102
RTVSPropertyOp18
 70
     1
102
RTVSPropertyOp19
 70
     1
102
RTVSPropertyOp20
 70
     1
102
RTVSPropertyOp21
 70
     1
102
RTVSPropertyOp22
 70
     1
102
RTVSPropertyOp23
 70
     1
102
RTVSPropertyOp24
 70
     1
102
RTVSPropertyOp25
 70
     1
102
RTVSPropertyOp26
 70
     1
102
RTVSPropertyOp27
 70
     1
  0
ENDSEC
  0
EOF
