  0
SECTION
  2
HEADER
  9
$ACADVER
  1
AC1015
  9
$ACADMAINTVER
 70
     6
  9
$DWGCODEPAGE
  3
ANSI_1252
  9
$INSBASE
 10
0.0
 20
0.0
 30
0.0
  9
$EXTMIN
 10
-4667.445781868781
 20
-6558.03039623317
 30
0.0
  9
$EXTMAX
 10
3780.8463168934
 20
4024.08339986878
 30
0.0
  9
$LIMMIN
 10
0.0
 20
0.0
  9
$LIMMAX
 10
12.0
 20
9.0
  9
$ORTHOMODE
 70
     0
  9
$REGENMODE
 70
     1
  9
$FILLMODE
 70
     1
  9
$QTEXTMODE
 70
     0
  9
$MIRRTEXT
 70
     1
  9
$LTSCALE
 40
1.0
  9
$ATTMODE
 70
     1
  9
$TEXTSIZE
 40
0.2
  9
$TRACEWID
 40
0.05
  9
$TEXTSTYLE
  7
Standard
  9
$CLAYER
  8
0
  9
$CELTYPE
  6
ByLayer
  9
$CECOLOR
 62
   256
  9
$CELTSCALE
 40
1.0
  9
$DISPSILH
 70
     0
  9
$DIMSCALE
 40
1.0
  9
$DIMASZ
 40
0.18
  9
$DIMEXO
 40
0.0625
  9
$DIMDLI
 40
0.38
  9
$DIMRND
 40
0.0
  9
$DIMDLE
 40
0.0
  9
$DIMEXE
 40
0.18
  9
$DIMTP
 40
0.0
  9
$DIMTM
 40
0.0
  9
$DIMTXT
 40
0.18
  9
$DIMCEN
 40
0.09
  9
$DIMTSZ
 40
0.0
  9
$DIMTOL
 70
     0
  9
$DIMLIM
 70
     0
  9
$DIMTIH
 70
     1
  9
$DIMTOH
 70
     1
  9
$DIMSE1
 70
     0
  9
$DIMSE2
 70
     0
  9
$DIMTAD
 70
     0
  9
$DIMZIN
 70
     0
  9
$DIMBLK
  1

  9
$DIMASO
 70
     1
  9
$DIMSHO
 70
     1
  9
$DIMPOST
  1

  9
$DIMAPOST
  1

  9
$DIMALT
 70
     0
  9
$DIMALTD
 70
     2
  9
$DIMALTF
 40
25.4
  9
$DIMLFAC
 40
1.0
  9
$DIMTOFL
 70
     0
  9
$DIMTVP
 40
0.0
  9
$DIMTIX
 70
     0
  9
$DIMSOXD
 70
     0
  9
$DIMSAH
 70
     0
  9
$DIMBLK1
  1

  9
$DIMBLK2
  1

  9
$DIMSTYLE
  2
Standard
  9
$DIMCLRD
 70
     0
  9
$DIMCLRE
 70
     0
  9
$DIMCLRT
 70
     0
  9
$DIMTFAC
 40
1.0
  9
$DIMGAP
 40
0.09
  9
$DIMJUST
 70
     0
  9
$DIMSD1
 70
     0
  9
$DIMSD2
 70
     0
  9
$DIMTOLJ
 70
     1
  9
$DIMTZIN
 70
     0
  9
$DIMALTZ
 70
     0
  9
$DIMALTTZ
 70
     0
  9
$DIMUPT
 70
     0
  9
$DIMDEC
 70
     4
  9
$DIMTDEC
 70
     4
  9
$DIMALTU
 70
     2
  9
$DIMALTTD
 70
     2
  9
$DIMTXSTY
  7
Standard
  9
$DIMAUNIT
 70
     0
  9
$DIMADEC
 70
     0
  9
$DIMALTRND
 40
0.0
  9
$DIMAZIN
 70
     0
  9
$DIMDSEP
 70
    46
  9
$DIMATFIT
 70
     3
  9
$DIMFRAC
 70
     0
  9
$DIMLDRBLK
  1

  9
$DIMLUNIT
 70
     2
  9
$DIMLWD
 70
    -2
  9
$DIMLWE
 70
    -2
  9
$DIMTMOVE
 70
     0
  9
$LUNITS
 70
     2
  9
$LUPREC
 70
     4
  9
$SKETCHINC
 40
0.1
  9
$FILLETRAD
 40
0.5
  9
$AUNITS
 70
     0
  9
$AUPREC
 70
     0
  9
$MENU
  1
.
  9
$ELEVATION
 40
0.0
  9
$PELEVATION
 40
0.0
  9
$THICKNESS
 40
0.0
  9
$LIMCHECK
 70
     0
  9
$CHAMFERA
 40
0.5
  9
$CHAMFERB
 40
0.5
  9
$CHAMFERC
 40
1.0
  9
$CHAMFERD
 40
0.0
  9
$SKPOLY
 70
     0
  9
$TDCREATE
 40
2454734.607337419
  9
$TDUCREATE
 40
2454734.565670752
  9
$TDUPDATE
 40
2454734.649004097
  9
$TDUUPDATE
 40
2454734.565670764
  9
$TDINDWG
 40
0.0000000116
  9
$TDUSRTIMER
 40
0.0000000116
  9
$USRTIMER
 70
     1
  9
$ANGBASE
 50
0.0
  9
$ANGDIR
 70
     0
  9
$PDMODE
 70
     0
  9
$PDSIZE
 40
0.0
  9
$PLINEWID
 40
0.0
  9
$SPLFRAME
 70
     0
  9
$SPLINETYPE
 70
     6
  9
$SPLINESEGS
 70
     8
  9
$HANDSEED
  5
1EA
  9
$SURFTAB1
 70
     6
  9
$SURFTAB2
 70
     6
  9
$SURFTYPE
 70
     6
  9
$SURFU
 70
     6
  9
$SURFV
 70
     6
  9
$UCSBASE
  2

  9
$UCSNAME
  2

  9
$UCSORG
 10
0.0
 20
0.0
 30
0.0
  9
$UCSXDIR
 10
1.0
 20
0.0
 30
0.0
  9
$UCSYDIR
 10
0.0
 20
1.0
 30
0.0
  9
$UCSORTHOREF
  2

  9
$UCSORTHOVIEW
 70
     0
  9
$UCSORGTOP
 10
0.0
 20
0.0
 30
0.0
  9
$UCSORGBOTTOM
 10
0.0
 20
0.0
 30
0.0
  9
$UCSORGLEFT
 10
0.0
 20
0.0
 30
0.0
  9
$UCSORGRIGHT
 10
0.0
 20
0.0
 30
0.0
  9
$UCSORGFRONT
 10
0.0
 20
0.0
 30
0.0
  9
$UCSORGBACK
 10
0.0
 20
0.0
 30
0.0
  9
$PUCSBASE
  2

  9
$PUCSNAME
  2

  9
$PUCSORG
 10
0.0
 20
0.0
 30
0.0
  9
$PUCSXDIR
 10
1.0
 20
0.0
 30
0.0
  9
$PUCSYDIR
 10
0.0
 20
1.0
 30
0.0
  9
$PUCSORTHOREF
  2

  9
$PUCSORTHOVIEW
 70
     0
  9
$PUCSORGTOP
 10
0.0
 20
0.0
 30
0.0
  9
$PUCSORGBOTTOM
 10
0.0
 20
0.0
 30
0.0
  9
$PUCSORGLEFT
 10
0.0
 20
0.0
 30
0.0
  9
$PUCSORGRIGHT
 10
0.0
 20
0.0
 30
0.0
  9
$PUCSORGFRONT
 10
0.0
 20
0.0
 30
0.0
  9
$PUCSORGBACK
 10
0.0
 20
0.0
 30
0.0
  9
$USERI1
 70
     0
  9
$USERI2
 70
     0
  9
$USERI3
 70
     0
  9
$USERI4
 70
     0
  9
$USERI5
 70
     0
  9
$USERR1
 40
13.01
  9
$USERR2
 40
0.0
  9
$USERR3
 40
0.0
  9
$USERR4
 40
0.0
  9
$USERR5
 40
0.0
  9
$WORLDVIEW
 70
     1
  9
$SHADEDGE
 70
     3
  9
$SHADEDIF
 70
    70
  9
$TILEMODE
 70
     1
  9
$MAXACTVP
 70
    64
  9
$PINSBASE
 10
0.0
 20
0.0
 30
0.0
  9
$PLIMCHECK
 70
     0
  9
$PEXTMIN
 10
1.00000000000000E+20
 20
1.00000000000000E+20
 30
1.00000000000000E+20
  9
$PEXTMAX
 10
-1.00000000000000E+20
 20
-1.00000000000000E+20
 30
-1.00000000000000E+20
  9
$PLIMMIN
 10
0.0
 20
0.0
  9
$PLIMMAX
 10
12.0
 20
9.0
  9
$UNITMODE
 70
     0
  9
$VISRETAIN
 70
     1
  9
$PLINEGEN
 70
     0
  9
$PSLTSCALE
 70
     1
  9
$TREEDEPTH
 70
  3020
  9
$CMLSTYLE
  2
Standard
  9
$CMLJUST
 70
     0
  9
$CMLSCALE
 40
1.0
  9
$PROXYGRAPHICS
 70
     1
  9
$MEASUREMENT
 70
     1
  9
$CELWEIGHT
370
    -1
  9
$ENDCAPS
280
     0
  9
$JOINSTYLE
280
     0
  9
$LWDISPLAY
290
     0
  9
$INSUNITS
 70
     1
  9
$HYPERLINKBASE
  1

  9
$STYLESHEET
  1

  9
$XEDIT
290
     1
  9
$CEPSNTYPE
380
     0
  9
$PSTYLEMODE
290
     0
  9
$FINGERPRINTGUID
  2
{FAEB1C30-E019-11D5-929B-00C0DF256EC4}
  9
$VERSIONGUID
  2
{FAEB1C32-E019-11D5-929B-00C0DF256EC4}
  9
$EXTNAMES
290
     1
  9
$PSVPSCALE
 40
0.0
  9
$OLESTARTUP
290
     0
  0
ENDSEC
  0
SECTION
  2
CLASSES
  0
CLASS
  1
ACDBDICTIONARYWDFLT
  2
AcDbDictionaryWithDefault
  3
ObjectDBX Classes
 90
        0
280
     0
281
     0
  0
CLASS
  1
TABLESTYLE
  2
AcDbTableStyle
  3
ObjectDBX Classes
 90
     2047
280
     0
281
     0
  0
CLASS
  1
DICTIONARYVAR
  2
AcDbDictionaryVar
  3
ObjectDBX Classes
 90
        0
280
     0
281
     0
  0
CLASS
  1

  2
exOdDbSpline
  3

 90
        0
280
     0
281
     1
  0
CLASS
  1

  2
exOdDbCircle
  3

 90
        0
280
     0
281
     1
  0
CLASS
  1
ACDBPLACEHOLDER
  2
AcDbPlaceHolder
  3
ObjectDBX Classes
 90
        0
280
     0
281
     0
  0
CLASS
  1
LAYOUT
  2
AcDbLayout
  3
ObjectDBX Classes
 90
        0
280
     0
281
     0
  0
ENDSEC
  0
SECTION
  2
TABLES
  0
TABLE
  2
VPORT
  5
8
330
0
100
AcDbSymbolTable
 70
     2
  0
VPORT
  5
29
330
8
100
AcDbSymbolTableRecord
100
AcDbViewportTableRecord
  2
*Active
 70
     0
 10
0.0
 20
0.0
 11
1.0
 21
1.0
 12
-443.2997324876903
 22
-1266.973498182195
 13
0.0
 23
0.0
 14
0.5
 24
0.5
 15
0.5
 25
0.5
 16
0.0
 26
0.0
 36
1.0
 17
0.0
 27
0.0
 37
0.0
 40
11640.32517571215
 41
1.60267857142857
 42
50.0
 43
0.0
 44
0.0
 50
0.0
 51
0.0
 71
     0
 72
   100
 73
     1
 74
     3
 75
     0
 76
     0
 77
     0
 78
     0
281
     0
 65
     1
110
0.0
120
0.0
130
0.0
111
1.0
121
0.0
131
0.0
112
0.0
122
1.0
132
0.0
 79
     0
146
0.0
  0
ENDTAB
  0
TABLE
  2
LTYPE
  5
5
330
0
100
AcDbSymbolTable
 70
     8
  0
LTYPE
  5
14
330
5
100
AcDbSymbolTableRecord
100
AcDbLinetypeTableRecord
  2
ByBlock
 70
     0
  3

 72
    65
 73
     0
 40
0.0
  0
LTYPE
  5
15
330
5
100
AcDbSymbolTableRecord
100
AcDbLinetypeTableRecord
  2
ByLayer
 70
     0
  3

 72
    65
 73
     0
 40
0.0
  0
LTYPE
  5
16
330
5
100
AcDbSymbolTableRecord
100
AcDbLinetypeTableRecord
  2
Continuous
 70
     0
  3
Solid line
 72
    65
 73
     0
 40
0.0
  0
LTYPE
  5
2E
330
5
100
AcDbSymbolTableRecord
100
AcDbLinetypeTableRecord
  2
DASHED
 70
     0
  3
Dashed
 72
    65
 73
     2
 40
15.0
 49
7.0
 74
     0
 49
-8.0
 74
     0
  0
LTYPE
  5
2F
330
5
100
AcDbSymbolTableRecord
100
AcDbLinetypeTableRecord
  2
DOTTED
 70
     0
  3
Dotted
 72
    65
 73
     2
 40
1.0
 49
0.0
 74
     0
 49
-1.0
 74
     0
  0
LTYPE
  5
30
330
5
100
AcDbSymbolTableRecord
100
AcDbLinetypeTableRecord
  2
DOT_CENTER
 70
     0
  3
Dot_Center
 72
    65
 73
     4
 40
14.0
 49
12.0
 74
     0
 49
-1.0
 74
     0
 49
0.0
 74
     0
 49
-1.0
 74
     0
  0
LTYPE
  5
31
330
5
100
AcDbSymbolTableRecord
100
AcDbLinetypeTableRecord
  2
LONG_DASHED
 70
     0
  3
Long_Dashed
 72
    65
 73
     2
 40
15.0
 49
10.0
 74
     0
 49
-5.0
 74
     0
  0
LTYPE
  5
32
330
5
100
AcDbSymbolTableRecord
100
AcDbLinetypeTableRecord
  2
DASH_CENTER
 70
     0
  3
Dash_Center
 72
    65
 73
     4
 40
14.0
 49
11.0
 74
     0
 49
-1.0
 74
     0
 49
1.0
 74
     0
 49
-1.0
 74
     0
  0
LTYPE
  5
33
330
5
100
AcDbSymbolTableRecord
100
AcDbLinetypeTableRecord
  2
PHANTOM
 70
     0
  3
Phantom
 72
    65
 73
     6
 40
13.0
 49
10.0
 74
     0
 49
-1.0
 74
     0
 49
0.0
 74
     0
 49
-1.0
 74
     0
 49
0.0
 74
     0
 49
-1.0
 74
     0
  0
LTYPE
  5
34
330
5
100
AcDbSymbolTableRecord
100
AcDbLinetypeTableRecord
  2
CENTER_DASH_DASH
 70
     0
  3
Center_Dash_Dash
 72
    65
 73
     6
 40
14.0
 49
9.0
 74
     0
 49
-1.0
 74
     0
 49
1.0
 74
     0
 49
-1.0
 74
     0
 49
1.0
 74
     0
 49
-1.0
 74
     0
  0
ENDTAB
  0
TABLE
  2
LAYER
  5
2
330
0
100
AcDbSymbolTable
 70
     2
  0
LAYER
  5
10
330
2
100
AcDbSymbolTableRecord
100
AcDbLayerTableRecord
  2
0
 70
     0
 62
     7
  6
Continuous
370
    -3
390
F
  0
LAYER
  5
35
330
2
100
AcDbSymbolTableRecord
100
AcDbLayerTableRecord
  2
1
 70
     0
 62
     7
  6
Continuous
370
    -3
390
F
  0
ENDTAB
  0
TABLE
  2
STYLE
  5
3
330
0
100
AcDbSymbolTable
 70
     1
  0
STYLE
  5
11
330
3
100
AcDbSymbolTableRecord
100
AcDbTextStyleTableRecord
  2
Standard
 70
     0
 40
0.0
 41
1.0
 50
0.0
 71
     0
 42
0.2
  3
txt
  4

  0
ENDTAB
  0
TABLE
  2
VIEW
  5
6
330
0
100
AcDbSymbolTable
 70
     0
  0
ENDTAB
  0
TABLE
  2
UCS
  5
7
330
0
100
AcDbSymbolTable
 70
     0
  0
ENDTAB
  0
TABLE
  2
APPID
  5
9
330
0
100
AcDbSymbolTable
 70
     1
  0
APPID
  5
12
330
9
100
AcDbSymbolTableRecord
100
AcDbRegAppTableRecord
  2
ACAD
 70
     0
  0
ENDTAB
  0
TABLE
  2
DIMSTYLE
  5
A
330
0
100
AcDbSymbolTable
 70
     1
100
AcDbDimStyleTable
  0
DIMSTYLE
105
27
330
A
100
AcDbSymbolTableRecord
100
AcDbDimStyleTableRecord
  2
Standard
 70
     0
340
11
  0
ENDTAB
  0
TABLE
  2
BLOCK_RECORD
  5
1
330
0
100
AcDbSymbolTable
 70
     1
  0
BLOCK_RECORD
  5
1F
330
1
100
AcDbSymbolTableRecord
100
AcDbBlockTableRecord
  2
*Model_Space
340
22
  0
BLOCK_RECORD
  5
1B
330
1
100
AcDbSymbolTableRecord
100
AcDbBlockTableRecord
  2
*Paper_Space
340
1E
  0
BLOCK_RECORD
  5
23
330
1
100
AcDbSymbolTableRecord
100
AcDbBlockTableRecord
  2
*Paper_Space0
340
26
  0
ENDTAB
  0
ENDSEC
  0
SECTION
  2
BLOCKS
  0
BLOCK
  5
20
330
1F
100
AcDbEntity
  8
0
100
AcDbBlockBegin
  2
*Model_Space
 70
     0
 71
     0
 10
0.0
 20
0.0
 30
0.0
  3
*Model_Space
  1

  0
ENDBLK
  5
21
330
1F
100
AcDbEntity
  8
0
100
AcDbBlockEnd
  0
BLOCK
  5
1C
330
1B
100
AcDbEntity
 67
     1
  8
0
100
AcDbBlockBegin
  2
*Paper_Space
 70
     0
 71
     0
 10
0.0
 20
0.0
 30
0.0
  3
*Paper_Space
  1

  0
ENDBLK
  5
1D
330
1B
100
AcDbEntity
 67
     1
  8
0
100
AcDbBlockEnd
  0
BLOCK
  5
24
330
23
100
AcDbEntity
  8
0
100
AcDbBlockBegin
  2
*Paper_Space0
 70
     0
 71
     0
 10
0.0
 20
0.0
 30
0.0
  3
*Paper_Space0
  1

  0
ENDBLK
  5
25
330
23
100
AcDbEntity
  8
0
100
AcDbBlockEnd
  0
ENDSEC
  0
SECTION
  2
ENTITIES
  0
LINE
  5
36
330
1F
100
AcDbEntity
  8
1
  6
Continuous
 62
     7
100
AcDbLine
 10
-656.969844000001
 20
3314.08339986878
 30
0.0
 11
-656.969844000001
 21
3409.087323926769
 31
0.0
  0
LINE
  5
37
330
1F
100
AcDbEntity
  8
1
  6
Continuous
 62
     7
100
AcDbLine
 10
-498.619493238313
 20
3512.31602284646
 30
0.0
 11
-191.969844
 21
3512.31602284646
 31
0.0
  0
LINE
  5
38
330
1F
100
AcDbEntity
  8
1
  6
Continuous
 62
     7
100
AcDbLine
 10
-41.96984400000054
 20
4024.08339986878
 30
0.0
 11
-551.969844
 21
4024.08339986878
 31
0.0
  0
LINE
  5
39
330
1F
100
AcDbEntity
  8
1
  6
Continuous
 62
     7
100
AcDbLine
 10
-41.96984400000054
 20
3589.087323926769
 30
0.0
 11
-41.96984400000054
 21
4024.08339986878
 31
0.0
  0
LINE
  5
3A
330
1F
100
AcDbEntity
  8
1
  6
Continuous
 62
     7
100
AcDbLine
 10
-656.969844000001
 20
3409.087323926769
 30
0.0
 11
-221.9698440000005
 21
3409.087323926769
 31
0.0
  0
LINE
  5
3B
330
1F
100
AcDbEntity
  8
1
  6
Continuous
 62
     7
100
AcDbLine
 10
53.03015600000094
 20
4024.08339986878
 30
0.0
 11
53.03015600000094
 21
3314.08339986878
 31
0.0
  0
LINE
  5
3C
330
1F
100
AcDbEntity
  8
1
  6
Continuous
 62
     7
100
AcDbLine
 10
53.03015600000094
 20
3314.08339986878
 30
0.0
 11
-656.969844000001
 21
3314.08339986878
 31
0.0
  0
LINE
  5
3D
330
1F
100
AcDbEntity
  8
1
  6
Continuous
 62
     7
100
AcDbLine
 10
-41.96984400000054
 20
4024.08339986878
 30
0.0
 11
53.03015600000094
 21
4024.08339986878
 31
0.0
  0
LINE
  5
3E
330
1F
100
AcDbEntity
  8
1
  6
Continuous
 62
     7
100
AcDbLine
 10
-551.969844
 20
4024.08339986878
 30
0.0
 11
-551.969844
 21
3409.087323926769
 31
0.0
  0
LINE
  5
3F
330
1F
100
AcDbEntity
  8
1
  6
Continuous
 62
     7
100
AcDbLine
 10
-866.969844
 20
4024.08339986878
 30
0.0
 11
-551.969844
 21
4024.08339986878
 31
0.0
  0
LINE
  5
40
330
1F
100
AcDbEntity
  8
1
  6
Continuous
 62
     7
100
AcDbLine
 10
-866.969844
 20
3409.087323926769
 30
0.0
 11
-866.969844
 21
4024.08339986878
 31
0.0
  0
LINE
  5
41
330
1F
100
AcDbEntity
  8
1
  6
Continuous
 62
     7
100
AcDbLine
 10
-551.969844
 20
3409.087323926769
 30
0.0
 11
-866.969844
 21
3409.087323926769
 31
0.0
  0
LINE
  5
42
330
1F
100
AcDbEntity
  8
1
  6
Continuous
 62
     7
100
AcDbLine
 10
-866.969844
 20
183.702884486585
 30
0.0
 11
-866.969844
 21
274.702884486585
 31
0.0
  0
LINE
  5
43
330
1F
100
AcDbEntity
  8
1
  6
Continuous
 62
     7
100
AcDbLine
 10
-965.813359982352
 20
223.607462
 30
0.0
 11
-779.813359982352
 21
223.607462
 31
0.0
  0
LINE
  5
44
330
1F
100
AcDbEntity
  8
1
  6
Continuous
 62
     7
100
AcDbLine
 10
-561.969844
 20
-1861.392538
 30
0.0
 11
-561.969844
 21
-2166.392538
 31
0.0
  0
LINE
  5
45
330
1F
100
AcDbEntity
  8
1
  6
Continuous
 62
     3
100
AcDbLine
 10
2328.50609386878
 20
-1956.392538
 30
0.0
 11
2933.50609386878
 21
-1956.392538
 31
0.0
  0
LINE
  5
46
330
1F
100
AcDbEntity
  8
1
  6
Continuous
 62
     3
100
AcDbLine
 10
2328.50609386878
 20
-1861.392538
 30
0.0
 11
2328.50609386878
 21
-1956.392538
 31
0.0
  0
LINE
  5
47
330
1F
100
AcDbEntity
  8
1
  6
Continuous
 62
     3
100
AcDbLine
 10
2933.50609386878
 20
-1861.392538
 30
0.0
 11
2933.50609386878
 21
-1956.392538
 31
0.0
  0
LINE
  5
48
330
1F
100
AcDbEntity
  8
1
  6
Continuous
 62
     3
100
AcDbLine
 10
2328.50609386878
 20
138.607462
 30
0.0
 11
2328.50609386878
 21
43.60746199999861
 31
0.0
  0
LINE
  5
49
330
1F
100
AcDbEntity
  8
1
  6
Continuous
 62
     3
100
AcDbLine
 10
2933.50609386878
 20
138.607462
 30
0.0
 11
2933.50609386878
 21
43.60746199999861
 31
0.0
  0
LINE
  5
4A
330
1F
100
AcDbEntity
  8
1
  6
Continuous
 62
     3
100
AcDbLine
 10
2933.50609386878
 20
43.6074619999986
 30
0.0
 11
2328.50609386878
 21
43.6074619999986
 31
0.0
  0
LINE
  5
4B
330
1F
100
AcDbEntity
  8
1
  6
Continuous
 62
     3
100
AcDbLine
 10
2328.50609386878
 20
138.607462
 30
0.0
 11
2933.50609386878
 21
138.607462
 31
0.0
  0
LINE
  5
4C
330
1F
100
AcDbEntity
  8
0
  6
Continuous
 62
     5
100
AcDbLine
 10
2575.67766674403
 20
-2358.53039623317
 30
0.0
 11
2581.33452099353
 21
-2358.53039623317
 31
0.0
  0
LINE
  5
4D
330
1F
100
AcDbEntity
  8
0
  6
Continuous
 62
     5
100
AcDbLine
 10
2581.33452099353
 20
-2358.53039623317
 30
0.0
 11
2632.24620923896
 21
-2358.53039623317
 31
0.0
  0
LINE
  5
4E
330
1F
100
AcDbEntity
  8
0
  6
Continuous
 62
     5
100
AcDbLine
 10
2524.7659784986
 20
-2358.53039623317
 30
0.0
 11
2575.67766674403
 21
-2358.53039623317
 31
0.0
  0
LINE
  5
4F
330
1F
100
AcDbEntity
  8
0
  6
Continuous
 62
     5
100
AcDbLine
 10
2523.59440562335
 20
-2568.03039623317
 30
0.0
 11
2523.59440562335
 21
-2358.53039623317
 31
0.0
  0
LINE
  5
50
330
1F
100
AcDbEntity
  8
0
  6
Continuous
 62
     5
100
AcDbLine
 10
2575.67766674403
 20
-2568.03039623317
 30
0.0
 11
2575.67766674403
 21
-2358.53039623317
 31
0.0
  0
LINE
  5
51
330
1F
100
AcDbEntity
  8
0
  6
Continuous
 62
     5
100
AcDbLine
 10
2581.33452099353
 20
-2568.03039623317
 30
0.0
 11
2581.33452099353
 21
-2358.53039623317
 31
0.0
  0
LINE
  5
52
330
1F
100
AcDbEntity
  8
0
  6
Continuous
 62
     5
100
AcDbLine
 10
2633.41778211421
 20
-2568.03039623317
 30
0.0
 11
2633.41778211421
 21
-2358.53039623317
 31
0.0
  0
LINE
  5
53
330
1F
100
AcDbEntity
  8
0
  6
Continuous
 62
     5
100
AcDbLine
 10
2296.90602208128
 20
-2598.03039623317
 30
0.0
 11
2297.78470173772
 21
-2598.03039623317
 31
0.0
  0
LINE
  5
54
330
1F
100
AcDbEntity
  8
0
  6
Continuous
 62
     5
100
AcDbLine
 10
2296.90602208128
 20
-2570.03039623317
 30
0.0
 11
2296.90602208128
 21
-2598.03039623317
 31
0.0
  0
LINE
  5
55
330
1F
100
AcDbEntity
  8
0
  6
Continuous
 62
     5
100
AcDbLine
 10
2632.24620923896
 20
-2568.03039623317
 30
0.0
 11
2804.07315706729
 21
-2568.03039623317
 31
0.0
  0
LINE
  5
56
330
1F
100
AcDbEntity
  8
0
  6
Continuous
 62
     5
100
AcDbLine
 10
2298.90602208128
 20
-2568.03039623317
 30
0.0
 11
2524.7659784986
 21
-2568.03039623317
 31
0.0
  0
LINE
  5
57
330
1F
100
AcDbEntity
  8
0
  6
Continuous
 62
     5
100
AcDbLine
 10
2352.93903067027
 20
-2568.03039623317
 30
0.0
 11
2351.5248171079
 21
-2568.03039623317
 31
0.0
  0
LINE
  5
58
330
1F
100
AcDbEntity
  8
0
  6
Continuous
 62
     5
100
AcDbLine
 10
2524.7659784986
 20
-2568.03039623317
 30
0.0
 11
2578.50609386878
 21
-2568.03039623317
 31
0.0
  0
LINE
  5
59
330
1F
100
AcDbEntity
  8
0
  6
Continuous
 62
     5
100
AcDbLine
 10
2805.48737062966
 20
-2568.03039623317
 30
0.0
 11
2804.07315706729
 21
-2568.03039623317
 31
0.0
  0
LINE
  5
5A
330
1F
100
AcDbEntity
  8
0
  6
Continuous
 62
     5
100
AcDbLine
 10
2578.50609386878
 20
-2568.03039623317
 30
0.0
 11
2632.24620923896
 21
-2568.03039623317
 31
0.0
  0
LINE
  5
5B
330
1F
100
AcDbEntity
  8
0
  6
Continuous
 62
     5
100
AcDbLine
 10
2350.11060354553
 20
-2570.03039623317
 30
0.0
 11
2350.11060354553
 21
-2598.03039623317
 31
0.0
  0
LINE
  5
5C
330
1F
100
AcDbEntity
  8
0
  6
Continuous
 62
     5
100
AcDbLine
 10
2354.35324423264
 20
-2598.03039623317
 30
0.0
 11
2350.11060354553
 21
-2598.03039623317
 31
0.0
  0
LINE
  5
5D
330
1F
100
AcDbEntity
  8
0
  6
Continuous
 62
     5
100
AcDbLine
 10
2350.11060354553
 20
-2570.03039623317
 30
0.0
 11
2350.11060354553
 21
-2598.03039623317
 31
0.0
  0
LINE
  5
5E
330
1F
100
AcDbEntity
  8
0
  6
Continuous
 62
     5
100
AcDbLine
 10
2350.11060354553
 20
-2598.03039623317
 30
0.0
 11
2297.78470173772
 21
-2598.03039623317
 31
0.0
  0
LINE
  5
5F
330
1F
100
AcDbEntity
  8
0
  6
Continuous
 62
     5
100
AcDbLine
 10
2578.50609386878
 20
-2598.03039623317
 30
0.0
 11
2354.35324423264
 21
-2598.03039623317
 31
0.0
  0
LINE
  5
60
330
1F
100
AcDbEntity
  8
0
  6
Continuous
 62
     5
100
AcDbLine
 10
2578.50609386878
 20
-2570.03039623317
 30
0.0
 11
2578.50609386878
 21
-2598.03039623317
 31
0.0
  0
LINE
  5
61
330
1F
100
AcDbEntity
  8
0
  6
Continuous
 62
     5
100
AcDbLine
 10
2578.50609386878
 20
-2570.03039623317
 30
0.0
 11
2578.50609386878
 21
-2598.03039623317
 31
0.0
  0
LINE
  5
62
330
1F
100
AcDbEntity
  8
0
  6
Continuous
 62
     5
100
AcDbLine
 10
2802.65894350492
 20
-2598.03039623317
 30
0.0
 11
2578.50609386878
 21
-2598.03039623317
 31
0.0
  0
LINE
  5
63
330
1F
100
AcDbEntity
  8
0
  6
Continuous
 62
     5
100
AcDbLine
 10
2578.50609386878
 20
-2568.03039623317
 30
0.0
 11
2578.50609386878
 21
-2570.03039623317
 31
0.0
  0
LINE
  5
64
330
1F
100
AcDbEntity
  8
0
  6
Continuous
 62
     5
100
AcDbLine
 10
2578.50609386878
 20
-2568.03039623317
 30
0.0
 11
2858.10616565628
 21
-2568.03039623317
 31
0.0
  0
LINE
  5
65
330
1F
100
AcDbEntity
  8
0
  6
Continuous
 62
     5
100
AcDbLine
 10
2805.48737062966
 20
-2568.03039623317
 30
0.0
 11
2804.07315706729
 21
-2568.03039623317
 31
0.0
  0
LINE
  5
66
330
1F
100
AcDbEntity
  8
0
  6
Continuous
 62
     5
100
AcDbLine
 10
2806.90158419203
 20
-2598.03039623317
 30
0.0
 11
2802.65894350492
 21
-2598.03039623317
 31
0.0
  0
LINE
  5
67
330
1F
100
AcDbEntity
  8
0
  6
Continuous
 62
     5
100
AcDbLine
 10
2806.90158419203
 20
-2570.03039623317
 30
0.0
 11
2806.90158419203
 21
-2598.03039623317
 31
0.0
  0
LINE
  5
68
330
1F
100
AcDbEntity
  8
0
  6
Continuous
 62
     5
100
AcDbLine
 10
2806.90158419203
 20
-2570.03039623317
 30
0.0
 11
2806.90158419203
 21
-2598.03039623317
 31
0.0
  0
LINE
  5
69
330
1F
100
AcDbEntity
  8
0
  6
Continuous
 62
     5
100
AcDbLine
 10
2859.22748599984
 20
-2598.03039623317
 30
0.0
 11
2806.90158419203
 21
-2598.03039623317
 31
0.0
  0
LINE
  5
6A
330
1F
100
AcDbEntity
  8
0
  6
Continuous
 62
     5
100
AcDbLine
 10
2860.10616565628
 20
-2598.03039623317
 30
0.0
 11
2860.10616565628
 21
-2570.03039623317
 31
0.0
  0
LINE
  5
6B
330
1F
100
AcDbEntity
  8
0
  6
Continuous
 62
     5
100
AcDbLine
 10
2860.10616565628
 20
-2598.03039623317
 30
0.0
 11
2859.22748599984
 21
-2598.03039623317
 31
0.0
  0
LINE
  5
6C
330
1F
100
AcDbEntity
  8
0
  6
Continuous
 62
     3
100
AcDbLine
 10
2933.50609386878
 20
-1861.392538
 30
0.0
 11
2328.50609386878
 21
-1861.392538
 31
0.0
  0
LINE
  5
6D
330
1F
100
AcDbEntity
  8
0
  6
Continuous
 62
     7
100
AcDbLine
 10
2328.50609386878
 20
-1956.392538
 30
0.0
 11
2328.50609386878
 21
-2161.392538
 31
0.0
  0
LINE
  5
6E
330
1F
100
AcDbEntity
  8
0
  6
Continuous
 62
     7
100
AcDbLine
 10
2933.50609386878
 20
-2161.392538
 30
0.0
 11
2328.50609386878
 21
-2161.392538
 31
0.0
  0
LINE
  5
6F
330
1F
100
AcDbEntity
  8
0
  6
Continuous
 62
     7
100
AcDbLine
 10
2318.50609386878
 20
-1861.392538
 30
0.0
 11
2223.50609386878
 21
-1861.392538
 31
0.0
  0
LINE
  5
70
330
1F
100
AcDbEntity
  8
0
  6
Continuous
 62
     7
100
AcDbLine
 10
2223.50609386878
 20
-2169.392538
 30
0.0
 11
2223.50609386878
 21
-1861.392538
 31
0.0
  0
LINE
  5
71
330
1F
100
AcDbEntity
  8
1
  6
Continuous
 62
     7
100
AcDbLine
 10
2933.50609386878
 20
-1956.392538
 30
0.0
 11
2933.50609386878
 21
-2161.392538
 31
0.0
  0
LINE
  5
72
330
1F
100
AcDbEntity
  8
1
  6
Continuous
 62
     7
100
AcDbLine
 10
2318.50609386878
 20
-1781.392538
 30
0.0
 11
2318.50609386878
 21
-2169.392538
 31
0.0
  0
LINE
  5
73
330
1F
100
AcDbEntity
  8
1
  6
Continuous
 62
     7
100
AcDbLine
 10
2323.50609386878
 20
-1776.392538
 30
0.0
 11
2325.21927620257
 21
-1776.392538
 31
0.0
  0
LINE
  5
74
330
1F
100
AcDbEntity
  8
1
  6
Continuous
 62
     7
100
AcDbLine
 10
2223.50609386878
 20
-2169.392538
 30
0.0
 11
2933.50609386878
 21
-2169.392538
 31
0.0
  0
LINE
  5
75
330
1F
100
AcDbEntity
  8
1
  6
Continuous
 62
     7
100
AcDbLine
 10
2933.50609386878
 20
-2169.392538
 30
0.0
 11
2933.50609386878
 21
-2354.392538
 31
0.0
  0
LINE
  5
76
330
1F
100
AcDbEntity
  8
1
  6
Continuous
 62
     7
100
AcDbLine
 10
2933.50609386878
 20
-2354.392538
 30
0.0
 11
2223.50609386878
 21
-2354.392538
 31
0.0
  0
LINE
  5
77
330
1F
100
AcDbEntity
  8
1
  6
Continuous
 62
     7
100
AcDbLine
 10
2223.50609386878
 20
-2354.392538
 30
0.0
 11
2223.50609386878
 21
-2169.392538
 31
0.0
  0
LINE
  5
78
330
1F
100
AcDbEntity
  8
1
  6
Continuous
 62
     5
100
AcDbLine
 10
2538.50609386878
 20
-361.530396233165
 30
0.0
 11
2618.50609386878
 21
-361.530396233165
 31
0.0
  0
LINE
  5
79
330
1F
100
AcDbEntity
  8
0
  6
Continuous
 62
     5
100
AcDbLine
 10
2817.02122935205
 20
-601.030396233165
 30
0.0
 11
2339.99095838551
 21
-601.030396233165
 31
0.0
  0
LINE
  5
7A
330
1F
100
AcDbEntity
  8
1
  6
Continuous
 62
     5
100
AcDbLine
 10
2835.70609386878
 20
-596.530396233165
 30
0.0
 11
2321.30609386878
 21
-596.530396233165
 31
0.0
  0
LINE
  5
7B
330
1F
100
AcDbEntity
  8
0
  6
Continuous
 62
     5
100
AcDbLine
 10
2835.70609386878
 20
-571.830396233165
 30
0.0
 11
2835.70609386878
 21
-596.530396233165
 31
0.0
  0
LINE
  5
7C
330
1F
100
AcDbEntity
  8
0
  6
Continuous
 62
     5
100
AcDbLine
 10
2339.99095838551
 20
-601.030396233165
 30
0.0
 11
2327.62730999796
 21
-596.530396233165
 31
0.0
  0
LINE
  5
7D
330
1F
100
AcDbEntity
  8
0
  6
Continuous
 62
     5
100
AcDbLine
 10
2618.50609386878
 20
-569.830396233165
 30
0.0
 11
2618.50609386878
 21
-361.530396233165
 31
0.0
  0
LINE
  5
7E
330
1F
100
AcDbEntity
  8
0
  6
Continuous
 62
     5
100
AcDbLine
 10
2817.02122935205
 20
-601.030396233165
 30
0.0
 11
2829.3848777396
 21
-596.530396233165
 31
0.0
  0
LINE
  5
7F
330
1F
100
AcDbEntity
  8
0
  6
Continuous
 62
     5
100
AcDbLine
 10
2321.30609386878
 20
-596.530396233165
 30
0.0
 11
2321.30609386878
 21
-571.830396233165
 31
0.0
  0
LINE
  5
80
330
1F
100
AcDbEntity
  8
0
  6
Continuous
 62
     5
100
AcDbLine
 10
2323.30609386878
 20
-569.830396233165
 30
0.0
 11
2833.70609386878
 21
-569.830396233165
 31
0.0
  0
LINE
  5
81
330
1F
100
AcDbEntity
  8
0
  6
Continuous
 62
     5
100
AcDbLine
 10
2538.50609386878
 20
-569.830396233165
 30
0.0
 11
2538.50609386878
 21
-361.530396233165
 31
0.0
  0
LINE
  5
82
330
1F
100
AcDbEntity
  8
1
  6
Continuous
 62
     7
100
AcDbLine
 10
2223.50609386878
 20
-354.392538
 30
0.0
 11
2223.50609386878
 21
-169.392538
 31
0.0
  0
LINE
  5
83
330
1F
100
AcDbEntity
  8
1
  6
Continuous
 62
     7
100
AcDbLine
 10
2933.50609386878
 20
-354.392538
 30
0.0
 11
2223.50609386878
 21
-354.392538
 31
0.0
  0
LINE
  5
84
330
1F
100
AcDbEntity
  8
1
  6
Continuous
 62
     7
100
AcDbLine
 10
2933.50609386878
 20
-169.392538
 30
0.0
 11
2933.50609386878
 21
-354.392538
 31
0.0
  0
LINE
  5
85
330
1F
100
AcDbEntity
  8
1
  6
Continuous
 62
     7
100
AcDbLine
 10
2223.50609386878
 20
-169.392538
 30
0.0
 11
2933.50609386878
 21
-169.392538
 31
0.0
  0
LINE
  5
86
330
1F
100
AcDbEntity
  8
1
  6
Continuous
 62
     7
100
AcDbLine
 10
2323.50609386878
 20
223.607462
 30
0.0
 11
2325.21927620257
 21
223.607462
 31
0.0
  0
LINE
  5
87
330
1F
100
AcDbEntity
  8
1
  6
Continuous
 62
     7
100
AcDbLine
 10
2318.50609386878
 20
218.607462
 30
0.0
 11
2318.50609386878
 21
-169.392538
 31
0.0
  0
LINE
  5
88
330
1F
100
AcDbEntity
  8
1
  6
Continuous
 62
     7
100
AcDbLine
 10
2933.50609386878
 20
43.6074619999986
 30
0.0
 11
2933.50609386878
 21
-161.392538
 31
0.0
  0
LINE
  5
89
330
1F
100
AcDbEntity
  8
0
  6
Continuous
 62
     7
100
AcDbLine
 10
2223.50609386878
 20
-169.392538
 30
0.0
 11
2223.50609386878
 21
138.607462
 31
0.0
  0
LINE
  5
8A
330
1F
100
AcDbEntity
  8
0
  6
Continuous
 62
     7
100
AcDbLine
 10
2318.50609386878
 20
138.607462
 30
0.0
 11
2223.50609386878
 21
138.607462
 31
0.0
  0
LINE
  5
8B
330
1F
100
AcDbEntity
  8
0
  6
Continuous
 62
     7
100
AcDbLine
 10
2933.50609386878
 20
-161.392538
 30
0.0
 11
2328.50609386878
 21
-161.392538
 31
0.0
  0
LINE
  5
8C
330
1F
100
AcDbEntity
  8
0
  6
Continuous
 62
     7
100
AcDbLine
 10
2328.50609386878
 20
43.6074619999986
 30
0.0
 11
2328.50609386878
 21
-161.392538
 31
0.0
  0
LINE
  5
8D
330
1F
100
AcDbEntity
  8
0
  6
Continuous
 62
     3
100
AcDbLine
 10
2933.50609386878
 20
138.607462
 30
0.0
 11
2328.50609386878
 21
138.607462
 31
0.0
  0
LINE
  5
8E
330
1F
100
AcDbEntity
  8
0
  6
Continuous
 62
     5
100
AcDbLine
 10
-304.798271124747
 20
-2568.03039623317
 30
0.0
 11
-304.798271124747
 21
-2358.53039623317
 31
0.0
  0
LINE
  5
8F
330
1F
100
AcDbEntity
  8
0
  6
Continuous
 62
     5
100
AcDbLine
 10
-299.141416875254
 20
-2568.03039623317
 30
0.0
 11
-299.141416875254
 21
-2358.53039623317
 31
0.0
  0
LINE
  5
90
330
1F
100
AcDbEntity
  8
0
  6
Continuous
 62
     5
100
AcDbLine
 10
-20.3697722125007
 20
-2598.03039623317
 30
0.0
 11
-21.2484518689412
 21
-2598.03039623317
 31
0.0
  0
LINE
  5
91
330
1F
100
AcDbEntity
  8
0
  6
Continuous
 62
     5
100
AcDbLine
 10
-20.3697722125007
 20
-2598.03039623317
 30
0.0
 11
-20.3697722125007
 21
-2570.03039623317
 31
0.0
  0
LINE
  5
92
330
1F
100
AcDbEntity
  8
0
  6
Continuous
 62
     5
100
AcDbLine
 10
-21.2484518689412
 20
-2598.03039623317
 30
0.0
 11
-73.5743536767459
 21
-2598.03039623317
 31
0.0
  0
LINE
  5
93
330
1F
100
AcDbEntity
  8
0
  6
Continuous
 62
     5
100
AcDbLine
 10
-73.5743536767459
 20
-2570.03039623317
 30
0.0
 11
-73.5743536767459
 21
-2598.03039623317
 31
0.0
  0
LINE
  5
94
330
1F
100
AcDbEntity
  8
0
  6
Continuous
 62
     5
100
AcDbLine
 10
-73.5743536767459
 20
-2570.03039623317
 30
0.0
 11
-73.5743536767459
 21
-2598.03039623317
 31
0.0
  0
LINE
  5
95
330
1F
100
AcDbEntity
  8
0
  6
Continuous
 62
     5
100
AcDbLine
 10
-73.5743536767459
 20
-2598.03039623317
 30
0.0
 11
-77.81699436386501
 21
-2598.03039623317
 31
0.0
  0
LINE
  5
96
330
1F
100
AcDbEntity
  8
0
  6
Continuous
 62
     5
100
AcDbLine
 10
-74.98856723911879
 20
-2568.03039623317
 30
0.0
 11
-76.4027808014916
 21
-2568.03039623317
 31
0.0
  0
LINE
  5
97
330
1F
100
AcDbEntity
  8
0
  6
Continuous
 62
     5
100
AcDbLine
 10
-301.969844000001
 20
-2568.03039623317
 30
0.0
 11
-22.36977221250072
 21
-2568.03039623317
 31
0.0
  0
LINE
  5
98
330
1F
100
AcDbEntity
  8
0
  6
Continuous
 62
     5
100
AcDbLine
 10
-301.969844000001
 20
-2568.03039623317
 30
0.0
 11
-301.969844000001
 21
-2570.03039623317
 31
0.0
  0
LINE
  5
99
330
1F
100
AcDbEntity
  8
0
  6
Continuous
 62
     5
100
AcDbLine
 10
-77.81699436386501
 20
-2598.03039623317
 30
0.0
 11
-301.969844000001
 21
-2598.03039623317
 31
0.0
  0
LINE
  5
9A
330
1F
100
AcDbEntity
  8
0
  6
Continuous
 62
     5
100
AcDbLine
 10
-301.969844000001
 20
-2570.03039623317
 30
0.0
 11
-301.969844000001
 21
-2598.03039623317
 31
0.0
  0
LINE
  5
9B
330
1F
100
AcDbEntity
  8
0
  6
Continuous
 62
     5
100
AcDbLine
 10
-301.969844000001
 20
-2570.03039623317
 30
0.0
 11
-301.969844000001
 21
-2598.03039623317
 31
0.0
  0
LINE
  5
9C
330
1F
100
AcDbEntity
  8
0
  6
Continuous
 62
     5
100
AcDbLine
 10
-301.969844000001
 20
-2598.03039623317
 30
0.0
 11
-526.122693636136
 21
-2598.03039623317
 31
0.0
  0
LINE
  5
9D
330
1F
100
AcDbEntity
  8
0
  6
Continuous
 62
     5
100
AcDbLine
 10
-530.365334323255
 20
-2598.03039623317
 30
0.0
 11
-582.69123613106
 21
-2598.03039623317
 31
0.0
  0
LINE
  5
9E
330
1F
100
AcDbEntity
  8
0
  6
Continuous
 62
     5
100
AcDbLine
 10
-530.365334323255
 20
-2570.03039623317
 30
0.0
 11
-530.365334323255
 21
-2598.03039623317
 31
0.0
  0
LINE
  5
9F
330
1F
100
AcDbEntity
  8
0
  6
Continuous
 62
     5
100
AcDbLine
 10
-526.122693636136
 20
-2598.03039623317
 30
0.0
 11
-530.365334323255
 21
-2598.03039623317
 31
0.0
  0
LINE
  5
A0
330
1F
100
AcDbEntity
  8
0
  6
Continuous
 62
     5
100
AcDbLine
 10
-530.365334323255
 20
-2570.03039623317
 30
0.0
 11
-530.365334323255
 21
-2598.03039623317
 31
0.0
  0
LINE
  5
A1
330
1F
100
AcDbEntity
  8
0
  6
Continuous
 62
     5
100
AcDbLine
 10
-301.969844000001
 20
-2568.03039623317
 30
0.0
 11
-248.229728629823
 21
-2568.03039623317
 31
0.0
  0
LINE
  5
A2
330
1F
100
AcDbEntity
  8
0
  6
Continuous
 62
     5
100
AcDbLine
 10
-74.98856723911879
 20
-2568.03039623317
 30
0.0
 11
-76.4027808014916
 21
-2568.03039623317
 31
0.0
  0
LINE
  5
A3
330
1F
100
AcDbEntity
  8
0
  6
Continuous
 62
     5
100
AcDbLine
 10
-355.709959370178
 20
-2568.03039623317
 30
0.0
 11
-301.969844000001
 21
-2568.03039623317
 31
0.0
  0
LINE
  5
A4
330
1F
100
AcDbEntity
  8
0
  6
Continuous
 62
     5
100
AcDbLine
 10
-527.536907198509
 20
-2568.03039623317
 30
0.0
 11
-528.951120760882
 21
-2568.03039623317
 31
0.0
  0
LINE
  5
A5
330
1F
100
AcDbEntity
  8
0
  6
Continuous
 62
     5
100
AcDbLine
 10
-581.569915787501
 20
-2568.03039623317
 30
0.0
 11
-355.709959370178
 21
-2568.03039623317
 31
0.0
  0
LINE
  5
A6
330
1F
100
AcDbEntity
  8
0
  6
Continuous
 62
     5
100
AcDbLine
 10
-248.229728629823
 20
-2568.03039623317
 30
0.0
 11
-76.40278080149159
 21
-2568.03039623317
 31
0.0
  0
LINE
  5
A7
330
1F
100
AcDbEntity
  8
0
  6
Continuous
 62
     5
100
AcDbLine
 10
-583.569915787501
 20
-2570.03039623317
 30
0.0
 11
-583.569915787501
 21
-2598.03039623317
 31
0.0
  0
LINE
  5
A8
330
1F
100
AcDbEntity
  8
0
  6
Continuous
 62
     5
100
AcDbLine
 10
-583.569915787501
 20
-2598.03039623317
 30
0.0
 11
-582.69123613106
 21
-2598.03039623317
 31
0.0
  0
LINE
  5
A9
330
1F
100
AcDbEntity
  8
0
  6
Continuous
 62
     5
100
AcDbLine
 10
-247.058155754569
 20
-2568.03039623317
 30
0.0
 11
-247.058155754569
 21
-2358.53039623317
 31
0.0
  0
LINE
  5
AA
330
1F
100
AcDbEntity
  8
0
  6
Continuous
 62
     5
100
AcDbLine
 10
-247.058155754569
 20
-2358.53039623317
 30
0.0
 11
-248.229728629824
 21
-2358.53039623317
 31
0.0
  0
LINE
  5
AB
330
1F
100
AcDbEntity
  8
0
  6
Continuous
 62
     5
100
AcDbLine
 10
-356.881532245432
 20
-2568.03039623317
 30
0.0
 11
-356.881532245432
 21
-2358.53039623317
 31
0.0
  0
LINE
  5
AC
330
1F
100
AcDbEntity
  8
0
  6
Continuous
 62
     5
100
AcDbLine
 10
-356.881532245432
 20
-2358.53039623317
 30
0.0
 11
-355.709959370179
 21
-2358.53039623317
 31
0.0
  0
LINE
  5
AD
330
1F
100
AcDbEntity
  8
0
  6
Continuous
 62
     5
100
AcDbLine
 10
-304.798271124747
 20
-2358.53039623317
 30
0.0
 11
-299.141416875254
 21
-2358.53039623317
 31
0.0
  0
LINE
  5
AE
330
1F
100
AcDbEntity
  8
0
  6
Continuous
 62
     5
100
AcDbLine
 10
-299.141416875254
 20
-2358.53039623317
 30
0.0
 11
-248.229728629824
 21
-2358.53039623317
 31
0.0
  0
LINE
  5
AF
330
1F
100
AcDbEntity
  8
0
  6
Continuous
 62
     5
100
AcDbLine
 10
-355.709959370179
 20
-2358.53039623317
 30
0.0
 11
-304.798271124747
 21
-2358.53039623317
 31
0.0
  0
LINE
  5
B0
330
1F
100
AcDbEntity
  8
1
  6
Continuous
 62
     3
100
AcDbLine
 10
-561.969844
 20
-1956.392538
 30
0.0
 11
-561.969844
 21
-1861.392538
 31
0.0
  0
LINE
  5
B1
330
1F
100
AcDbEntity
  8
1
  6
Continuous
 62
     3
100
AcDbLine
 10
-866.969844
 20
-1956.392538
 30
0.0
 11
-561.969844
 21
-1956.392538
 31
0.0
  0
LINE
  5
B2
330
1F
100
AcDbEntity
  8
0
  6
Continuous
 62
     3
100
AcDbLine
 10
-866.969844
 20
-1956.392538
 30
0.0
 11
-866.969844
 21
-1861.392538
 31
0.0
  0
LINE
  5
B3
330
1F
100
AcDbEntity
  8
1
  6
Continuous
 62
     3
100
AcDbLine
 10
-866.969844
 20
-1861.392538
 30
0.0
 11
-561.969844
 21
-1861.392538
 31
0.0
  0
LINE
  5
B4
330
1F
100
AcDbEntity
  8
1
  6
Continuous
 62
     7
100
AcDbLine
 10
-561.969844
 20
-1861.392538
 30
0.0
 11
-551.969844
 21
-1861.392538
 31
0.0
  0
LINE
  5
B5
330
1F
100
AcDbEntity
  8
0
  6
Continuous
 62
     7
100
AcDbLine
 10
-551.969844
 20
-1786.392538
 30
0.0
 11
-551.969844
 21
-2156.392538
 31
0.0
  0
LINE
  5
B6
330
1F
100
AcDbEntity
  8
1
  6
Continuous
 62
     7
100
AcDbLine
 10
-656.969844000001
 20
-2166.392538
 30
0.0
 11
-656.969844000001
 21
-1861.392538
 31
0.0
  0
LINE
  5
B7
330
1F
100
AcDbEntity
  8
1
  6
Continuous
 62
     7
100
AcDbLine
 10
-41.9698440000004
 20
-1861.392538
 30
0.0
 11
-51.969844
 21
-1861.392538
 31
0.0
  0
LINE
  5
B8
330
1F
100
AcDbEntity
  8
1
  6
Continuous
 62
     7
100
AcDbLine
 10
53.0301560000012
 20
-1861.392538
 30
0.0
 11
53.0301560000016
 21
-2169.392538
 31
0.0
  0
LINE
  5
B9
330
1F
100
AcDbEntity
  8
1
  6
Continuous
 62
     7
100
AcDbLine
 10
-41.9698440000004
 20
-1861.392538
 30
0.0
 11
-41.9698440000004
 21
-2169.392538
 31
0.0
  0
LINE
  5
BA
330
1F
100
AcDbEntity
  8
1
  6
Continuous
 62
     7
100
AcDbLine
 10
-656.969844
 20
-2169.392538
 30
0.0
 11
53.03015600000163
 21
-2169.392538
 31
0.0
  0
LINE
  5
BB
330
1F
100
AcDbEntity
  8
1
  6
Continuous
 62
     7
100
AcDbLine
 10
-491.969844
 20
-2354.392538
 30
0.0
 11
-111.969844
 21
-2354.392538
 31
0.0
  0
LINE
  5
BC
330
1F
100
AcDbEntity
  8
0
  6
Continuous
 62
     7
100
AcDbLine
 10
-41.9698440000004
 20
-1861.392538
 30
0.0
 11
53.03015600000119
 21
-1861.392538
 31
0.0
  0
LINE
  5
BD
330
1F
100
AcDbEntity
  8
0
  6
Continuous
 62
     3
100
AcDbLine
 10
-656.969844000001
 20
-1861.392538
 30
0.0
 11
-561.969844
 21
-1861.392538
 31
0.0
  0
LINE
  5
BE
330
1F
100
AcDbEntity
  8
0
  6
Continuous
 62
     7
100
AcDbLine
 10
53.0301560000016
 20
-2169.392538
 30
0.0
 11
53.0301560000003
 21
-2189.392538
 31
0.0
  0
LINE
  5
BF
330
1F
100
AcDbEntity
  8
0
  6
Continuous
 62
     7
100
AcDbLine
 10
-656.969844
 20
-2189.392538
 30
0.0
 11
-656.969844
 21
-2169.392538
 31
0.0
  0
LINE
  5
C0
330
1F
100
AcDbEntity
  8
0
  6
Continuous
 62
     7
100
AcDbLine
 10
-541.969844
 20
-1776.392538
 30
0.0
 11
-61.96984400000008
 21
-1776.392538
 31
0.0
  0
LINE
  5
C1
330
1F
100
AcDbEntity
  8
0
  6
Continuous
 62
     7
100
AcDbLine
 10
-51.9698440000001
 20
-1786.392538
 30
0.0
 11
-51.969844
 21
-2156.392538
 31
0.0
  0
LINE
  5
C2
330
1F
100
AcDbEntity
  8
0
  6
Continuous
 62
     7
100
AcDbLine
 10
-541.969844
 20
-2166.392538
 30
0.0
 11
-61.96984400000002
 21
-2166.392538
 31
0.0
  0
LINE
  5
C3
330
1F
100
AcDbEntity
  8
0
  6
Continuous
 62
     7
100
AcDbLine
 10
-561.969844
 20
-2166.392538
 30
0.0
 11
-656.969844000001
 21
-2166.392538
 31
0.0
  0
LINE
  5
C4
330
1F
100
AcDbEntity
  8
0
  6
Continuous
 62
     7
100
AcDbLine
 10
-561.969844
 20
-166.392538
 30
0.0
 11
-656.969844000001
 21
-166.392538
 31
0.0
  0
LINE
  5
C5
330
1F
100
AcDbEntity
  8
0
  6
Continuous
 62
     7
100
AcDbLine
 10
-541.969844
 20
-166.392537999999
 30
0.0
 11
-61.96984400000002
 21
-166.392537999999
 31
0.0
  0
LINE
  5
C6
330
1F
100
AcDbEntity
  8
0
  6
Continuous
 62
     7
100
AcDbLine
 10
-51.9698440000001
 20
213.607462
 30
0.0
 11
-51.969844
 21
-156.392537999999
 31
0.0
  0
LINE
  5
C7
330
1F
100
AcDbEntity
  8
0
  6
Continuous
 62
     7
100
AcDbLine
 10
-541.969844
 20
223.607462
 30
0.0
 11
-61.96984400000002
 21
223.607462
 31
0.0
  0
LINE
  5
C8
330
1F
100
AcDbEntity
  8
0
  6
Continuous
 62
     7
100
AcDbLine
 10
-656.969844
 20
-189.392538
 30
0.0
 11
-656.969844
 21
-169.392538
 31
0.0
  0
LINE
  5
C9
330
1F
100
AcDbEntity
  8
0
  6
Continuous
 62
     7
100
AcDbLine
 10
53.0301560000003
 20
-169.392538
 30
0.0
 11
53.0301560000003
 21
-189.392538
 31
0.0
  0
LINE
  5
CA
330
1F
100
AcDbEntity
  8
0
  6
Continuous
 62
     5
100
AcDbLine
 10
-341.969844
 20
-569.830396233165
 30
0.0
 11
-341.969844
 21
-361.530396233165
 31
0.0
  0
LINE
  5
CB
330
1F
100
AcDbEntity
  8
0
  6
Continuous
 62
     5
100
AcDbLine
 10
-557.169844000001
 20
-569.830396233165
 30
0.0
 11
-46.76984400000049
 21
-569.830396233165
 31
0.0
  0
LINE
  5
CC
330
1F
100
AcDbEntity
  8
0
  6
Continuous
 62
     5
100
AcDbLine
 10
-559.169844000001
 20
-596.530396233165
 30
0.0
 11
-559.169844000001
 21
-571.830396233165
 31
0.0
  0
LINE
  5
CD
330
1F
100
AcDbEntity
  8
0
  6
Continuous
 62
     5
100
AcDbLine
 10
-63.4547085167283
 20
-601.030396233165
 30
0.0
 11
-51.0910601291839
 21
-596.530396233165
 31
0.0
  0
LINE
  5
CE
330
1F
100
AcDbEntity
  8
0
  6
Continuous
 62
     7
100
AcDbLine
 10
-656.969844000001
 20
138.607462
 30
0.0
 11
-561.969844
 21
138.607462
 31
0.0
  0
LINE
  5
CF
330
1F
100
AcDbEntity
  8
0
  6
Continuous
 62
     7
100
AcDbLine
 10
-41.9698440000005
 20
138.607462
 30
0.0
 11
53.03015600000121
 21
138.607462
 31
0.0
  0
LINE
  5
D0
330
1F
100
AcDbEntity
  8
1
  6
Continuous
 62
     7
100
AcDbLine
 10
-491.969844
 20
-354.392538
 30
0.0
 11
-111.969844
 21
-354.392538
 31
0.0
  0
LINE
  5
D1
330
1F
100
AcDbEntity
  8
1
  6
Continuous
 62
     7
100
AcDbLine
 10
-656.969844
 20
-169.392538
 30
0.0
 11
53.03015600000026
 21
-169.392538
 31
0.0
  0
LINE
  5
D2
330
1F
100
AcDbEntity
  8
0
  6
Continuous
 62
     5
100
AcDbLine
 10
-261.969844
 20
-569.830396233165
 30
0.0
 11
-261.969844
 21
-361.530396233165
 31
0.0
  0
LINE
  5
D3
330
1F
100
AcDbEntity
  8
0
  6
Continuous
 62
     5
100
AcDbLine
 10
-540.484979483273
 20
-601.030396233165
 30
0.0
 11
-552.848627870817
 21
-596.530396233165
 31
0.0
  0
LINE
  5
D4
330
1F
100
AcDbEntity
  8
0
  6
Continuous
 62
     5
100
AcDbLine
 10
-44.7698440000005
 20
-571.830396233165
 30
0.0
 11
-44.7698440000005
 21
-596.530396233165
 31
0.0
  0
LINE
  5
D5
330
1F
100
AcDbEntity
  8
1
  6
Continuous
 62
     5
100
AcDbLine
 10
-44.7698440000005
 20
-596.530396233165
 30
0.0
 11
-559.169844000001
 21
-596.530396233165
 31
0.0
  0
LINE
  5
D6
330
1F
100
AcDbEntity
  8
0
  6
Continuous
 62
     5
100
AcDbLine
 10
-63.4547085167283
 20
-601.030396233165
 30
0.0
 11
-540.484979483273
 21
-601.030396233165
 31
0.0
  0
LINE
  5
D7
330
1F
100
AcDbEntity
  8
1
  6
Continuous
 62
     5
100
AcDbLine
 10
-341.969844
 20
-361.530396233165
 30
0.0
 11
-261.969844
 21
-361.530396233165
 31
0.0
  0
LINE
  5
D8
330
1F
100
AcDbEntity
  8
1
  6
Continuous
 62
     7
100
AcDbLine
 10
-41.9698440000005
 20
138.607462
 30
0.0
 11
-41.9698440000004
 21
-169.392538
 31
0.0
  0
LINE
  5
D9
330
1F
100
AcDbEntity
  8
1
  6
Continuous
 62
     7
100
AcDbLine
 10
53.0301560000012
 20
138.607462
 30
0.0
 11
53.0301560000003
 21
-169.392538
 31
0.0
  0
LINE
  5
DA
330
1F
100
AcDbEntity
  8
1
  6
Continuous
 62
     7
100
AcDbLine
 10
-41.9698440000005
 20
138.607462
 30
0.0
 11
-51.969844
 21
138.607462
 31
0.0
  0
LINE
  5
DB
330
1F
100
AcDbEntity
  8
1
  6
Continuous
 62
     7
100
AcDbLine
 10
-656.969844000001
 20
-166.392538
 30
0.0
 11
-656.969844000001
 21
138.607462
 31
0.0
  0
LINE
  5
DC
330
1F
100
AcDbEntity
  8
0
  6
Continuous
 62
     7
100
AcDbLine
 10
-551.969844
 20
213.607462
 30
0.0
 11
-551.969844
 21
-156.392537999999
 31
0.0
  0
LINE
  5
DD
330
1F
100
AcDbEntity
  8
1
  6
Continuous
 62
     7
100
AcDbLine
 10
-561.969844
 20
138.607462
 30
0.0
 11
-551.969844
 21
138.607462
 31
0.0
  0
LINE
  5
DE
330
1F
100
AcDbEntity
  8
1
  6
Continuous
 62
     3
100
AcDbLine
 10
-866.969844
 20
138.607462
 30
0.0
 11
-561.969844
 21
138.607462
 31
0.0
  0
LINE
  5
DF
330
1F
100
AcDbEntity
  8
0
  6
Continuous
 62
     3
100
AcDbLine
 10
-866.969844
 20
43.6074619999986
 30
0.0
 11
-866.969844
 21
138.607462
 31
0.0
  0
LINE
  5
E0
330
1F
100
AcDbEntity
  8
1
  6
Continuous
 62
     7
100
AcDbLine
 10
-561.969844
 20
138.607462
 30
0.0
 11
-561.969844
 21
-166.392538
 31
0.0
  0
LINE
  5
E1
330
1F
100
AcDbEntity
  8
1
  6
Continuous
 62
     3
100
AcDbLine
 10
-866.969844
 20
43.6074619999986
 30
0.0
 11
-561.969844
 21
43.6074619999986
 31
0.0
  0
LINE
  5
E2
330
1F
100
AcDbEntity
  8
1
  6
Continuous
 62
     3
100
AcDbLine
 10
-561.969844
 20
43.6074619999986
 30
0.0
 11
-561.969844
 21
138.607462
 31
0.0
  0
LINE
  5
E3
330
1F
100
AcDbEntity
  8
1
  6
Continuous
 62
     3
100
AcDbLine
 10
-561.969844
 20
-3956.392538
 30
0.0
 11
-561.969844
 21
-3861.392538
 31
0.0
  0
LINE
  5
E4
330
1F
100
AcDbEntity
  8
1
  6
Continuous
 62
     3
100
AcDbLine
 10
-866.969844
 20
-3956.392538
 30
0.0
 11
-561.969844
 21
-3956.392538
 31
0.0
  0
LINE
  5
E5
330
1F
100
AcDbEntity
  8
1
  6
Continuous
 62
     7
100
AcDbLine
 10
-561.969844
 20
-3861.392538
 30
0.0
 11
-561.969844
 21
-4166.392538
 31
0.0
  0
LINE
  5
E6
330
1F
100
AcDbEntity
  8
0
  6
Continuous
 62
     3
100
AcDbLine
 10
-866.969844
 20
-3956.392538
 30
0.0
 11
-866.969844
 21
-3861.392538
 31
0.0
  0
LINE
  5
E7
330
1F
100
AcDbEntity
  8
1
  6
Continuous
 62
     3
100
AcDbLine
 10
-866.969844
 20
-3861.392538
 30
0.0
 11
-561.969844
 21
-3861.392538
 31
0.0
  0
LINE
  5
E8
330
1F
100
AcDbEntity
  8
1
  6
Continuous
 62
     7
100
AcDbLine
 10
-561.969844
 20
-3861.392538
 30
0.0
 11
-551.969844
 21
-3861.392538
 31
0.0
  0
LINE
  5
E9
330
1F
100
AcDbEntity
  8
0
  6
Continuous
 62
     7
100
AcDbLine
 10
-551.969844
 20
-3786.392538
 30
0.0
 11
-551.969844
 21
-4156.392538
 31
0.0
  0
LINE
  5
EA
330
1F
100
AcDbEntity
  8
1
  6
Continuous
 62
     7
100
AcDbLine
 10
-656.969844000001
 20
-4166.392538
 30
0.0
 11
-656.969844000001
 21
-3861.392538
 31
0.0
  0
LINE
  5
EB
330
1F
100
AcDbEntity
  8
1
  6
Continuous
 62
     7
100
AcDbLine
 10
-41.9698440000005
 20
-3861.392538
 30
0.0
 11
-51.969844
 21
-3861.392538
 31
0.0
  0
LINE
  5
EC
330
1F
100
AcDbEntity
  8
1
  6
Continuous
 62
     7
100
AcDbLine
 10
53.0301560000012
 20
-3861.392538
 30
0.0
 11
53.0301560000003
 21
-4169.392538
 31
0.0
  0
LINE
  5
ED
330
1F
100
AcDbEntity
  8
1
  6
Continuous
 62
     7
100
AcDbLine
 10
-41.9698440000005
 20
-3861.392538
 30
0.0
 11
-41.9698440000004
 21
-4169.392538
 31
0.0
  0
LINE
  5
EE
330
1F
100
AcDbEntity
  8
1
  6
Continuous
 62
     5
100
AcDbLine
 10
-341.969844
 20
-4361.53039623317
 30
0.0
 11
-261.969844
 21
-4361.53039623317
 31
0.0
  0
LINE
  5
EF
330
1F
100
AcDbEntity
  8
0
  6
Continuous
 62
     5
100
AcDbLine
 10
-63.4547085167283
 20
-4561.03039623317
 30
0.0
 11
-540.484979483273
 21
-4561.03039623317
 31
0.0
  0
LINE
  5
F0
330
1F
100
AcDbEntity
  8
1
  6
Continuous
 62
     5
100
AcDbLine
 10
-44.7698440000005
 20
-4556.53039623317
 30
0.0
 11
-559.169844000001
 21
-4556.53039623317
 31
0.0
  0
LINE
  5
F1
330
1F
100
AcDbEntity
  8
0
  6
Continuous
 62
     5
100
AcDbLine
 10
-44.7698440000005
 20
-4531.83039623317
 30
0.0
 11
-44.7698440000005
 21
-4556.53039623317
 31
0.0
  0
LINE
  5
F2
330
1F
100
AcDbEntity
  8
0
  6
Continuous
 62
     5
100
AcDbLine
 10
-540.484979483273
 20
-4561.03039623317
 30
0.0
 11
-552.848627870817
 21
-4556.53039623317
 31
0.0
  0
LINE
  5
F3
330
1F
100
AcDbEntity
  8
0
  6
Continuous
 62
     5
100
AcDbLine
 10
-261.969844
 20
-4529.83039623317
 30
0.0
 11
-261.969844
 21
-4361.53039623317
 31
0.0
  0
LINE
  5
F4
330
1F
100
AcDbEntity
  8
1
  6
Continuous
 62
     7
100
AcDbLine
 10
-656.969844
 20
-4169.392538
 30
0.0
 11
53.03015600000026
 21
-4169.392538
 31
0.0
  0
LINE
  5
F5
330
1F
100
AcDbEntity
  8
1
  6
Continuous
 62
     7
100
AcDbLine
 10
-491.969844
 20
-4354.392538
 30
0.0
 11
-111.969844
 21
-4354.392538
 31
0.0
  0
LINE
  5
F6
330
1F
100
AcDbEntity
  8
0
  6
Continuous
 62
     7
100
AcDbLine
 10
-41.9698440000005
 20
-3861.392538
 30
0.0
 11
53.03015600000121
 21
-3861.392538
 31
0.0
  0
LINE
  5
F7
330
1F
100
AcDbEntity
  8
0
  6
Continuous
 62
     7
100
AcDbLine
 10
-656.969844000001
 20
-3861.392538
 30
0.0
 11
-561.969844
 21
-3861.392538
 31
0.0
  0
LINE
  5
F8
330
1F
100
AcDbEntity
  8
0
  6
Continuous
 62
     5
100
AcDbLine
 10
-63.4547085167283
 20
-4561.03039623317
 30
0.0
 11
-51.0910601291839
 21
-4556.53039623317
 31
0.0
  0
LINE
  5
F9
330
1F
100
AcDbEntity
  8
0
  6
Continuous
 62
     5
100
AcDbLine
 10
-559.169844000001
 20
-4556.53039623317
 30
0.0
 11
-559.169844000001
 21
-4531.83039623317
 31
0.0
  0
LINE
  5
FA
330
1F
100
AcDbEntity
  8
0
  6
Continuous
 62
     5
100
AcDbLine
 10
-557.169844000001
 20
-4529.83039623317
 30
0.0
 11
-46.76984400000049
 21
-4529.83039623317
 31
0.0
  0
LINE
  5
FB
330
1F
100
AcDbEntity
  8
0
  6
Continuous
 62
     5
100
AcDbLine
 10
-341.969844
 20
-4529.83039623317
 30
0.0
 11
-341.969844
 21
-4361.53039623317
 31
0.0
  0
LINE
  5
FC
330
1F
100
AcDbEntity
  8
0
  6
Continuous
 62
     7
100
AcDbLine
 10
53.0301560000003
 20
-4169.392538
 30
0.0
 11
53.0301560000003
 21
-4189.392538
 31
0.0
  0
LINE
  5
FD
330
1F
100
AcDbEntity
  8
0
  6
Continuous
 62
     7
100
AcDbLine
 10
-656.969844
 20
-4189.392538
 30
0.0
 11
-656.969844
 21
-4169.392538
 31
0.0
  0
LINE
  5
FE
330
1F
100
AcDbEntity
  8
0
  6
Continuous
 62
     7
100
AcDbLine
 10
-541.969844
 20
-3776.392538
 30
0.0
 11
-61.96984400000002
 21
-3776.392538
 31
0.0
  0
LINE
  5
FF
330
1F
100
AcDbEntity
  8
0
  6
Continuous
 62
     7
100
AcDbLine
 10
-51.9698440000001
 20
-3786.392538
 30
0.0
 11
-51.969844
 21
-4156.392538
 31
0.0
  0
LINE
  5
100
330
1F
100
AcDbEntity
  8
0
  6
Continuous
 62
     7
100
AcDbLine
 10
-541.969844
 20
-4166.392538
 30
0.0
 11
-61.96984400000002
 21
-4166.392538
 31
0.0
  0
LINE
  5
101
330
1F
100
AcDbEntity
  8
0
  6
Continuous
 62
     7
100
AcDbLine
 10
-561.969844
 20
-4166.392538
 30
0.0
 11
-656.969844000001
 21
-4166.392538
 31
0.0
  0
LINE
  5
102
330
1F
100
AcDbEntity
  8
0
  6
Continuous
 62
     7
100
AcDbLine
 10
-561.969844
 20
-6166.392538
 30
0.0
 11
-656.969844000001
 21
-6166.392538
 31
0.0
  0
LINE
  5
103
330
1F
100
AcDbEntity
  8
0
  6
Continuous
 62
     7
100
AcDbLine
 10
-541.969844
 20
-6166.392538
 30
0.0
 11
-61.96984400000002
 21
-6166.392538
 31
0.0
  0
LINE
  5
104
330
1F
100
AcDbEntity
  8
0
  6
Continuous
 62
     7
100
AcDbLine
 10
-51.9698440000001
 20
-5786.392538
 30
0.0
 11
-51.969844
 21
-6156.392538
 31
0.0
  0
LINE
  5
105
330
1F
100
AcDbEntity
  8
0
  6
Continuous
 62
     7
100
AcDbLine
 10
-541.969844
 20
-5776.392538
 30
0.0
 11
-61.96984400000008
 21
-5776.392538
 31
0.0
  0
LINE
  5
106
330
1F
100
AcDbEntity
  8
0
  6
Continuous
 62
     7
100
AcDbLine
 10
-656.969844
 20
-6189.392538
 30
0.0
 11
-656.969844
 21
-6169.392538
 31
0.0
  0
LINE
  5
107
330
1F
100
AcDbEntity
  8
0
  6
Continuous
 62
     7
100
AcDbLine
 10
53.0301560000016
 20
-6169.392538
 30
0.0
 11
53.0301560000003
 21
-6189.392538
 31
0.0
  0
LINE
  5
108
330
1F
100
AcDbEntity
  8
0
  6
Continuous
 62
     3
100
AcDbLine
 10
-656.969844000001
 20
-5861.392538
 30
0.0
 11
-561.969844
 21
-5861.392538
 31
0.0
  0
LINE
  5
109
330
1F
100
AcDbEntity
  8
0
  6
Continuous
 62
     7
100
AcDbLine
 10
-41.9698440000004
 20
-5861.392538
 30
0.0
 11
53.03015600000119
 21
-5861.392538
 31
0.0
  0
LINE
  5
10A
330
1F
100
AcDbEntity
  8
1
  6
Continuous
 62
     7
100
AcDbLine
 10
-491.969844
 20
-6354.392538
 30
0.0
 11
-111.969844
 21
-6354.392538
 31
0.0
  0
LINE
  5
10B
330
1F
100
AcDbEntity
  8
1
  6
Continuous
 62
     7
100
AcDbLine
 10
-656.969844
 20
-6169.392538
 30
0.0
 11
53.03015600000163
 21
-6169.392538
 31
0.0
  0
LINE
  5
10C
330
1F
100
AcDbEntity
  8
1
  6
Continuous
 62
     7
100
AcDbLine
 10
-41.9698440000004
 20
-5861.392538
 30
0.0
 11
-41.9698440000004
 21
-6169.392538
 31
0.0
  0
LINE
  5
10D
330
1F
100
AcDbEntity
  8
1
  6
Continuous
 62
     7
100
AcDbLine
 10
53.0301560000012
 20
-5861.392538
 30
0.0
 11
53.0301560000016
 21
-6169.392538
 31
0.0
  0
LINE
  5
10E
330
1F
100
AcDbEntity
  8
1
  6
Continuous
 62
     7
100
AcDbLine
 10
-41.9698440000004
 20
-5861.392538
 30
0.0
 11
-51.969844
 21
-5861.392538
 31
0.0
  0
LINE
  5
10F
330
1F
100
AcDbEntity
  8
1
  6
Continuous
 62
     7
100
AcDbLine
 10
-656.969844000001
 20
-6166.392538
 30
0.0
 11
-656.969844000001
 21
-5861.392538
 31
0.0
  0
LINE
  5
110
330
1F
100
AcDbEntity
  8
0
  6
Continuous
 62
     7
100
AcDbLine
 10
-551.969844
 20
-5786.392538
 30
0.0
 11
-551.969844
 21
-6156.392538
 31
0.0
  0
LINE
  5
111
330
1F
100
AcDbEntity
  8
1
  6
Continuous
 62
     7
100
AcDbLine
 10
-561.969844
 20
-5861.392538
 30
0.0
 11
-551.969844
 21
-5861.392538
 31
0.0
  0
LINE
  5
112
330
1F
100
AcDbEntity
  8
1
  6
Continuous
 62
     3
100
AcDbLine
 10
-866.969844
 20
-5861.392538
 30
0.0
 11
-561.969844
 21
-5861.392538
 31
0.0
  0
LINE
  5
113
330
1F
100
AcDbEntity
  8
0
  6
Continuous
 62
     3
100
AcDbLine
 10
-866.969844
 20
-5956.392538
 30
0.0
 11
-866.969844
 21
-5861.392538
 31
0.0
  0
LINE
  5
114
330
1F
100
AcDbEntity
  8
1
  6
Continuous
 62
     3
100
AcDbLine
 10
-866.969844
 20
-5956.392538
 30
0.0
 11
-561.969844
 21
-5956.392538
 31
0.0
  0
LINE
  5
115
330
1F
100
AcDbEntity
  8
1
  6
Continuous
 62
     3
100
AcDbLine
 10
-561.969844
 20
-5956.392538
 30
0.0
 11
-561.969844
 21
-5861.392538
 31
0.0
  0
LINE
  5
116
330
1F
100
AcDbEntity
  8
0
  6
Continuous
 62
     5
100
AcDbLine
 10
-355.709959370179
 20
-6358.53039623317
 30
0.0
 11
-304.798271124747
 21
-6358.53039623317
 31
0.0
  0
LINE
  5
117
330
1F
100
AcDbEntity
  8
0
  6
Continuous
 62
     5
100
AcDbLine
 10
-299.141416875254
 20
-6358.53039623317
 30
0.0
 11
-248.229728629824
 21
-6358.53039623317
 31
0.0
  0
LINE
  5
118
330
1F
100
AcDbEntity
  8
0
  6
Continuous
 62
     5
100
AcDbLine
 10
-304.798271124747
 20
-6358.53039623317
 30
0.0
 11
-299.141416875254
 21
-6358.53039623317
 31
0.0
  0
LINE
  5
119
330
1F
100
AcDbEntity
  8
0
  6
Continuous
 62
     5
100
AcDbLine
 10
-356.881532245432
 20
-6358.53039623317
 30
0.0
 11
-355.709959370179
 21
-6358.53039623317
 31
0.0
  0
LINE
  5
11A
330
1F
100
AcDbEntity
  8
0
  6
Continuous
 62
     5
100
AcDbLine
 10
-356.881532245432
 20
-6528.03039623317
 30
0.0
 11
-356.881532245432
 21
-6358.53039623317
 31
0.0
  0
LINE
  5
11B
330
1F
100
AcDbEntity
  8
0
  6
Continuous
 62
     5
100
AcDbLine
 10
-247.058155754569
 20
-6358.53039623317
 30
0.0
 11
-248.229728629824
 21
-6358.53039623317
 31
0.0
  0
LINE
  5
11C
330
1F
100
AcDbEntity
  8
0
  6
Continuous
 62
     5
100
AcDbLine
 10
-247.058155754569
 20
-6528.03039623317
 30
0.0
 11
-247.058155754569
 21
-6358.53039623317
 31
0.0
  0
LINE
  5
11D
330
1F
100
AcDbEntity
  8
0
  6
Continuous
 62
     5
100
AcDbLine
 10
-583.569915787501
 20
-6558.03039623317
 30
0.0
 11
-582.69123613106
 21
-6558.03039623317
 31
0.0
  0
LINE
  5
11E
330
1F
100
AcDbEntity
  8
0
  6
Continuous
 62
     5
100
AcDbLine
 10
-583.569915787501
 20
-6530.03039623317
 30
0.0
 11
-583.569915787501
 21
-6558.03039623317
 31
0.0
  0
LINE
  5
11F
330
1F
100
AcDbEntity
  8
0
  6
Continuous
 62
     5
100
AcDbLine
 10
-248.229728629823
 20
-6528.03039623317
 30
0.0
 11
-76.40278080149159
 21
-6528.03039623317
 31
0.0
  0
LINE
  5
120
330
1F
100
AcDbEntity
  8
0
  6
Continuous
 62
     5
100
AcDbLine
 10
-581.569915787501
 20
-6528.03039623317
 30
0.0
 11
-355.709959370178
 21
-6528.03039623317
 31
0.0
  0
LINE
  5
121
330
1F
100
AcDbEntity
  8
0
  6
Continuous
 62
     5
100
AcDbLine
 10
-527.536907198509
 20
-6528.03039623317
 30
0.0
 11
-528.951120760882
 21
-6528.03039623317
 31
0.0
  0
LINE
  5
122
330
1F
100
AcDbEntity
  8
0
  6
Continuous
 62
     5
100
AcDbLine
 10
-355.709959370178
 20
-6528.03039623317
 30
0.0
 11
-301.969844000001
 21
-6528.03039623317
 31
0.0
  0
LINE
  5
123
330
1F
100
AcDbEntity
  8
0
  6
Continuous
 62
     5
100
AcDbLine
 10
-74.98856723911879
 20
-6528.03039623317
 30
0.0
 11
-76.4027808014916
 21
-6528.03039623317
 31
0.0
  0
LINE
  5
124
330
1F
100
AcDbEntity
  8
0
  6
Continuous
 62
     5
100
AcDbLine
 10
-301.969844000001
 20
-6528.03039623317
 30
0.0
 11
-248.229728629823
 21
-6528.03039623317
 31
0.0
  0
LINE
  5
125
330
1F
100
AcDbEntity
  8
0
  6
Continuous
 62
     5
100
AcDbLine
 10
-530.365334323255
 20
-6530.03039623317
 30
0.0
 11
-530.365334323255
 21
-6558.03039623317
 31
0.0
  0
LINE
  5
126
330
1F
100
AcDbEntity
  8
0
  6
Continuous
 62
     5
100
AcDbLine
 10
-526.122693636136
 20
-6558.03039623317
 30
0.0
 11
-530.365334323255
 21
-6558.03039623317
 31
0.0
  0
LINE
  5
127
330
1F
100
AcDbEntity
  8
0
  6
Continuous
 62
     5
100
AcDbLine
 10
-530.365334323255
 20
-6530.03039623317
 30
0.0
 11
-530.365334323255
 21
-6558.03039623317
 31
0.0
  0
LINE
  5
128
330
1F
100
AcDbEntity
  8
0
  6
Continuous
 62
     5
100
AcDbLine
 10
-530.365334323255
 20
-6558.03039623317
 30
0.0
 11
-582.69123613106
 21
-6558.03039623317
 31
0.0
  0
LINE
  5
129
330
1F
100
AcDbEntity
  8
0
  6
Continuous
 62
     5
100
AcDbLine
 10
-301.969844000001
 20
-6558.03039623317
 30
0.0
 11
-526.122693636136
 21
-6558.03039623317
 31
0.0
  0
LINE
  5
12A
330
1F
100
AcDbEntity
  8
0
  6
Continuous
 62
     5
100
AcDbLine
 10
-301.969844000001
 20
-6530.03039623317
 30
0.0
 11
-301.969844000001
 21
-6558.03039623317
 31
0.0
  0
LINE
  5
12B
330
1F
100
AcDbEntity
  8
0
  6
Continuous
 62
     5
100
AcDbLine
 10
-301.969844000001
 20
-6530.03039623317
 30
0.0
 11
-301.969844000001
 21
-6558.03039623317
 31
0.0
  0
LINE
  5
12C
330
1F
100
AcDbEntity
  8
0
  6
Continuous
 62
     5
100
AcDbLine
 10
-77.81699436386501
 20
-6558.03039623317
 30
0.0
 11
-301.969844000001
 21
-6558.03039623317
 31
0.0
  0
LINE
  5
12D
330
1F
100
AcDbEntity
  8
0
  6
Continuous
 62
     5
100
AcDbLine
 10
-301.969844000001
 20
-6528.03039623317
 30
0.0
 11
-301.969844000001
 21
-6530.03039623317
 31
0.0
  0
LINE
  5
12E
330
1F
100
AcDbEntity
  8
0
  6
Continuous
 62
     5
100
AcDbLine
 10
-301.969844000001
 20
-6528.03039623317
 30
0.0
 11
-22.36977221250072
 21
-6528.03039623317
 31
0.0
  0
LINE
  5
12F
330
1F
100
AcDbEntity
  8
0
  6
Continuous
 62
     5
100
AcDbLine
 10
-74.98856723911879
 20
-6528.03039623317
 30
0.0
 11
-76.4027808014916
 21
-6528.03039623317
 31
0.0
  0
LINE
  5
130
330
1F
100
AcDbEntity
  8
0
  6
Continuous
 62
     5
100
AcDbLine
 10
-73.5743536767459
 20
-6558.03039623317
 30
0.0
 11
-77.81699436386501
 21
-6558.03039623317
 31
0.0
  0
LINE
  5
131
330
1F
100
AcDbEntity
  8
0
  6
Continuous
 62
     5
100
AcDbLine
 10
-73.5743536767459
 20
-6530.03039623317
 30
0.0
 11
-73.5743536767459
 21
-6558.03039623317
 31
0.0
  0
LINE
  5
132
330
1F
100
AcDbEntity
  8
0
  6
Continuous
 62
     5
100
AcDbLine
 10
-73.5743536767459
 20
-6530.03039623317
 30
0.0
 11
-73.5743536767459
 21
-6558.03039623317
 31
0.0
  0
LINE
  5
133
330
1F
100
AcDbEntity
  8
0
  6
Continuous
 62
     5
100
AcDbLine
 10
-21.2484518689412
 20
-6558.03039623317
 30
0.0
 11
-73.5743536767459
 21
-6558.03039623317
 31
0.0
  0
LINE
  5
134
330
1F
100
AcDbEntity
  8
0
  6
Continuous
 62
     5
100
AcDbLine
 10
-20.3697722125007
 20
-6558.03039623317
 30
0.0
 11
-20.3697722125007
 21
-6530.03039623317
 31
0.0
  0
LINE
  5
135
330
1F
100
AcDbEntity
  8
0
  6
Continuous
 62
     5
100
AcDbLine
 10
-20.3697722125007
 20
-6558.03039623317
 30
0.0
 11
-21.2484518689412
 21
-6558.03039623317
 31
0.0
  0
LINE
  5
136
330
1F
100
AcDbEntity
  8
0
  6
Continuous
 62
     5
100
AcDbLine
 10
-299.141416875254
 20
-6528.03039623317
 30
0.0
 11
-299.141416875254
 21
-6358.53039623317
 31
0.0
  0
LINE
  5
137
330
1F
100
AcDbEntity
  8
0
  6
Continuous
 62
     5
100
AcDbLine
 10
-304.798271124747
 20
-6528.03039623317
 30
0.0
 11
-304.798271124747
 21
-6358.53039623317
 31
0.0
  0
LINE
  5
138
330
1F
100
AcDbEntity
  8
0
  6
Continuous
 62
     3
100
AcDbLine
 10
2933.50609386878
 20
-3861.392538
 30
0.0
 11
2328.50609386878
 21
-3861.392538
 31
0.0
  0
LINE
  5
139
330
1F
100
AcDbEntity
  8
0
  6
Continuous
 62
     7
100
AcDbLine
 10
2328.50609386878
 20
-3956.392538
 30
0.0
 11
2328.50609386878
 21
-4161.392538
 31
0.0
  0
LINE
  5
13A
330
1F
100
AcDbEntity
  8
0
  6
Continuous
 62
     7
100
AcDbLine
 10
2933.50609386878
 20
-4161.392538
 30
0.0
 11
2328.50609386878
 21
-4161.392538
 31
0.0
  0
LINE
  5
13B
330
1F
100
AcDbEntity
  8
0
  6
Continuous
 62
     7
100
AcDbLine
 10
2318.50609386878
 20
-3861.392538
 30
0.0
 11
2223.50609386878
 21
-3861.392538
 31
0.0
  0
LINE
  5
13C
330
1F
100
AcDbEntity
  8
0
  6
Continuous
 62
     7
100
AcDbLine
 10
2223.50609386878
 20
-4169.392538
 30
0.0
 11
2223.50609386878
 21
-3861.392538
 31
0.0
  0
LINE
  5
13D
330
1F
100
AcDbEntity
  8
1
  6
Continuous
 62
     7
100
AcDbLine
 10
2933.50609386878
 20
-3956.392538
 30
0.0
 11
2933.50609386878
 21
-4161.392538
 31
0.0
  0
LINE
  5
13E
330
1F
100
AcDbEntity
  8
1
  6
Continuous
 62
     7
100
AcDbLine
 10
2318.50609386878
 20
-3781.392538
 30
0.0
 11
2318.50609386878
 21
-4169.392538
 31
0.0
  0
LINE
  5
13F
330
1F
100
AcDbEntity
  8
1
  6
Continuous
 62
     7
100
AcDbLine
 10
2323.50609386878
 20
-3776.392538
 30
0.0
 11
2325.21927620257
 21
-3776.392538
 31
0.0
  0
LINE
  5
140
330
1F
100
AcDbEntity
  8
1
  6
Continuous
 62
     7
100
AcDbLine
 10
2223.50609386878
 20
-4169.392538
 30
0.0
 11
2933.50609386878
 21
-4169.392538
 31
0.0
  0
LINE
  5
141
330
1F
100
AcDbEntity
  8
1
  6
Continuous
 62
     7
100
AcDbLine
 10
2933.50609386878
 20
-4169.392538
 30
0.0
 11
2933.50609386878
 21
-4354.392538
 31
0.0
  0
LINE
  5
142
330
1F
100
AcDbEntity
  8
1
  6
Continuous
 62
     7
100
AcDbLine
 10
2933.50609386878
 20
-4354.392538
 30
0.0
 11
2223.50609386878
 21
-4354.392538
 31
0.0
  0
LINE
  5
143
330
1F
100
AcDbEntity
  8
1
  6
Continuous
 62
     7
100
AcDbLine
 10
2223.50609386878
 20
-4354.392538
 30
0.0
 11
2223.50609386878
 21
-4169.392538
 31
0.0
  0
LINE
  5
144
330
1F
100
AcDbEntity
  8
0
  6
Continuous
 62
     5
100
AcDbLine
 10
2538.50609386878
 20
-4529.83039623317
 30
0.0
 11
2538.50609386878
 21
-4361.53039623317
 31
0.0
  0
LINE
  5
145
330
1F
100
AcDbEntity
  8
0
  6
Continuous
 62
     5
100
AcDbLine
 10
2323.30609386878
 20
-4529.83039623317
 30
0.0
 11
2833.70609386878
 21
-4529.83039623317
 31
0.0
  0
LINE
  5
146
330
1F
100
AcDbEntity
  8
0
  6
Continuous
 62
     5
100
AcDbLine
 10
2321.30609386878
 20
-4556.53039623317
 30
0.0
 11
2321.30609386878
 21
-4531.83039623317
 31
0.0
  0
LINE
  5
147
330
1F
100
AcDbEntity
  8
0
  6
Continuous
 62
     5
100
AcDbLine
 10
2817.02122935205
 20
-4561.03039623317
 30
0.0
 11
2829.3848777396
 21
-4556.53039623317
 31
0.0
  0
LINE
  5
148
330
1F
100
AcDbEntity
  8
0
  6
Continuous
 62
     5
100
AcDbLine
 10
2618.50609386878
 20
-4529.83039623317
 30
0.0
 11
2618.50609386878
 21
-4361.53039623317
 31
0.0
  0
LINE
  5
149
330
1F
100
AcDbEntity
  8
0
  6
Continuous
 62
     5
100
AcDbLine
 10
2339.99095838551
 20
-4561.03039623317
 30
0.0
 11
2327.62730999796
 21
-4556.53039623317
 31
0.0
  0
LINE
  5
14A
330
1F
100
AcDbEntity
  8
0
  6
Continuous
 62
     5
100
AcDbLine
 10
2835.70609386878
 20
-4531.83039623317
 30
0.0
 11
2835.70609386878
 21
-4556.53039623317
 31
0.0
  0
LINE
  5
14B
330
1F
100
AcDbEntity
  8
1
  6
Continuous
 62
     5
100
AcDbLine
 10
2835.70609386878
 20
-4556.53039623317
 30
0.0
 11
2321.30609386878
 21
-4556.53039623317
 31
0.0
  0
LINE
  5
14C
330
1F
100
AcDbEntity
  8
0
  6
Continuous
 62
     5
100
AcDbLine
 10
2817.02122935205
 20
-4561.03039623317
 30
0.0
 11
2339.99095838551
 21
-4561.03039623317
 31
0.0
  0
LINE
  5
14D
330
1F
100
AcDbEntity
  8
1
  6
Continuous
 62
     5
100
AcDbLine
 10
2538.50609386878
 20
-4361.53039623317
 30
0.0
 11
2618.50609386878
 21
-4361.53039623317
 31
0.0
  0
LINE
  5
14E
330
1F
100
AcDbEntity
  8
1
  6
Continuous
 62
     7
100
AcDbLine
 10
2223.50609386878
 20
-6354.392538
 30
0.0
 11
2223.50609386878
 21
-6169.392538
 31
0.0
  0
LINE
  5
14F
330
1F
100
AcDbEntity
  8
1
  6
Continuous
 62
     7
100
AcDbLine
 10
2933.50609386878
 20
-6354.392538
 30
0.0
 11
2223.50609386878
 21
-6354.392538
 31
0.0
  0
LINE
  5
150
330
1F
100
AcDbEntity
  8
1
  6
Continuous
 62
     7
100
AcDbLine
 10
2933.50609386878
 20
-6169.392538
 30
0.0
 11
2933.50609386878
 21
-6354.392538
 31
0.0
  0
LINE
  5
151
330
1F
100
AcDbEntity
  8
1
  6
Continuous
 62
     7
100
AcDbLine
 10
2223.50609386878
 20
-6169.392538
 30
0.0
 11
2933.50609386878
 21
-6169.392538
 31
0.0
  0
LINE
  5
152
330
1F
100
AcDbEntity
  8
1
  6
Continuous
 62
     7
100
AcDbLine
 10
2323.50609386878
 20
-5776.392538
 30
0.0
 11
2325.21927620257
 21
-5776.392538
 31
0.0
  0
LINE
  5
153
330
1F
100
AcDbEntity
  8
1
  6
Continuous
 62
     7
100
AcDbLine
 10
2318.50609386878
 20
-5781.392538
 30
0.0
 11
2318.50609386878
 21
-6169.392538
 31
0.0
  0
LINE
  5
154
330
1F
100
AcDbEntity
  8
1
  6
Continuous
 62
     7
100
AcDbLine
 10
2933.50609386878
 20
-5956.392538
 30
0.0
 11
2933.50609386878
 21
-6161.392538
 31
0.0
  0
LINE
  5
155
330
1F
100
AcDbEntity
  8
0
  6
Continuous
 62
     7
100
AcDbLine
 10
2223.50609386878
 20
-6169.392538
 30
0.0
 11
2223.50609386878
 21
-5861.392538
 31
0.0
  0
LINE
  5
156
330
1F
100
AcDbEntity
  8
0
  6
Continuous
 62
     7
100
AcDbLine
 10
2318.50609386878
 20
-5861.392538
 30
0.0
 11
2223.50609386878
 21
-5861.392538
 31
0.0
  0
LINE
  5
157
330
1F
100
AcDbEntity
  8
0
  6
Continuous
 62
     7
100
AcDbLine
 10
2933.50609386878
 20
-6161.392538
 30
0.0
 11
2328.50609386878
 21
-6161.392538
 31
0.0
  0
LINE
  5
158
330
1F
100
AcDbEntity
  8
0
  6
Continuous
 62
     7
100
AcDbLine
 10
2328.50609386878
 20
-5956.392538
 30
0.0
 11
2328.50609386878
 21
-6161.392538
 31
0.0
  0
LINE
  5
159
330
1F
100
AcDbEntity
  8
0
  6
Continuous
 62
     3
100
AcDbLine
 10
2933.50609386878
 20
-5861.392538
 30
0.0
 11
2328.50609386878
 21
-5861.392538
 31
0.0
  0
LINE
  5
15A
330
1F
100
AcDbEntity
  8
0
  6
Continuous
 62
     5
100
AcDbLine
 10
2860.10616565628
 20
-6558.03039623317
 30
0.0
 11
2859.22748599984
 21
-6558.03039623317
 31
0.0
  0
LINE
  5
15B
330
1F
100
AcDbEntity
  8
0
  6
Continuous
 62
     5
100
AcDbLine
 10
2860.10616565628
 20
-6558.03039623317
 30
0.0
 11
2860.10616565628
 21
-6530.03039623317
 31
0.0
  0
LINE
  5
15C
330
1F
100
AcDbEntity
  8
0
  6
Continuous
 62
     5
100
AcDbLine
 10
2859.22748599984
 20
-6558.03039623317
 30
0.0
 11
2806.90158419203
 21
-6558.03039623317
 31
0.0
  0
LINE
  5
15D
330
1F
100
AcDbEntity
  8
0
  6
Continuous
 62
     5
100
AcDbLine
 10
2806.90158419203
 20
-6530.03039623317
 30
0.0
 11
2806.90158419203
 21
-6558.03039623317
 31
0.0
  0
LINE
  5
15E
330
1F
100
AcDbEntity
  8
0
  6
Continuous
 62
     5
100
AcDbLine
 10
2806.90158419203
 20
-6530.03039623317
 30
0.0
 11
2806.90158419203
 21
-6558.03039623317
 31
0.0
  0
LINE
  5
15F
330
1F
100
AcDbEntity
  8
0
  6
Continuous
 62
     5
100
AcDbLine
 10
2806.90158419203
 20
-6558.03039623317
 30
0.0
 11
2802.65894350492
 21
-6558.03039623317
 31
0.0
  0
LINE
  5
160
330
1F
100
AcDbEntity
  8
0
  6
Continuous
 62
     5
100
AcDbLine
 10
2805.48737062966
 20
-6528.03039623317
 30
0.0
 11
2804.07315706729
 21
-6528.03039623317
 31
0.0
  0
LINE
  5
161
330
1F
100
AcDbEntity
  8
0
  6
Continuous
 62
     5
100
AcDbLine
 10
2578.50609386878
 20
-6528.03039623317
 30
0.0
 11
2858.10616565628
 21
-6528.03039623317
 31
0.0
  0
LINE
  5
162
330
1F
100
AcDbEntity
  8
0
  6
Continuous
 62
     5
100
AcDbLine
 10
2578.50609386878
 20
-6528.03039623317
 30
0.0
 11
2578.50609386878
 21
-6530.03039623317
 31
0.0
  0
LINE
  5
163
330
1F
100
AcDbEntity
  8
0
  6
Continuous
 62
     5
100
AcDbLine
 10
2802.65894350492
 20
-6558.03039623317
 30
0.0
 11
2578.50609386878
 21
-6558.03039623317
 31
0.0
  0
LINE
  5
164
330
1F
100
AcDbEntity
  8
0
  6
Continuous
 62
     5
100
AcDbLine
 10
2578.50609386878
 20
-6530.03039623317
 30
0.0
 11
2578.50609386878
 21
-6558.03039623317
 31
0.0
  0
LINE
  5
165
330
1F
100
AcDbEntity
  8
0
  6
Continuous
 62
     5
100
AcDbLine
 10
2578.50609386878
 20
-6530.03039623317
 30
0.0
 11
2578.50609386878
 21
-6558.03039623317
 31
0.0
  0
LINE
  5
166
330
1F
100
AcDbEntity
  8
0
  6
Continuous
 62
     5
100
AcDbLine
 10
2578.50609386878
 20
-6558.03039623317
 30
0.0
 11
2354.35324423264
 21
-6558.03039623317
 31
0.0
  0
LINE
  5
167
330
1F
100
AcDbEntity
  8
0
  6
Continuous
 62
     5
100
AcDbLine
 10
2350.11060354553
 20
-6558.03039623317
 30
0.0
 11
2297.78470173772
 21
-6558.03039623317
 31
0.0
  0
LINE
  5
168
330
1F
100
AcDbEntity
  8
0
  6
Continuous
 62
     5
100
AcDbLine
 10
2350.11060354553
 20
-6530.03039623317
 30
0.0
 11
2350.11060354553
 21
-6558.03039623317
 31
0.0
  0
LINE
  5
169
330
1F
100
AcDbEntity
  8
0
  6
Continuous
 62
     5
100
AcDbLine
 10
2354.35324423264
 20
-6558.03039623317
 30
0.0
 11
2350.11060354553
 21
-6558.03039623317
 31
0.0
  0
LINE
  5
16A
330
1F
100
AcDbEntity
  8
0
  6
Continuous
 62
     5
100
AcDbLine
 10
2350.11060354553
 20
-6530.03039623317
 30
0.0
 11
2350.11060354553
 21
-6558.03039623317
 31
0.0
  0
LINE
  5
16B
330
1F
100
AcDbEntity
  8
0
  6
Continuous
 62
     5
100
AcDbLine
 10
2578.50609386878
 20
-6528.03039623317
 30
0.0
 11
2632.24620923896
 21
-6528.03039623317
 31
0.0
  0
LINE
  5
16C
330
1F
100
AcDbEntity
  8
0
  6
Continuous
 62
     5
100
AcDbLine
 10
2805.48737062966
 20
-6528.03039623317
 30
0.0
 11
2804.07315706729
 21
-6528.03039623317
 31
0.0
  0
LINE
  5
16D
330
1F
100
AcDbEntity
  8
0
  6
Continuous
 62
     5
100
AcDbLine
 10
2524.7659784986
 20
-6528.03039623317
 30
0.0
 11
2578.50609386878
 21
-6528.03039623317
 31
0.0
  0
LINE
  5
16E
330
1F
100
AcDbEntity
  8
0
  6
Continuous
 62
     5
100
AcDbLine
 10
2352.93903067027
 20
-6528.03039623317
 30
0.0
 11
2351.5248171079
 21
-6528.03039623317
 31
0.0
  0
LINE
  5
16F
330
1F
100
AcDbEntity
  8
0
  6
Continuous
 62
     5
100
AcDbLine
 10
2298.90602208128
 20
-6528.03039623317
 30
0.0
 11
2524.7659784986
 21
-6528.03039623317
 31
0.0
  0
LINE
  5
170
330
1F
100
AcDbEntity
  8
0
  6
Continuous
 62
     5
100
AcDbLine
 10
2632.24620923896
 20
-6528.03039623317
 30
0.0
 11
2804.07315706729
 21
-6528.03039623317
 31
0.0
  0
LINE
  5
171
330
1F
100
AcDbEntity
  8
0
  6
Continuous
 62
     5
100
AcDbLine
 10
2296.90602208128
 20
-6530.03039623317
 30
0.0
 11
2296.90602208128
 21
-6558.03039623317
 31
0.0
  0
LINE
  5
172
330
1F
100
AcDbEntity
  8
0
  6
Continuous
 62
     5
100
AcDbLine
 10
2296.90602208128
 20
-6558.03039623317
 30
0.0
 11
2297.78470173772
 21
-6558.03039623317
 31
0.0
  0
LINE
  5
173
330
1F
100
AcDbEntity
  8
0
  6
Continuous
 62
     5
100
AcDbLine
 10
2633.41778211421
 20
-6528.03039623317
 30
0.0
 11
2633.41778211421
 21
-6358.53039623317
 31
0.0
  0
LINE
  5
174
330
1F
100
AcDbEntity
  8
0
  6
Continuous
 62
     5
100
AcDbLine
 10
2581.33452099353
 20
-6528.03039623317
 30
0.0
 11
2581.33452099353
 21
-6358.53039623317
 31
0.0
  0
LINE
  5
175
330
1F
100
AcDbEntity
  8
0
  6
Continuous
 62
     5
100
AcDbLine
 10
2575.67766674403
 20
-6528.03039623317
 30
0.0
 11
2575.67766674403
 21
-6358.53039623317
 31
0.0
  0
LINE
  5
176
330
1F
100
AcDbEntity
  8
0
  6
Continuous
 62
     5
100
AcDbLine
 10
2523.59440562335
 20
-6528.03039623317
 30
0.0
 11
2523.59440562335
 21
-6358.53039623317
 31
0.0
  0
LINE
  5
177
330
1F
100
AcDbEntity
  8
0
  6
Continuous
 62
     5
100
AcDbLine
 10
2524.7659784986
 20
-6358.53039623317
 30
0.0
 11
2575.67766674403
 21
-6358.53039623317
 31
0.0
  0
LINE
  5
178
330
1F
100
AcDbEntity
  8
0
  6
Continuous
 62
     5
100
AcDbLine
 10
2581.33452099353
 20
-6358.53039623317
 30
0.0
 11
2632.24620923896
 21
-6358.53039623317
 31
0.0
  0
LINE
  5
179
330
1F
100
AcDbEntity
  8
0
  6
Continuous
 62
     5
100
AcDbLine
 10
2575.67766674403
 20
-6358.53039623317
 30
0.0
 11
2581.33452099353
 21
-6358.53039623317
 31
0.0
  0
LINE
  5
17A
330
1F
100
AcDbEntity
  8
1
  6
Continuous
 62
     3
100
AcDbLine
 10
2328.50609386878
 20
-3861.392538
 30
0.0
 11
2933.50609386878
 21
-3861.392538
 31
0.0
  0
LINE
  5
17B
330
1F
100
AcDbEntity
  8
1
  6
Continuous
 62
     3
100
AcDbLine
 10
2933.50609386878
 20
-3956.392538
 30
0.0
 11
2328.50609386878
 21
-3956.392538
 31
0.0
  0
LINE
  5
17C
330
1F
100
AcDbEntity
  8
1
  6
Continuous
 62
     3
100
AcDbLine
 10
2933.50609386878
 20
-3861.392538
 30
0.0
 11
2933.50609386878
 21
-3956.392538
 31
0.0
  0
LINE
  5
17D
330
1F
100
AcDbEntity
  8
1
  6
Continuous
 62
     3
100
AcDbLine
 10
2328.50609386878
 20
-3861.392538
 30
0.0
 11
2328.50609386878
 21
-3956.392538
 31
0.0
  0
LINE
  5
17E
330
1F
100
AcDbEntity
  8
1
  6
Continuous
 62
     3
100
AcDbLine
 10
2933.50609386878
 20
-5861.392538
 30
0.0
 11
2933.50609386878
 21
-5956.392538
 31
0.0
  0
LINE
  5
17F
330
1F
100
AcDbEntity
  8
1
  6
Continuous
 62
     3
100
AcDbLine
 10
2328.50609386878
 20
-5861.392538
 30
0.0
 11
2328.50609386878
 21
-5956.392538
 31
0.0
  0
LINE
  5
180
330
1F
100
AcDbEntity
  8
1
  6
Continuous
 62
     3
100
AcDbLine
 10
2328.50609386878
 20
-5956.392538
 30
0.0
 11
2933.50609386878
 21
-5956.392538
 31
0.0
  0
LINE
  5
181
330
1F
100
AcDbEntity
  8
1
  6
Continuous
 62
     7
100
AcDbLine
 10
-561.969844
 20
-5861.392538
 30
0.0
 11
-561.969844
 21
-6166.392538
 31
0.0
  0
ARC
  5
182
330
1F
100
AcDbEntity
  8
1
  6
Continuous
 62
     7
100
AcDbCircle
 10
-498.619493238313
 20
3458.965672084773
 30
0.0
 40
53.35035076168697
100
AcDbArc
 50
90.0
 51
180.0
  0
ARC
  5
183
330
1F
100
AcDbEntity
  8
1
  6
Continuous
 62
     7
100
AcDbCircle
 10
-74.63129630267567
 20
3545.024964906705
 30
0.0
 40
26.21398269033383
100
AcDbArc
 50
-16.64956803882735
 51
135.133427652219
  0
ARC
  5
184
330
1F
100
AcDbEntity
  8
1
  6
Continuous
 62
     7
100
AcDbCircle
 10
-222.668768537114
 20
3692.374552736711
 30
0.0
 40
182.6567769177295
100
AcDbArc
 50
-80.32443993108116
 51
-44.86657234778064
  0
ARC
  5
185
330
1F
100
AcDbEntity
  8
1
  6
Continuous
 62
     7
100
AcDbCircle
 10
-221.9698440000005
 20
3589.087323926769
 30
0.0
 40
180.0
100
AcDbArc
 50
-90.0
 51
0.0
  0
ARC
  5
186
330
1F
100
AcDbEntity
  8
0
  6
Continuous
 62
     5
100
AcDbCircle
 10
2858.10616565628
 20
-2570.03039623317
 30
0.0
 40
2.0
100
AcDbArc
 50
0.0
 51
90.0
  0
ARC
  5
187
330
1F
100
AcDbEntity
  8
0
  6
Continuous
 62
     5
100
AcDbCircle
 10
2298.90602208128
 20
-2570.03039623317
 30
0.0
 40
2.0
100
AcDbArc
 50
90.0
 51
180.0
  0
ARC
  5
188
330
1F
100
AcDbEntity
  8
1
  6
Continuous
 62
     7
100
AcDbCircle
 10
1502.93825880155
 20
-2134.77466604547
 30
0.0
 40
899.999999999998
100
AcDbArc
 50
17.68345300509646
 51
23.25601850434603
  0
ARC
  5
189
330
1F
100
AcDbEntity
  8
0
  6
Continuous
 62
     5
100
AcDbCircle
 10
2323.30609386878
 20
-571.830396233165
 30
0.0
 40
2.0
100
AcDbArc
 50
90.0
 51
180.0
  0
ARC
  5
18A
330
1F
100
AcDbEntity
  8
0
  6
Continuous
 62
     5
100
AcDbCircle
 10
2833.70609386878
 20
-571.830396233165
 30
0.0
 40
2.0
100
AcDbArc
 50
0.0
 51
90.0
  0
ARC
  5
18B
330
1F
100
AcDbEntity
  8
1
  6
Continuous
 62
     7
100
AcDbCircle
 10
1502.93825880155
 20
-134.774666045473
 30
0.0
 40
899.9999999999989
100
AcDbArc
 50
17.68345300509665
 51
23.25601850434603
  0
ARC
  5
18C
330
1F
100
AcDbEntity
  8
0
  6
Continuous
 62
     5
100
AcDbCircle
 10
-581.569915787501
 20
-2570.03039623317
 30
0.0
 40
2.0
100
AcDbArc
 50
90.0
 51
180.0
  0
ARC
  5
18D
330
1F
100
AcDbEntity
  8
0
  6
Continuous
 62
     5
100
AcDbCircle
 10
-22.3697722125007
 20
-2570.03039623317
 30
0.0
 40
2.0
100
AcDbArc
 50
0.0
 51
90.0
  0
ARC
  5
18E
330
1F
100
AcDbEntity
  8
0
  6
Continuous
 62
     7
100
AcDbCircle
 10
-111.969844
 20
-2189.392538
 30
0.0
 40
165.0
100
AcDbArc
 50
-90.0
 51
0.0
  0
ARC
  5
18F
330
1F
100
AcDbEntity
  8
0
  6
Continuous
 62
     7
100
AcDbCircle
 10
-491.969844
 20
-2189.392538
 30
0.0
 40
164.9999999999999
100
AcDbArc
 50
180.0
 51
-90.0
  0
ARC
  5
190
330
1F
100
AcDbEntity
  8
0
  6
Continuous
 62
     7
100
AcDbCircle
 10
-491.969844
 20
-189.392538
 30
0.0
 40
164.9999999999999
100
AcDbArc
 50
180.0
 51
-90.0
  0
ARC
  5
191
330
1F
100
AcDbEntity
  8
0
  6
Continuous
 62
     7
100
AcDbCircle
 10
-111.969844
 20
-189.392538
 30
0.0
 40
165.0
100
AcDbArc
 50
-90.0
 51
0.0
  0
ARC
  5
192
330
1F
100
AcDbEntity
  8
0
  6
Continuous
 62
     5
100
AcDbCircle
 10
-46.7698440000005
 20
-571.830396233165
 30
0.0
 40
2.0
100
AcDbArc
 50
0.0
 51
90.0
  0
ARC
  5
193
330
1F
100
AcDbEntity
  8
0
  6
Continuous
 62
     5
100
AcDbCircle
 10
-557.169844000001
 20
-571.830396233165
 30
0.0
 40
2.0
100
AcDbArc
 50
90.0
 51
180.0
  0
ARC
  5
194
330
1F
100
AcDbEntity
  8
1
  6
Continuous
 62
     7
100
AcDbCircle
 10
2323.50609386878
 20
-1781.392538
 30
0.0
 40
5.0
100
AcDbArc
 50
90.0
 51
180.0
  0
ARC
  5
195
330
1F
100
AcDbEntity
  8
1
  6
Continuous
 62
     7
100
AcDbCircle
 10
2325.21927620257
 20
-1781.392538
 30
0.0
 40
4.999999999997438
100
AcDbArc
 50
23.25601850440663
 51
90.0
  0
ARC
  5
196
330
1F
100
AcDbEntity
  8
1
  6
Continuous
 62
     7
100
AcDbCircle
 10
-61.969844
 20
-2156.392538
 30
0.0
 40
10.0
100
AcDbArc
 50
-90.0
 51
0.0
  0
ARC
  5
197
330
1F
100
AcDbEntity
  8
1
  6
Continuous
 62
     7
100
AcDbCircle
 10
-541.969844
 20
-2156.392538
 30
0.0
 40
10.0
100
AcDbArc
 50
180.0
 51
-90.0
  0
ARC
  5
198
330
1F
100
AcDbEntity
  8
1
  6
Continuous
 62
     7
100
AcDbCircle
 10
-61.969844
 20
-156.392537999999
 30
0.0
 40
10.0
100
AcDbArc
 50
-90.0
 51
0.0
  0
ARC
  5
199
330
1F
100
AcDbEntity
  8
1
  6
Continuous
 62
     7
100
AcDbCircle
 10
-541.969844
 20
-156.392537999999
 30
0.0
 40
10.0
100
AcDbArc
 50
180.0
 51
-90.0
  0
ARC
  5
19A
330
1F
100
AcDbEntity
  8
1
  6
Continuous
 62
     7
100
AcDbCircle
 10
-61.9698440000001
 20
-1786.392538
 30
0.0
 40
10.0
100
AcDbArc
 50
0.0
 51
90.0
  0
ARC
  5
19B
330
1F
100
AcDbEntity
  8
1
  6
Continuous
 62
     7
100
AcDbCircle
 10
-541.969844
 20
-1786.392538
 30
0.0
 40
10.0
100
AcDbArc
 50
90.0
 51
180.0
  0
ARC
  5
19C
330
1F
100
AcDbEntity
  8
1
  6
Continuous
 62
     7
100
AcDbCircle
 10
-61.969844
 20
213.607462
 30
0.0
 40
9.999999999999901
100
AcDbArc
 50
0.0
 51
90.0
  0
ARC
  5
19D
330
1F
100
AcDbEntity
  8
1
  6
Continuous
 62
     7
100
AcDbCircle
 10
-541.969844
 20
213.607462
 30
0.0
 40
10.0
100
AcDbArc
 50
90.0
 51
180.0
  0
ARC
  5
19E
330
1F
100
AcDbEntity
  8
1
  6
Continuous
 62
     7
100
AcDbCircle
 10
2325.21927620257
 20
218.607462
 30
0.0
 40
4.999999999996203
100
AcDbArc
 50
23.25601850437371
 51
90.0
  0
ARC
  5
19F
330
1F
100
AcDbEntity
  8
1
  6
Continuous
 62
     7
100
AcDbCircle
 10
2323.50609386878
 20
218.607462
 30
0.0
 40
5.0
100
AcDbArc
 50
90.0
 51
180.0
  0
ARC
  5
1A0
330
1F
100
AcDbEntity
  8
1
  6
Continuous
 62
     7
100
AcDbCircle
 10
2323.50609386878
 20
-3781.392538
 30
0.0
 40
5.0
100
AcDbArc
 50
90.0
 51
180.0
  0
ARC
  5
1A1
330
1F
100
AcDbEntity
  8
1
  6
Continuous
 62
     7
100
AcDbCircle
 10
2325.21927620257
 20
-3781.392538
 30
0.0
 40
4.999999999997438
100
AcDbArc
 50
23.25601850440663
 51
90.0
  0
ARC
  5
1A2
330
1F
100
AcDbEntity
  8
1
  6
Continuous
 62
     7
100
AcDbCircle
 10
-541.969844
 20
-3786.392538
 30
0.0
 40
10.0
100
AcDbArc
 50
90.0
 51
180.0
  0
ARC
  5
1A3
330
1F
100
AcDbEntity
  8
1
  6
Continuous
 62
     7
100
AcDbCircle
 10
-61.969844
 20
-3786.392538
 30
0.0
 40
9.999999999999901
100
AcDbArc
 50
0.0
 51
90.0
  0
ARC
  5
1A4
330
1F
100
AcDbEntity
  8
1
  6
Continuous
 62
     7
100
AcDbCircle
 10
-541.969844
 20
-5786.392538
 30
0.0
 40
10.0
100
AcDbArc
 50
90.0
 51
180.0
  0
ARC
  5
1A5
330
1F
100
AcDbEntity
  8
1
  6
Continuous
 62
     7
100
AcDbCircle
 10
-61.9698440000001
 20
-5786.392538
 30
0.0
 40
10.0
100
AcDbArc
 50
0.0
 51
90.0
  0
ARC
  5
1A6
330
1F
100
AcDbEntity
  8
1
  6
Continuous
 62
     7
100
AcDbCircle
 10
-541.969844
 20
-4156.392538
 30
0.0
 40
10.0
100
AcDbArc
 50
180.0
 51
-90.0
  0
ARC
  5
1A7
330
1F
100
AcDbEntity
  8
1
  6
Continuous
 62
     7
100
AcDbCircle
 10
-61.969844
 20
-4156.392538
 30
0.0
 40
10.0
100
AcDbArc
 50
-90.0
 51
0.0
  0
ARC
  5
1A8
330
1F
100
AcDbEntity
  8
1
  6
Continuous
 62
     7
100
AcDbCircle
 10
-541.969844
 20
-6156.392538
 30
0.0
 40
10.0
100
AcDbArc
 50
180.0
 51
-90.0
  0
ARC
  5
1A9
330
1F
100
AcDbEntity
  8
1
  6
Continuous
 62
     7
100
AcDbCircle
 10
-61.969844
 20
-6156.392538
 30
0.0
 40
10.0
100
AcDbArc
 50
-90.0
 51
0.0
  0
ARC
  5
1AA
330
1F
100
AcDbEntity
  8
1
  6
Continuous
 62
     7
100
AcDbCircle
 10
2325.21927620257
 20
-5781.392538
 30
0.0
 40
4.999999999997258
100
AcDbArc
 50
23.25601850440184
 51
90.0
  0
ARC
  5
1AB
330
1F
100
AcDbEntity
  8
1
  6
Continuous
 62
     7
100
AcDbCircle
 10
2323.50609386878
 20
-5781.392538
 30
0.0
 40
5.0
100
AcDbArc
 50
90.0
 51
180.0
  0
ARC
  5
1AC
330
1F
100
AcDbEntity
  8
0
  6
Continuous
 62
     5
100
AcDbCircle
 10
-557.169844000001
 20
-4531.83039623317
 30
0.0
 40
2.0
100
AcDbArc
 50
90.0
 51
180.0
  0
ARC
  5
1AD
330
1F
100
AcDbEntity
  8
0
  6
Continuous
 62
     5
100
AcDbCircle
 10
-46.7698440000005
 20
-4531.83039623317
 30
0.0
 40
2.0
100
AcDbArc
 50
0.0
 51
90.0
  0
ARC
  5
1AE
330
1F
100
AcDbEntity
  8
0
  6
Continuous
 62
     7
100
AcDbCircle
 10
-111.969844
 20
-4189.392538
 30
0.0
 40
165.0
100
AcDbArc
 50
-90.0
 51
0.0
  0
ARC
  5
1AF
330
1F
100
AcDbEntity
  8
0
  6
Continuous
 62
     7
100
AcDbCircle
 10
-491.969844
 20
-4189.392538
 30
0.0
 40
164.9999999999999
100
AcDbArc
 50
180.0
 51
-90.0
  0
ARC
  5
1B0
330
1F
100
AcDbEntity
  8
0
  6
Continuous
 62
     7
100
AcDbCircle
 10
-491.969844
 20
-6189.392538
 30
0.0
 40
164.9999999999999
100
AcDbArc
 50
180.0
 51
-90.0
  0
ARC
  5
1B1
330
1F
100
AcDbEntity
  8
0
  6
Continuous
 62
     7
100
AcDbCircle
 10
-111.969844
 20
-6189.392538
 30
0.0
 40
165.0
100
AcDbArc
 50
-90.0
 51
0.0
  0
ARC
  5
1B2
330
1F
100
AcDbEntity
  8
0
  6
Continuous
 62
     5
100
AcDbCircle
 10
-22.3697722125007
 20
-6530.03039623317
 30
0.0
 40
2.0
100
AcDbArc
 50
0.0
 51
90.0
  0
ARC
  5
1B3
330
1F
100
AcDbEntity
  8
0
  6
Continuous
 62
     5
100
AcDbCircle
 10
-581.569915787501
 20
-6530.03039623317
 30
0.0
 40
2.0
100
AcDbArc
 50
90.0
 51
180.0
  0
ARC
  5
1B4
330
1F
100
AcDbEntity
  8
1
  6
Continuous
 62
     7
100
AcDbCircle
 10
1502.93825880155
 20
-4134.77466604547
 30
0.0
 40
899.9999999999982
100
AcDbArc
 50
17.68345300509649
 51
23.25601850434606
  0
ARC
  5
1B5
330
1F
100
AcDbEntity
  8
0
  6
Continuous
 62
     5
100
AcDbCircle
 10
2833.70609386878
 20
-4531.83039623317
 30
0.0
 40
2.0
100
AcDbArc
 50
0.0
 51
90.0
  0
ARC
  5
1B6
330
1F
100
AcDbEntity
  8
0
  6
Continuous
 62
     5
100
AcDbCircle
 10
2323.30609386878
 20
-4531.83039623317
 30
0.0
 40
2.0
100
AcDbArc
 50
90.0
 51
180.0
  0
ARC
  5
1B7
330
1F
100
AcDbEntity
  8
1
  6
Continuous
 62
     7
100
AcDbCircle
 10
1502.93825880155
 20
-6134.77466604547
 30
0.0
 40
899.9999999999982
100
AcDbArc
 50
17.68345300509649
 51
23.25601850434603
  0
ARC
  5
1B8
330
1F
100
AcDbEntity
  8
0
  6
Continuous
 62
     5
100
AcDbCircle
 10
2298.90602208128
 20
-6530.03039623317
 30
0.0
 40
2.0
100
AcDbArc
 50
90.0
 51
180.0
  0
ARC
  5
1B9
330
1F
100
AcDbEntity
  8
0
  6
Continuous
 62
     5
100
AcDbCircle
 10
2858.10616565628
 20
-6530.03039623317
 30
0.0
 40
2.0
100
AcDbArc
 50
0.0
 51
90.0
  0
SPLINE
  5
1BA
330
1F
100
AcDbEntity
  8
0
  6
Continuous
 62
     5
100
AcDbSpline
210
0.0
220
0.0
230
1.0
 70
     8
 71
     3
 72
    19
 73
    15
 74
    13
 42
0.0000000001
 43
0.0000000001
 44
0.00000001
 40
0.0
 40
0.0
 40
0.0
 40
0.0
 40
0.5112486045911087
 40
1.022497132115906
 40
1.140557787162552
 40
1.258600574568532
 40
1.37664698739883
 40
1.494704579530224
 40
1.603084993974354
 40
1.711427928220671
 40
1.81974044948671
 40
1.928173969008372
 40
2.31195865128258
 40
2.69573931600949
 40
2.69573931600949
 40
2.69573931600949
 40
2.69573931600949
 10
2350.11060354553
 20
-2570.03039623317
 30
0.0
 10
2350.119404448459
 20
-2569.859781769588
 30
0.0
 10
2350.137006252991
 20
-2569.518552868143
 30
0.0
 10
2350.246739360282
 20
-2569.15007255654
 30
0.0
 10
2350.34654031278
 20
-2568.921852643683
 30
0.0
 10
2350.39971140136
 20
-2568.81636660049
 30
0.0
 10
2350.458730474686
 20
-2568.714059161638
 30
0.0
 10
2350.522017971737
 20
-2568.61815773823
 30
0.0
 10
2350.589079001632
 20
-2568.528870253379
 30
0.0
 10
2350.65951420484
 20
-2568.446471995826
 30
0.0
 10
2350.735415857785
 20
-2568.368893689194
 30
0.0
 10
2350.885664812465
 20
-2568.237116899342
 30
0.0
 10
2351.139181756831
 20
-2568.074492864116
 30
0.0
 10
2351.396272439427
 20
-2568.045095058861
 30
0.0
 10
2351.5248171079
 20
-2568.03039623317
 30
0.0
 11
2350.11060354553
 21
-2570.03039623317
 31
0.0
 11
2350.157199428044
 21
-2569.521275462204
 31
0.0
 11
2350.300072236505
 21
-2569.030396233168
 31
0.0
 11
2350.347522548532
 21
-2568.922290793164
 31
0.0
 11
2350.400685532122
 21
-2568.816897259992
 31
0.0
 11
2350.459735802758
 21
-2568.714681697968
 31
0.0
 11
2350.524817374505
 21
-2568.616183047831
 31
0.0
 11
2350.589974657316
 21
-2568.529575642075
 31
0.0
 11
2350.660429911624
 21
-2568.447269818822
 31
0.0
 11
2350.736292269081
 21
-2568.369961960333
 31
0.0
 11
2350.817710326715
 21
-2568.298345425601
 31
0.0
 11
2351.147921699585
 21
-2568.102766460537
 31
0.0
 11
2351.5248171079
 21
-2568.03039623317
 31
0.0
  0
SPLINE
  5
1BB
330
1F
100
AcDbEntity
  8
0
  6
Continuous
 62
     5
100
AcDbSpline
210
0.0
220
0.0
230
1.0
 70
     8
 71
     3
 72
    19
 73
    15
 74
    13
 42
0.0000000001
 43
0.0000000001
 44
0.00000001
 40
0.0
 40
0.0
 40
0.0
 40
0.0
 40
0.5112486045913987
 40
1.02249713211645
 40
1.140557787162964
 40
1.258600574567719
 40
1.37664698739841
 40
1.494704579529554
 40
1.603084993972684
 40
1.711427928219297
 40
1.819740449484374
 40
1.928173969007279
 40
2.311958651281878
 40
2.695739316008256
 40
2.695739316008256
 40
2.695739316008256
 40
2.695739316008256
 10
2806.90158419203
 20
-2570.03039623317
 30
0.0
 10
2806.8927832891
 20
-2569.859781769588
 30
0.0
 10
2806.875181484567
 20
-2569.518552868143
 30
0.0
 10
2806.765448377272
 20
-2569.150072556539
 30
0.0
 10
2806.665647424778
 20
-2568.921852643684
 30
0.0
 10
2806.612476336199
 20
-2568.816366600488
 30
0.0
 10
2806.553457262874
 20
-2568.714059161638
 30
0.0
 10
2806.490169765823
 20
-2568.618157738229
 30
0.0
 10
2806.423108735927
 20
-2568.52887025338
 30
0.0
 10
2806.352673532721
 20
-2568.446471995826
 30
0.0
 10
2806.276771879775
 20
-2568.368893689195
 30
0.0
 10
2806.126522925097
 20
-2568.237116899342
 30
0.0
 10
2805.873005980728
 20
-2568.074492864116
 30
0.0
 10
2805.615915298132
 20
-2568.045095058861
 30
0.0
 10
2805.48737062966
 20
-2568.03039623317
 30
0.0
 11
2806.90158419203
 21
-2570.03039623317
 31
0.0
 11
2806.854988309513
 21
-2569.521275462204
 31
0.0
 11
2806.712115501051
 21
-2569.030396233168
 31
0.0
 11
2806.664665189026
 21
-2568.922290793163
 31
0.0
 11
2806.611502205437
 21
-2568.816897259992
 31
0.0
 11
2806.552451934801
 21
-2568.714681697968
 31
0.0
 11
2806.487370363055
 21
-2568.61618304783
 31
0.0
 11
2806.422213080245
 21
-2568.529575642075
 31
0.0
 11
2806.351757825935
 21
-2568.447269818822
 31
0.0
 11
2806.275895468479
 21
-2568.369961960334
 31
0.0
 11
2806.194477410845
 21
-2568.298345425601
 31
0.0
 11
2805.864266037975
 21
-2568.102766460536
 31
0.0
 11
2805.48737062966
 21
-2568.03039623317
 31
0.0
  0
SPLINE
  5
1BC
330
1F
100
AcDbEntity
  8
0
  6
Continuous
 62
     5
100
AcDbSpline
210
0.0
220
0.0
230
1.0
 70
     8
 71
     3
 72
    19
 73
    15
 74
    13
 42
0.0000000001
 43
0.0000000001
 44
0.00000001
 40
0.0
 40
0.0
 40
0.0
 40
0.0
 40
0.5112486045913987
 40
1.02249713211645
 40
1.140557787162964
 40
1.258600574567719
 40
1.37664698739841
 40
1.494704579529554
 40
1.603084993972684
 40
1.711427928219297
 40
1.819740449484374
 40
1.928173969007279
 40
2.311958651281878
 40
2.695739316008256
 40
2.695739316008256
 40
2.695739316008256
 40
2.695739316008256
 10
2806.90158419203
 20
-2570.03039623317
 30
0.0
 10
2806.8927832891
 20
-2569.859781769588
 30
0.0
 10
2806.875181484567
 20
-2569.518552868143
 30
0.0
 10
2806.765448377272
 20
-2569.150072556539
 30
0.0
 10
2806.665647424778
 20
-2568.921852643684
 30
0.0
 10
2806.612476336199
 20
-2568.816366600488
 30
0.0
 10
2806.553457262874
 20
-2568.714059161638
 30
0.0
 10
2806.490169765823
 20
-2568.618157738229
 30
0.0
 10
2806.423108735927
 20
-2568.52887025338
 30
0.0
 10
2806.352673532721
 20
-2568.446471995826
 30
0.0
 10
2806.276771879775
 20
-2568.368893689195
 30
0.0
 10
2806.126522925097
 20
-2568.237116899342
 30
0.0
 10
2805.873005980728
 20
-2568.074492864116
 30
0.0
 10
2805.615915298132
 20
-2568.045095058861
 30
0.0
 10
2805.48737062966
 20
-2568.03039623317
 30
0.0
 11
2806.90158419203
 21
-2570.03039623317
 31
0.0
 11
2806.854988309513
 21
-2569.521275462204
 31
0.0
 11
2806.712115501051
 21
-2569.030396233168
 31
0.0
 11
2806.664665189026
 21
-2568.922290793163
 31
0.0
 11
2806.611502205437
 21
-2568.816897259992
 31
0.0
 11
2806.552451934801
 21
-2568.714681697968
 31
0.0
 11
2806.487370363055
 21
-2568.61618304783
 31
0.0
 11
2806.422213080245
 21
-2568.529575642075
 31
0.0
 11
2806.351757825935
 21
-2568.447269818822
 31
0.0
 11
2806.275895468479
 21
-2568.369961960334
 31
0.0
 11
2806.194477410845
 21
-2568.298345425601
 31
0.0
 11
2805.864266037975
 21
-2568.102766460536
 31
0.0
 11
2805.48737062966
 21
-2568.03039623317
 31
0.0
  0
SPLINE
  5
1BD
330
1F
100
AcDbEntity
  8
0
  6
Continuous
 62
     5
100
AcDbSpline
210
0.0
220
0.0
230
1.0
 70
     8
 71
     3
 72
    19
 73
    15
 74
    13
 42
0.0000000001
 43
0.0000000001
 44
0.00000001
 40
0.0
 40
0.0
 40
0.0
 40
0.0
 40
0.5112486045921831
 40
1.022497132116413
 40
1.140557787162283
 40
1.258600574568729
 40
1.376646987398498
 40
1.494704579529649
 40
1.603084993973454
 40
1.711427928219254
 40
1.819740449484521
 40
1.928173969006463
 40
2.311958651281564
 40
2.695739316008335
 40
2.695739316008335
 40
2.695739316008335
 40
2.695739316008335
 10
-73.5743536767459
 20
-2570.03039623317
 30
0.0
 10
-73.58315457967811
 20
-2569.859781769588
 30
0.0
 10
-73.60075638421583
 20
-2569.518552868143
 30
0.0
 10
-73.71048949150385
 20
-2569.150072556539
 30
0.0
 10
-73.81029044400216
 20
-2568.921852643684
 30
0.0
 10
-73.86346153257972
 20
-2568.816366600488
 30
0.0
 10
-73.92248060590597
 20
-2568.714059161638
 30
0.0
 10
-73.98576810295633
 20
-2568.618157738229
 30
0.0
 10
-74.05282913285227
 20
-2568.528870253379
 30
0.0
 10
-74.12326433605728
 20
-2568.446471995825
 30
0.0
 10
-74.19916598900326
 20
-2568.368893689195
 30
0.0
 10
-74.34941494368147
 20
-2568.237116899341
 30
0.0
 10
-74.60293188805025
 20
-2568.074492864117
 30
0.0
 10
-74.86002257064592
 20
-2568.045095058862
 30
0.0
 10
-74.98856723911879
 20
-2568.03039623317
 30
0.0
 11
-73.5743536767459
 21
-2570.03039623317
 31
0.0
 11
-73.62094955926661
 21
-2569.521275462203
 31
0.0
 11
-73.76382236772724
 21
-2569.030396233168
 31
0.0
 11
-73.81127267975309
 21
-2568.922290793164
 31
0.0
 11
-73.86443566334235
 21
-2568.816897259992
 31
0.0
 11
-73.92348593397844
 21
-2568.714681697968
 31
0.0
 11
-73.98856750572476
 21
-2568.616183047831
 31
0.0
 11
-74.05372478853478
 21
-2568.529575642075
 31
0.0
 11
-74.12418004284284
 21
-2568.447269818822
 31
0.0
 11
-74.20004240029923
 21
-2568.369961960334
 31
0.0
 11
-74.28146045793233
 21
-2568.298345425601
 31
0.0
 11
-74.61167183080369
 21
-2568.102766460537
 31
0.0
 11
-74.98856723911879
 21
-2568.03039623317
 31
0.0
  0
SPLINE
  5
1BE
330
1F
100
AcDbEntity
  8
0
  6
Continuous
 62
     5
100
AcDbSpline
210
0.0
220
0.0
230
1.0
 70
     8
 71
     3
 72
    19
 73
    15
 74
    13
 42
0.0000000001
 43
0.0000000001
 44
0.00000001
 40
0.0
 40
0.0
 40
0.0
 40
0.0
 40
0.5112486045921831
 40
1.022497132116413
 40
1.140557787162283
 40
1.258600574568729
 40
1.376646987398498
 40
1.494704579529649
 40
1.603084993973454
 40
1.711427928219254
 40
1.819740449484521
 40
1.928173969006463
 40
2.311958651281564
 40
2.695739316008335
 40
2.695739316008335
 40
2.695739316008335
 40
2.695739316008335
 10
-73.5743536767459
 20
-2570.03039623317
 30
0.0
 10
-73.58315457967811
 20
-2569.859781769588
 30
0.0
 10
-73.60075638421583
 20
-2569.518552868143
 30
0.0
 10
-73.71048949150385
 20
-2569.150072556539
 30
0.0
 10
-73.81029044400216
 20
-2568.921852643684
 30
0.0
 10
-73.86346153257972
 20
-2568.816366600488
 30
0.0
 10
-73.92248060590597
 20
-2568.714059161638
 30
0.0
 10
-73.98576810295633
 20
-2568.618157738229
 30
0.0
 10
-74.05282913285227
 20
-2568.528870253379
 30
0.0
 10
-74.12326433605728
 20
-2568.446471995825
 30
0.0
 10
-74.19916598900326
 20
-2568.368893689195
 30
0.0
 10
-74.34941494368147
 20
-2568.237116899341
 30
0.0
 10
-74.60293188805025
 20
-2568.074492864117
 30
0.0
 10
-74.86002257064592
 20
-2568.045095058862
 30
0.0
 10
-74.98856723911879
 20
-2568.03039623317
 30
0.0
 11
-73.5743536767459
 21
-2570.03039623317
 31
0.0
 11
-73.62094955926661
 21
-2569.521275462203
 31
0.0
 11
-73.76382236772724
 21
-2569.030396233168
 31
0.0
 11
-73.81127267975309
 21
-2568.922290793164
 31
0.0
 11
-73.86443566334235
 21
-2568.816897259992
 31
0.0
 11
-73.92348593397844
 21
-2568.714681697968
 31
0.0
 11
-73.98856750572476
 21
-2568.616183047831
 31
0.0
 11
-74.05372478853478
 21
-2568.529575642075
 31
0.0
 11
-74.12418004284284
 21
-2568.447269818822
 31
0.0
 11
-74.20004240029923
 21
-2568.369961960334
 31
0.0
 11
-74.28146045793233
 21
-2568.298345425601
 31
0.0
 11
-74.61167183080369
 21
-2568.102766460537
 31
0.0
 11
-74.98856723911879
 21
-2568.03039623317
 31
0.0
  0
SPLINE
  5
1BF
330
1F
100
AcDbEntity
  8
0
  6
Continuous
 62
     5
100
AcDbSpline
210
0.0
220
0.0
230
1.0
 70
     8
 71
     3
 72
    19
 73
    15
 74
    13
 42
0.0000000001
 43
0.0000000001
 44
0.00000001
 40
0.0
 40
0.0
 40
0.0
 40
0.0
 40
0.5112486045917407
 40
1.022497132115879
 40
1.140557787162439
 40
1.258600574568466
 40
1.37664698739865
 40
1.494704579529035
 40
1.603084993972823
 40
1.711427928219042
 40
1.819740449484604
 40
1.928173969005924
 40
2.311958651281537
 40
2.695739316008809
 40
2.695739316008809
 40
2.695739316008809
 40
2.695739316008809
 10
-530.365334323255
 20
-2570.03039623317
 30
0.0
 10
-530.3565334203229
 20
-2569.859781769588
 30
0.0
 10
-530.3389316157852
 20
-2569.518552868144
 30
0.0
 10
-530.2291985084959
 20
-2569.150072556538
 30
0.0
 10
-530.1293975559998
 20
-2568.921852643684
 30
0.0
 10
-530.0762264674214
 20
-2568.816366600489
 30
0.0
 10
-530.0172073940958
 20
-2568.714059161637
 30
0.0
 10
-529.9539198970449
 20
-2568.61815773823
 30
0.0
 10
-529.8868588671492
 20
-2568.52887025338
 30
0.0
 10
-529.816423663944
 20
-2568.446471995825
 30
0.0
 10
-529.7405220109986
 20
-2568.368893689194
 30
0.0
 10
-529.590273056319
 20
-2568.237116899343
 30
0.0
 10
-529.3367561119514
 20
-2568.074492864116
 30
0.0
 10
-529.079665429355
 20
-2568.045095058861
 30
0.0
 10
-528.951120760882
 20
-2568.03039623317
 30
0.0
 11
-530.365334323255
 21
-2570.03039623317
 31
0.0
 11
-530.3187384407341
 21
-2569.521275462204
 31
0.0
 11
-530.1758656322738
 21
-2569.030396233169
 31
0.0
 11
-530.1284153202483
 21
-2568.922290793164
 31
0.0
 11
-530.0752523366591
 21
-2568.816897259992
 31
0.0
 11
-530.016202066023
 21
-2568.714681697968
 31
0.0
 11
-529.9511204942767
 21
-2568.616183047831
 31
0.0
 11
-529.8859632114667
 21
-2568.529575642075
 31
0.0
 11
-529.8155079571585
 21
-2568.447269818822
 31
0.0
 11
-529.7396455997022
 21
-2568.369961960333
 31
0.0
 11
-529.6582275420691
 21
-2568.298345425601
 31
0.0
 11
-529.3280161691977
 21
-2568.102766460536
 31
0.0
 11
-528.951120760882
 21
-2568.03039623317
 31
0.0
  0
SPLINE
  5
1C0
330
1F
100
AcDbEntity
  8
0
  6
Continuous
 62
     5
100
AcDbSpline
210
0.0
220
0.0
230
1.0
 70
     8
 71
     3
 72
    19
 73
    15
 74
    13
 42
0.0000000001
 43
0.0000000001
 44
0.00000001
 40
0.0
 40
0.0
 40
0.0
 40
0.0
 40
0.5112486045912256
 40
1.022497132116396
 40
1.140557787163555
 40
1.258600574568821
 40
1.376646987399793
 40
1.494704579530115
 40
1.603084993973472
 40
1.711427928219543
 40
1.81974044948478
 40
1.9281739690061
 40
2.311958651284031
 40
2.695739316010445
 40
2.695739316010445
 40
2.695739316010445
 40
2.695739316010445
 10
-530.365334323255
 20
-6530.03039623317
 30
0.0
 10
-530.3565334203231
 20
-6529.859781769588
 30
0.0
 10
-530.338931615786
 20
-6529.518552868143
 30
0.0
 10
-530.2291985084962
 20
-6529.150072556538
 30
0.0
 10
-530.1293975559997
 20
-6528.921852643684
 30
0.0
 10
-530.0762264674203
 20
-6528.816366600488
 30
0.0
 10
-530.0172073940956
 20
-6528.714059161635
 30
0.0
 10
-529.9539198970447
 20
-6528.61815773823
 30
0.0
 10
-529.8868588671487
 20
-6528.528870253378
 30
0.0
 10
-529.8164236639442
 20
-6528.446471995823
 30
0.0
 10
-529.7405220109985
 20
-6528.368893689197
 30
0.0
 10
-529.5902730563182
 20
-6528.23711689934
 30
0.0
 10
-529.3367561119537
 20
-6528.074492864112
 30
0.0
 10
-529.0796654293554
 20
-6528.045095058858
 30
0.0
 10
-528.951120760882
 20
-6528.03039623317
 30
0.0
 11
-530.365334323255
 21
-6530.03039623317
 31
0.0
 11
-530.3187384407348
 21
-6529.521275462204
 31
0.0
 11
-530.1758656322739
 21
-6529.030396233168
 31
0.0
 11
-530.128415320248
 21
-6528.922290793163
 31
0.0
 11
-530.0752523366587
 21
-6528.816897259992
 31
0.0
 11
-530.0162020660225
 21
-6528.714681697967
 31
0.0
 11
-529.9511204942763
 21
-6528.61618304783
 31
0.0
 11
-529.8859632114665
 21
-6528.529575642075
 31
0.0
 11
-529.8155079571585
 21
-6528.447269818821
 31
0.0
 11
-529.7396455997022
 21
-6528.369961960333
 31
0.0
 11
-529.6582275420691
 21
-6528.298345425601
 31
0.0
 11
-529.3280161691977
 21
-6528.102766460532
 31
0.0
 11
-528.951120760882
 21
-6528.03039623317
 31
0.0
  0
SPLINE
  5
1C1
330
1F
100
AcDbEntity
  8
0
  6
Continuous
 62
     5
100
AcDbSpline
210
0.0
220
0.0
230
1.0
 70
     8
 71
     3
 72
    19
 73
    15
 74
    13
 42
0.0000000001
 43
0.0000000001
 44
0.00000001
 40
0.0
 40
0.0
 40
0.0
 40
0.0
 40
0.5112486045921845
 40
1.022497132117292
 40
1.140557787162785
 40
1.258600574567975
 40
1.376646987397336
 40
1.494704579529974
 40
1.603084993973381
 40
1.711427928218872
 40
1.819740449484179
 40
1.9281739690061
 40
2.311958651280712
 40
2.69573931600814
 40
2.69573931600814
 40
2.69573931600814
 40
2.69573931600814
 10
-73.5743536767459
 20
-6530.03039623317
 30
0.0
 10
-73.58315457967818
 20
-6529.859781769588
 30
0.0
 10
-73.60075638421606
 20
-6529.518552868143
 30
0.0
 10
-73.7104894915035
 20
-6529.15007255654
 30
0.0
 10
-73.81029044400212
 20
-6528.921852643683
 30
0.0
 10
-73.86346153257988
 20
-6528.816366600488
 30
0.0
 10
-73.92248060590669
 20
-6528.714059161639
 30
0.0
 10
-73.98576810295559
 20
-6528.618157738229
 30
0.0
 10
-74.05282913285224
 20
-6528.52887025338
 30
0.0
 10
-74.12326433605736
 20
-6528.446471995825
 30
0.0
 10
-74.19916598900326
 20
-6528.368893689196
 30
0.0
 10
-74.3494149436813
 20
-6528.23711689934
 30
0.0
 10
-74.60293188805001
 20
-6528.07449286412
 30
0.0
 10
-74.8600225706457
 20
-6528.045095058862
 30
0.0
 10
-74.98856723911879
 20
-6528.03039623317
 30
0.0
 11
-73.5743536767459
 21
-6530.03039623317
 31
0.0
 11
-73.62094955926662
 21
-6529.521275462203
 31
0.0
 11
-73.76382236772727
 21
-6529.030396233167
 31
0.0
 11
-73.81127267975322
 21
-6528.922290793164
 31
0.0
 11
-73.86443566334239
 21
-6528.816897259992
 31
0.0
 11
-73.92348593397846
 21
-6528.714681697969
 31
0.0
 11
-73.98856750572472
 21
-6528.61618304783
 31
0.0
 11
-74.05372478853468
 21
-6528.529575642075
 31
0.0
 11
-74.1241800428428
 21
-6528.447269818822
 31
0.0
 11
-74.20004240029924
 21
-6528.369961960334
 31
0.0
 11
-74.28146045793231
 21
-6528.298345425601
 31
0.0
 11
-74.6116718308031
 21
-6528.102766460537
 31
0.0
 11
-74.98856723911879
 21
-6528.03039623317
 31
0.0
  0
SPLINE
  5
1C2
330
1F
100
AcDbEntity
  8
0
  6
Continuous
 62
     5
100
AcDbSpline
210
0.0
220
0.0
230
1.0
 70
     8
 71
     3
 72
    19
 73
    15
 74
    13
 42
0.0000000001
 43
0.0000000001
 44
0.00000001
 40
0.0
 40
0.0
 40
0.0
 40
0.0
 40
0.5112486045921845
 40
1.022497132117292
 40
1.140557787162785
 40
1.258600574567975
 40
1.376646987397336
 40
1.494704579529974
 40
1.603084993973381
 40
1.711427928218872
 40
1.819740449484179
 40
1.9281739690061
 40
2.311958651280712
 40
2.69573931600814
 40
2.69573931600814
 40
2.69573931600814
 40
2.69573931600814
 10
-73.5743536767459
 20
-6530.03039623317
 30
0.0
 10
-73.58315457967818
 20
-6529.859781769588
 30
0.0
 10
-73.60075638421606
 20
-6529.518552868143
 30
0.0
 10
-73.7104894915035
 20
-6529.15007255654
 30
0.0
 10
-73.81029044400212
 20
-6528.921852643683
 30
0.0
 10
-73.86346153257988
 20
-6528.816366600488
 30
0.0
 10
-73.92248060590669
 20
-6528.714059161639
 30
0.0
 10
-73.98576810295559
 20
-6528.618157738229
 30
0.0
 10
-74.05282913285224
 20
-6528.52887025338
 30
0.0
 10
-74.12326433605736
 20
-6528.446471995825
 30
0.0
 10
-74.19916598900326
 20
-6528.368893689196
 30
0.0
 10
-74.3494149436813
 20
-6528.23711689934
 30
0.0
 10
-74.60293188805001
 20
-6528.07449286412
 30
0.0
 10
-74.8600225706457
 20
-6528.045095058862
 30
0.0
 10
-74.98856723911879
 20
-6528.03039623317
 30
0.0
 11
-73.5743536767459
 21
-6530.03039623317
 31
0.0
 11
-73.62094955926662
 21
-6529.521275462203
 31
0.0
 11
-73.76382236772727
 21
-6529.030396233167
 31
0.0
 11
-73.81127267975322
 21
-6528.922290793164
 31
0.0
 11
-73.86443566334239
 21
-6528.816897259992
 31
0.0
 11
-73.92348593397846
 21
-6528.714681697969
 31
0.0
 11
-73.98856750572472
 21
-6528.61618304783
 31
0.0
 11
-74.05372478853468
 21
-6528.529575642075
 31
0.0
 11
-74.1241800428428
 21
-6528.447269818822
 31
0.0
 11
-74.20004240029924
 21
-6528.369961960334
 31
0.0
 11
-74.28146045793231
 21
-6528.298345425601
 31
0.0
 11
-74.6116718308031
 21
-6528.102766460537
 31
0.0
 11
-74.98856723911879
 21
-6528.03039623317
 31
0.0
  0
SPLINE
  5
1C3
330
1F
100
AcDbEntity
  8
0
  6
Continuous
 62
     5
100
AcDbSpline
210
0.0
220
0.0
230
1.0
 70
     8
 71
     3
 72
    19
 73
    15
 74
    13
 42
0.0000000001
 43
0.0000000001
 44
0.00000001
 40
0.0
 40
0.0
 40
0.0
 40
0.0
 40
0.5112486045913603
 40
1.022497132116451
 40
1.14055778716135
 40
1.258600574567122
 40
1.376646987397647
 40
1.494704579529292
 40
1.603084993972238
 40
1.711427928217914
 40
1.819740449484596
 40
1.9281739690066
 40
2.311958651280648
 40
2.695739316007473
 40
2.695739316007473
 40
2.695739316007473
 40
2.695739316007473
 10
2806.90158419203
 20
-6530.03039623317
 30
0.0
 10
2806.892783289097
 20
-6529.859781769588
 30
0.0
 10
2806.875181484558
 20
-6529.518552868143
 30
0.0
 10
2806.765448377274
 20
-6529.15007255654
 30
0.0
 10
2806.665647424777
 20
-6528.921852643683
 30
0.0
 10
2806.6124763362
 20
-6528.816366600487
 30
0.0
 10
2806.553457262874
 20
-6528.714059161639
 30
0.0
 10
2806.490169765822
 20
-6528.61815773823
 30
0.0
 10
2806.423108735927
 20
-6528.528870253378
 30
0.0
 10
2806.352673532721
 20
-6528.446471995824
 30
0.0
 10
2806.276771879776
 20
-6528.368893689197
 30
0.0
 10
2806.126522925093
 20
-6528.23711689934
 30
0.0
 10
2805.873005980729
 20
-6528.074492864116
 30
0.0
 10
2805.615915298133
 20
-6528.045095058862
 30
0.0
 10
2805.48737062966
 20
-6528.03039623317
 30
0.0
 11
2806.90158419203
 21
-6530.03039623317
 31
0.0
 11
2806.854988309508
 21
-6529.521275462204
 31
0.0
 11
2806.712115501051
 21
-6529.030396233167
 31
0.0
 11
2806.664665189026
 21
-6528.922290793164
 31
0.0
 11
2806.611502205438
 21
-6528.816897259992
 31
0.0
 11
2806.552451934801
 21
-6528.714681697968
 31
0.0
 11
2806.487370363054
 21
-6528.61618304783
 31
0.0
 11
2806.422213080245
 21
-6528.529575642075
 31
0.0
 11
2806.351757825936
 21
-6528.447269818822
 31
0.0
 11
2806.275895468479
 21
-6528.369961960333
 31
0.0
 11
2806.194477410845
 21
-6528.298345425601
 31
0.0
 11
2805.864266037975
 21
-6528.102766460536
 31
0.0
 11
2805.48737062966
 21
-6528.03039623317
 31
0.0
  0
SPLINE
  5
1C4
330
1F
100
AcDbEntity
  8
0
  6
Continuous
 62
     5
100
AcDbSpline
210
0.0
220
0.0
230
1.0
 70
     8
 71
     3
 72
    19
 73
    15
 74
    13
 42
0.0000000001
 43
0.0000000001
 44
0.00000001
 40
0.0
 40
0.0
 40
0.0
 40
0.0
 40
0.5112486045913603
 40
1.022497132116451
 40
1.14055778716135
 40
1.258600574567122
 40
1.376646987397647
 40
1.494704579529292
 40
1.603084993972238
 40
1.711427928217914
 40
1.819740449484596
 40
1.9281739690066
 40
2.311958651280648
 40
2.695739316007473
 40
2.695739316007473
 40
2.695739316007473
 40
2.695739316007473
 10
2806.90158419203
 20
-6530.03039623317
 30
0.0
 10
2806.892783289097
 20
-6529.859781769588
 30
0.0
 10
2806.875181484558
 20
-6529.518552868143
 30
0.0
 10
2806.765448377274
 20
-6529.15007255654
 30
0.0
 10
2806.665647424777
 20
-6528.921852643683
 30
0.0
 10
2806.6124763362
 20
-6528.816366600487
 30
0.0
 10
2806.553457262874
 20
-6528.714059161639
 30
0.0
 10
2806.490169765822
 20
-6528.61815773823
 30
0.0
 10
2806.423108735927
 20
-6528.528870253378
 30
0.0
 10
2806.352673532721
 20
-6528.446471995824
 30
0.0
 10
2806.276771879776
 20
-6528.368893689197
 30
0.0
 10
2806.126522925093
 20
-6528.23711689934
 30
0.0
 10
2805.873005980729
 20
-6528.074492864116
 30
0.0
 10
2805.615915298133
 20
-6528.045095058862
 30
0.0
 10
2805.48737062966
 20
-6528.03039623317
 30
0.0
 11
2806.90158419203
 21
-6530.03039623317
 31
0.0
 11
2806.854988309508
 21
-6529.521275462204
 31
0.0
 11
2806.712115501051
 21
-6529.030396233167
 31
0.0
 11
2806.664665189026
 21
-6528.922290793164
 31
0.0
 11
2806.611502205438
 21
-6528.816897259992
 31
0.0
 11
2806.552451934801
 21
-6528.714681697968
 31
0.0
 11
2806.487370363054
 21
-6528.61618304783
 31
0.0
 11
2806.422213080245
 21
-6528.529575642075
 31
0.0
 11
2806.351757825936
 21
-6528.447269818822
 31
0.0
 11
2806.275895468479
 21
-6528.369961960333
 31
0.0
 11
2806.194477410845
 21
-6528.298345425601
 31
0.0
 11
2805.864266037975
 21
-6528.102766460536
 31
0.0
 11
2805.48737062966
 21
-6528.03039623317
 31
0.0
  0
SPLINE
  5
1C5
330
1F
100
AcDbEntity
  8
0
  6
Continuous
 62
     5
100
AcDbSpline
210
0.0
220
0.0
230
1.0
 70
     8
 71
     3
 72
    19
 73
    15
 74
    13
 42
0.0000000001
 43
0.0000000001
 44
0.00000001
 40
0.0
 40
0.0
 40
0.0
 40
0.0
 40
0.5112486045927572
 40
1.022497132117245
 40
1.140557787162327
 40
1.258600574566884
 40
1.376646987393577
 40
1.494704579523203
 40
1.603084993968696
 40
1.711427928217728
 40
1.819740449484422
 40
1.928173969006685
 40
2.311958651282659
 40
2.695739316009073
 40
2.695739316009073
 40
2.695739316009073
 40
2.695739316009073
 10
2350.11060354553
 20
-6530.03039623317
 30
0.0
 10
2350.119404448461
 20
-6529.859781769587
 30
0.0
 10
2350.137006252995
 20
-6529.518552868145
 30
0.0
 10
2350.246739360285
 20
-6529.150072556538
 30
0.0
 10
2350.346540312783
 20
-6528.921852643684
 30
0.0
 10
2350.39971140136
 20
-6528.816366600492
 30
0.0
 10
2350.458730474687
 20
-6528.714059161643
 30
0.0
 10
2350.522017971737
 20
-6528.618157738235
 30
0.0
 10
2350.589079001634
 20
-6528.528870253384
 30
0.0
 10
2350.65951420484
 20
-6528.446471995828
 30
0.0
 10
2350.735415857785
 20
-6528.368893689195
 30
0.0
 10
2350.885664812466
 20
-6528.237116899343
 30
0.0
 10
2351.139181756829
 20
-6528.07449286411
 30
0.0
 10
2351.396272439427
 20
-6528.045095058859
 30
0.0
 10
2351.5248171079
 20
-6528.03039623317
 30
0.0
 11
2350.11060354553
 21
-6530.03039623317
 31
0.0
 11
2350.157199428047
 21
-6529.521275462203
 31
0.0
 11
2350.300072236509
 21
-6529.030396233167
 31
0.0
 11
2350.347522548534
 21
-6528.922290793164
 31
0.0
 11
2350.400685532123
 21
-6528.816897259993
 31
0.0
 11
2350.459735802759
 21
-6528.714681697973
 31
0.0
 11
2350.524817374505
 21
-6528.616183047838
 31
0.0
 11
2350.589974657316
 21
-6528.52957564208
 31
0.0
 11
2350.660429911625
 21
-6528.447269818824
 31
0.0
 11
2350.736292269082
 21
-6528.369961960334
 31
0.0
 11
2350.817710326715
 21
-6528.298345425601
 31
0.0
 11
2351.147921699585
 21
-6528.102766460532
 31
0.0
 11
2351.5248171079
 21
-6528.03039623317
 31
0.0
  0
XLINE
  5
1C6
330
1F
100
AcDbEntity
  8
1
  6
DOTTED
 62
     1
100
AcDbXline
 10
-59.16269633615707
 20
3512.31602284646
 30
0.0
 11
1.0
 21
0.0
 31
0.0
  0
XLINE
  5
1C7
330
1F
100
AcDbEntity
  8
1
  6
DOTTED
 62
     1
100
AcDbXline
 10
-551.969844
 20
3512.31602284646
 30
0.0
 11
1.0
 21
0.0
 31
0.0
  0
XLINE
  5
1C8
330
1F
100
AcDbEntity
  8
1
  6
DOTTED
 62
     1
100
AcDbXline
 10
-866.969844
 20
3314.08339986878
 30
0.0
 11
1.0
 21
0.0
 31
0.0
  0
XLINE
  5
1C9
330
1F
100
AcDbEntity
  8
1
  6
DOTTED
 62
     1
100
AcDbXline
 10
-41.96984400000054
 20
43.6074619999986
 30
0.0
 11
0.0
 21
1.0
 31
0.0
  0
XLINE
  5
1CA
330
1F
100
AcDbEntity
  8
1
  6
DOTTED
 62
     1
100
AcDbXline
 10
53.03015600000094
 20
43.6074619999986
 30
0.0
 11
0.0
 21
1.0
 31
0.0
  0
XLINE
  5
1CB
330
1F
100
AcDbEntity
  8
1
  6
DOTTED
 62
     1
100
AcDbXline
 10
-866.969844
 20
4024.08339986878
 30
0.0
 11
1.0
 21
0.0
 31
0.0
  0
XLINE
  5
1CC
330
1F
100
AcDbEntity
  8
1
  6
DOTTED
 62
     1
100
AcDbXline
 10
-866.969844
 20
3409.087323926769
 30
0.0
 11
1.0
 21
0.0
 31
0.0
  0
XLINE
  5
1CD
330
1F
100
AcDbEntity
  8
1
  6
DOTTED
 62
     1
100
AcDbXline
 10
-551.969844
 20
138.607462
 30
0.0
 11
0.0
 21
1.0
 31
0.0
  0
XLINE
  5
1CE
330
1F
100
AcDbEntity
  8
1
  6
DOTTED
 62
     1
100
AcDbXline
 10
-866.969844
 20
138.607462
 30
0.0
 11
0.0
 21
1.0
 31
0.0
  0
XLINE
  5
1CF
330
1F
100
AcDbEntity
  8
1
  6
DOTTED
 62
     1
100
AcDbXline
 10
2477.27386048662
 20
-2598.03039623317
 30
0.0
 11
1.0
 21
0.0
 31
0.0
  0
XLINE
  5
1D0
330
1F
100
AcDbEntity
  8
1
  6
DOTTED
 62
     1
100
AcDbXline
 10
-746.399045059813
 20
-1956.392538
 30
0.0
 11
1.0
 21
0.0
 31
0.0
  0
XLINE
  5
1D1
330
1F
100
AcDbEntity
  8
1
  6
DOTTED
 62
     1
100
AcDbXline
 10
-714.469844
 20
-1861.392538
 30
0.0
 11
1.0
 21
0.0
 31
0.0
  0
XLINE
  5
1D2
330
1F
100
AcDbEntity
  8
1
  6
DOTTED
 62
     1
100
AcDbXline
 10
-782.389995675111
 20
43.6074619999986
 30
0.0
 11
1.0
 21
0.0
 31
0.0
  0
XLINE
  5
1D3
330
1F
100
AcDbEntity
  8
1
  6
DOTTED
 62
     1
100
AcDbXline
 10
2578.50609386878
 20
-354.392538
 30
0.0
 11
0.0
 21
-1.0
 31
0.0
  0
XLINE
  5
1D4
330
1F
100
AcDbEntity
  8
1
  6
DOTTED
 62
     1
100
AcDbXline
 10
-301.969844
 20
-354.392538
 30
0.0
 11
0.0
 21
-1.0
 31
0.0
  0
XLINE
  5
1D5
330
1F
100
AcDbEntity
  8
1
  6
DOTTED
 62
     1
100
AcDbXline
 10
2328.50609386878
 20
223.607462
 30
0.0
 11
1.0
 21
0.0
 31
0.0
  0
XLINE
  5
1D6
330
1F
100
AcDbEntity
  8
1
  6
DOTTED
 62
     1
100
AcDbXline
 10
2318.50609386878
 20
195.745135682221
 30
0.0
 11
0.0
 21
1.0
 31
0.0
  0
XLINE
  5
1D7
330
1F
100
AcDbEntity
  8
1
  6
DOTTED
 62
     1
100
AcDbXline
 10
53.0301560000012
 20
138.607462
 30
0.0
 11
1.0
 21
0.0
 31
0.0
  0
XLINE
  5
1D8
330
1F
100
AcDbEntity
  8
1
  6
DOTTED
 62
     1
100
AcDbXline
 10
2933.50609386878
 20
19.9967634009136
 30
0.0
 11
0.0
 21
1.0
 31
0.0
  0
XLINE
  5
1D9
330
1F
100
AcDbEntity
  8
1
  6
DOTTED
 62
     1
100
AcDbXline
 10
2223.50609386878
 20
237.325320654679
 30
0.0
 11
0.0
 21
1.0
 31
0.0
  0
XLINE
  5
1DA
330
1F
100
AcDbEntity
  8
1
  6
DOTTED
 62
     1
100
AcDbXline
 10
2223.50609386878
 20
19.9967634009136
 30
0.0
 11
0.0
 21
1.0
 31
0.0
  0
XLINE
  5
1DB
330
1F
100
AcDbEntity
  8
1
  6
DOTTED
 62
     1
100
AcDbXline
 10
-656.969844000001
 20
-91.2040888942915
 30
0.0
 11
0.0
 21
1.0
 31
0.0
  0
XLINE
  5
1DC
330
1F
100
AcDbEntity
  8
1
  6
DOTTED
 62
     1
100
AcDbXline
 10
-78.9972817299426
 20
-601.030396233165
 30
0.0
 11
1.0
 21
0.0
 31
0.0
  0
XLINE
  5
1DD
330
1F
100
AcDbEntity
  8
1
  6
DOTTED
 62
     1
100
AcDbXline
 10
3753.22593650741
 20
1805.17249014372
 30
0.0
 11
-1.0
 21
0.0
 31
0.0
  0
XLINE
  5
1DE
330
1F
100
AcDbEntity
  8
1
  6
DOTTED
 62
     1
100
AcDbXline
 10
3780.8463168934
 20
1811.17249014372
 30
0.0
 11
0.0
 21
1.0
 31
0.0
  0
XLINE
  5
1DF
330
1F
100
AcDbEntity
  8
1
  6
DOTTED
 62
     1
100
AcDbXline
 10
-455.469844
 20
-354.392538
 30
0.0
 11
1.0
 21
0.0
 31
0.0
  0
XLINE
  5
1E0
330
1F
100
AcDbEntity
  8
1
  6
DOTTED
 62
     1
100
AcDbXline
 10
-656.969844
 20
-189.392538
 30
0.0
 11
1.0
 21
0.0
 31
0.0
  0
XLINE
  5
1E1
330
1F
100
AcDbEntity
  8
1
  6
DOTTED
 62
     1
100
AcDbXline
 10
-656.969844
 20
-169.392538
 30
0.0
 11
1.0
 21
0.0
 31
0.0
  0
CIRCLE
  5
1E2
330
1F
100
AcDbEntity
  8
1
  6
DOTTED
 62
     1
100
AcDbCircle
 10
-498.619493238313
 20
3458.965672084773
 30
0.0
 40
53.35035076168695
  0
CIRCLE
  5
1E3
330
1F
100
AcDbEntity
  8
1
  6
DOTTED
 62
     1
100
AcDbCircle
 10
-74.63129630267567
 20
3545.024964906705
 30
0.0
 40
26.21398269031242
  0
CIRCLE
  5
1E4
330
1F
100
AcDbEntity
  8
1
  6
DOTTED
 62
     1
100
AcDbCircle
 10
-222.668768537114
 20
3692.374552736711
 30
0.0
 40
182.65677691773
  0
CIRCLE
  5
1E5
330
1F
100
AcDbEntity
  8
1
  6
DOTTED
 62
     1
100
AcDbCircle
 10
-221.9698440000005
 20
3589.087323926769
 30
0.0
 40
180.0
  0
CIRCLE
  5
1E6
330
1F
100
AcDbEntity
  8
1
  6
DOTTED
 62
     1
100
AcDbCircle
 10
-866.9698440000002
 20
223.607462
 30
0.0
 40
3090.47593786878
  0
CIRCLE
  5
1E7
330
1F
100
AcDbEntity
  8
1
  6
DOTTED
 62
     1
100
AcDbCircle
 10
-866.9698440000002
 20
223.607462
 30
0.0
 40
3800.47593786878
  0
CIRCLE
  5
1E8
330
1F
100
AcDbEntity
  8
1
  6
DOTTED
 62
     1
100
AcDbCircle
 10
-866.9698440000002
 20
223.607462
 30
0.0
 40
3185.479861926769
  0
CIRCLE
  5
1E9
330
1F
100
AcDbEntity
  8
1
  6
DOTTED
 62
     1
100
AcDbCircle
 10
-866.9698440000002
 20
223.607462
 30
0.0
 40
3800.47593786878
  0
ENDSEC
  0
SECTION
  2
OBJECTS
  0
DICTIONARY
  5
C
330
0
100
AcDbDictionary
281
     1
  3
ACAD_GROUP
350
D
  3
ACAD_LAYOUT
350
1A
  3
ACAD_MLINESTYLE
350
17
  3
ACAD_PLOTSETTINGS
350
19
  3
ACAD_PLOTSTYLENAME
350
E
  3
ACAD_TABLESTYLE
350
2A
  3
AcDbVariableDictionary
350
2C
  0
DICTIONARY
  5
D
102
{ACAD_REACTORS
330
C
102
}
330
C
100
AcDbDictionary
281
     1
  0
DICTIONARY
  5
1A
102
{ACAD_REACTORS
330
C
102
}
330
C
100
AcDbDictionary
281
     1
  3
Layout1
350
1E
  3
Layout2
350
26
  3
Model
350
22
  0
DICTIONARY
  5
17
102
{ACAD_REACTORS
330
C
102
}
330
C
100
AcDbDictionary
281
     1
  3
Standard
350
18
  0
DICTIONARY
  5
19
102
{ACAD_REACTORS
330
C
102
}
330
C
100
AcDbDictionary
281
     1
  0
ACDBDICTIONARYWDFLT
  5
E
102
{ACAD_REACTORS
330
C
102
}
330
C
100
AcDbDictionary
281
     1
  3
Normal
350
F
100
AcDbDictionaryWithDefault
340
F
  0
DICTIONARY
  5
2A
102
{ACAD_REACTORS
330
C
102
}
330
C
100
AcDbDictionary
281
     1
  3
Standard
350
2B
  0
DICTIONARY
  5
2C
102
{ACAD_REACTORS
330
C
102
}
330
C
100
AcDbDictionary
281
     1
  3
CTABLESTYLE
350
2D
  0
LAYOUT
  5
1E
102
{ACAD_REACTORS
330
1A
102
}
330
1A
100
AcDbPlotSettings
  1

  2

  4

  6

 40
0.0
 41
0.0
 42
0.0
 43
0.0
 44
0.0
 45
0.0
 46
0.0
 47
0.0
 48
0.0
 49
0.0
140
0.0
141
0.0
142
1.0
143
1.0
 70
   688
 72
     0
 73
     0
 74
     5
  7

 75
    16
147
1.0
148
0.0
149
0.0
100
AcDbLayout
  1
Layout1
 70
     1
 71
     1
 10
0.0
 20
0.0
 11
12.0
 21
9.0
 12
0.0
 22
0.0
 32
0.0
 14
1.00000000000000E+20
 24
1.00000000000000E+20
 34
1.00000000000000E+20
 15
-1.00000000000000E+20
 25
-1.00000000000000E+20
 35
-1.00000000000000E+20
146
0.0
 13
0.0
 23
0.0
 33
0.0
 16
1.0
 26
0.0
 36
0.0
 17
0.0
 27
1.0
 37
0.0
 76
     0
330
1B
  0
LAYOUT
  5
26
102
{ACAD_REACTORS
330
1A
102
}
330
1A
100
AcDbPlotSettings
  1

  2

  4

  6

 40
0.0
 41
0.0
 42
0.0
 43
0.0
 44
0.0
 45
0.0
 46
0.0
 47
0.0
 48
0.0
 49
0.0
140
0.0
141
0.0
142
1.0
143
1.0
 70
   688
 72
     0
 73
     0
 74
     5
  7

 75
    16
147
1.0
148
0.0
149
0.0
100
AcDbLayout
  1
Layout2
 70
     1
 71
     2
 10
0.0
 20
0.0
 11
0.0
 21
0.0
 12
0.0
 22
0.0
 32
0.0
 14
0.0
 24
0.0
 34
0.0
 15
0.0
 25
0.0
 35
0.0
146
0.0
 13
0.0
 23
0.0
 33
0.0
 16
1.0
 26
0.0
 36
0.0
 17
0.0
 27
1.0
 37
0.0
 76
     0
330
23
  0
LAYOUT
  5
22
102
{ACAD_REACTORS
330
1A
102
}
330
1A
100
AcDbPlotSettings
  1

  2

  4

  6

 40
0.0
 41
0.0
 42
0.0
 43
0.0
 44
0.0
 45
0.0
 46
0.0
 47
0.0
 48
0.0
 49
0.0
140
0.0
141
0.0
142
1.0
143
1.0
 70
  1712
 72
     0
 73
     0
 74
     0
  7

 75
     0
147
1.0
148
0.0
149
0.0
100
AcDbLayout
  1
Model
 70
     1
 71
     0
 10
0.0
 20
0.0
 11
0.0
 21
0.0
 12
0.0
 22
0.0
 32
0.0
 14
-4667.445781868781
 24
-6558.03039623317
 34
0.0
 15
3780.8463168934
 25
4024.08339986878
 35
0.0
146
0.0
 13
0.0
 23
0.0
 33
0.0
 16
1.0
 26
0.0
 36
0.0
 17
0.0
 27
1.0
 37
0.0
 76
     0
330
1F
  0
MLINESTYLE
  5
18
102
{ACAD_REACTORS
330
17
102
}
330
17
100
AcDbMlineStyle
  2
Standard
 70
     0
  3

 62
   256
 51
90.0
 52
90.0
 71
     2
 49
0.5
 62
   256
  6
BYLAYER
 49
-0.5
 62
   256
  6
BYLAYER
  0
ACDBPLACEHOLDER
  5
F
102
{ACAD_REACTORS
330
E
102
}
330
E
  0
TABLESTYLE
  5
2B
102
{ACAD_REACTORS
330
2A
102
}
330
2A
100
AcDbTableStyle
  3
Standard
 70
     0
 71
     0
 40
0.06
 41
0.06
280
     0
281
     0
  7
Standard
140
0.18
170
     2
 62
     0
 63
     7
283
     0
274
    -2
284
     1
 64
     0
275
    -2
285
     1
 65
     0
276
    -2
286
     1
 66
     0
277
    -2
287
     1
 67
     0
278
    -2
288
     1
 68
     0
279
    -2
289
     1
 69
     0
  7
Standard
140
0.25
170
     5
 62
     0
 63
     7
283
     0
274
    -2
284
     1
 64
     0
275
    -2
285
     1
 65
     0
276
    -2
286
     1
 66
     0
277
    -2
287
     1
 67
     0
278
    -2
288
     1
 68
     0
279
    -2
289
     1
 69
     0
  7
Standard
140
0.18
170
     5
 62
     0
 63
     7
283
     0
274
    -2
284
     1
 64
     0
275
    -2
285
     1
 65
     0
276
    -2
286
     1
 66
     0
277
    -2
287
     1
 67
     0
278
    -2
288
     1
 68
     0
279
    -2
289
     1
 69
     0
  0
DICTIONARYVAR
  5
2D
102
{ACAD_REACTORS
330
2C
102
}
330
2C
100
DictionaryVariables
280
     0
  1
Standard
  0
ENDSEC
  0
EOF
