  0
SECTION
  2
HEADER
  9
$ACADVER
  1
AC1024
  9
$ACADMAINTVER
 70
     6
  9
$DWGCODEPAGE
  3
ANSI_1252
  9
$INSBASE
 10
0.0
 20
0.0
 30
0.0
  9
$EXTMIN
 10
-2968.29846199623
 20
10699.8433174569
 30
0.0
  9
$EXTMAX
 10
7949.26414492469
 20
14500.7457638885
 30
0.0
  9
$LIMMIN
 10
0.0
 20
0.0
  9
$LIMMAX
 10
12.0
 20
9.0
  9
$ORTHOMODE
 70
     0
  9
$REGENMODE
 70
     1
  9
$FILLMODE
 70
     1
  9
$QTEXTMODE
 70
     0
  9
$MIRRTEXT
 70
     1
  9
$LTSCALE
 40
1.0
  9
$ATTMODE
 70
     1
  9
$TEXTSIZE
 40
0.2
  9
$TRACEWID
 40
0.05
  9
$TEXTSTYLE
  7
Standard
  9
$CLAYER
  8
0
  9
$CELTYPE
  6
ByLayer
  9
$CECOLOR
 62
   256
  9
$CELTSCALE
 40
1.0
  9
$DISPSILH
 70
     0
  9
$DIMSCALE
 40
1.0
  9
$DIMASZ
 40
0.18
  9
$DIMEXO
 40
0.0625
  9
$DIMDLI
 40
0.38
  9
$DIMRND
 40
0.0
  9
$DIMDLE
 40
0.0
  9
$DIMEXE
 40
0.18
  9
$DIMTP
 40
0.0
  9
$DIMTM
 40
0.0
  9
$DIMTXT
 40
0.18
  9
$DIMCEN
 40
0.09
  9
$DIMTSZ
 40
0.0
  9
$DIMTOL
 70
     0
  9
$DIMLIM
 70
     0
  9
$DIMTIH
 70
     1
  9
$DIMTOH
 70
     1
  9
$DIMSE1
 70
     0
  9
$DIMSE2
 70
     0
  9
$DIMTAD
 70
     0
  9
$DIMZIN
 70
     0
  9
$DIMBLK
  1

  9
$DIMASO
 70
     1
  9
$DIMSHO
 70
     1
  9
$DIMPOST
  1

  9
$DIMAPOST
  1

  9
$DIMALT
 70
     0
  9
$DIMALTD
 70
     2
  9
$DIMALTF
 40
25.4
  9
$DIMLFAC
 40
1.0
  9
$DIMTOFL
 70
     0
  9
$DIMTVP
 40
0.0
  9
$DIMTIX
 70
     0
  9
$DIMSOXD
 70
     0
  9
$DIMSAH
 70
     0
  9
$DIMBLK1
  1

  9
$DIMBLK2
  1

  9
$DIMSTYLE
  2
Standard
  9
$DIMCLRD
 70
     0
  9
$DIMCLRE
 70
     0
  9
$DIMCLRT
 70
     0
  9
$DIMTFAC
 40
1.0
  9
$DIMGAP
 40
0.09
  9
$DIMJUST
 70
     0
  9
$DIMSD1
 70
     0
  9
$DIMSD2
 70
     0
  9
$DIMTOLJ
 70
     1
  9
$DIMTZIN
 70
     0
  9
$DIMALTZ
 70
     0
  9
$DIMALTTZ
 70
     0
  9
$DIMUPT
 70
     0
  9
$DIMDEC
 70
     4
  9
$DIMTDEC
 70
     4
  9
$DIMALTU
 70
     2
  9
$DIMALTTD
 70
     2
  9
$DIMTXSTY
  7
Standard
  9
$DIMAUNIT
 70
     0
  9
$DIMADEC
 70
     0
  9
$DIMALTRND
 40
0.0
  9
$DIMAZIN
 70
     0
  9
$DIMDSEP
 70
    46
  9
$DIMATFIT
 70
     3
  9
$DIMFRAC
 70
     0
  9
$DIMLDRBLK
  1

  9
$DIMLUNIT
 70
     2
  9
$DIMLWD
 70
    -2
  9
$DIMLWE
 70
    -2
  9
$DIMTMOVE
 70
     0
  9
$DIMFXL
 40
1.0
  9
$DIMFXLON
 70
     0
  9
$DIMJOGANG
 40
0.78539816339745
  9
$DIMTFILL
 70
     0
  9
$DIMTFILLCLR
 70
     0
  9
$DIMARCSYM
 70
     0
  9
$DIMLTYPE
  6

  9
$DIMLTEX1
  6

  9
$DIMLTEX2
  6

  9
$DIMTXTDIRECTION
 70
     0
  9
$LUNITS
 70
     2
  9
$LUPREC
 70
     4
  9
$SKETCHINC
 40
0.1
  9
$FILLETRAD
 40
0.5
  9
$AUNITS
 70
     0
  9
$AUPREC
 70
     0
  9
$MENU
  1
.
  9
$ELEVATION
 40
0.0
  9
$PELEVATION
 40
0.0
  9
$THICKNESS
 40
0.0
  9
$LIMCHECK
 70
     0
  9
$CHAMFERA
 40
0.5
  9
$CHAMFERB
 40
0.5
  9
$CHAMFERC
 40
1.0
  9
$CHAMFERD
 40
0.0
  9
$SKPOLY
 70
     0
  9
$TDCREATE
 40
2456903.394242604
  9
$TDUCREATE
 40
2456903.310909271
  9
$TDUPDATE
 40
2456903.394242616
  9
$TDUUPDATE
 40
2456903.310909282
  9
$TDINDWG
 40
0.0000000116
  9
$TDUSRTIMER
 40
0.0000000116
  9
$USRTIMER
 70
     1
  9
$ANGBASE
 50
0.0
  9
$ANGDIR
 70
     0
  9
$PDMODE
 70
     0
  9
$PDSIZE
 40
0.0
  9
$PLINEWID
 40
0.0
  9
$SPLFRAME
 70
     0
  9
$SPLINETYPE
 70
     6
  9
$SPLINESEGS
 70
     8
  9
$HANDSEED
  5
233
  9
$SURFTAB1
 70
     6
  9
$SURFTAB2
 70
     6
  9
$SURFTYPE
 70
     6
  9
$SURFU
 70
     6
  9
$SURFV
 70
     6
  9
$UCSBASE
  2

  9
$UCSNAME
  2

  9
$UCSORG
 10
0.0
 20
0.0
 30
0.0
  9
$UCSXDIR
 10
1.0
 20
0.0
 30
0.0
  9
$UCSYDIR
 10
0.0
 20
1.0
 30
0.0
  9
$UCSORTHOREF
  2

  9
$UCSORTHOVIEW
 70
     0
  9
$UCSORGTOP
 10
0.0
 20
0.0
 30
0.0
  9
$UCSORGBOTTOM
 10
0.0
 20
0.0
 30
0.0
  9
$UCSORGLEFT
 10
0.0
 20
0.0
 30
0.0
  9
$UCSORGRIGHT
 10
0.0
 20
0.0
 30
0.0
  9
$UCSORGFRONT
 10
0.0
 20
0.0
 30
0.0
  9
$UCSORGBACK
 10
0.0
 20
0.0
 30
0.0
  9
$PUCSBASE
  2

  9
$PUCSNAME
  2

  9
$PUCSORG
 10
0.0
 20
0.0
 30
0.0
  9
$PUCSXDIR
 10
1.0
 20
0.0
 30
0.0
  9
$PUCSYDIR
 10
0.0
 20
1.0
 30
0.0
  9
$PUCSORTHOREF
  2

  9
$PUCSORTHOVIEW
 70
     0
  9
$PUCSORGTOP
 10
0.0
 20
0.0
 30
0.0
  9
$PUCSORGBOTTOM
 10
0.0
 20
0.0
 30
0.0
  9
$PUCSORGLEFT
 10
0.0
 20
0.0
 30
0.0
  9
$PUCSORGRIGHT
 10
0.0
 20
0.0
 30
0.0
  9
$PUCSORGFRONT
 10
0.0
 20
0.0
 30
0.0
  9
$PUCSORGBACK
 10
0.0
 20
0.0
 30
0.0
  9
$USERI1
 70
     0
  9
$USERI2
 70
     0
  9
$USERI3
 70
     0
  9
$USERI4
 70
     0
  9
$USERI5
 70
     0
  9
$USERR1
 40
17.0
  9
$USERR2
 40
0.0
  9
$USERR3
 40
0.0
  9
$USERR4
 40
0.0
  9
$USERR5
 40
0.0
  9
$WORLDVIEW
 70
     1
  9
$SHADEDGE
 70
     3
  9
$SHADEDIF
 70
    70
  9
$TILEMODE
 70
     1
  9
$MAXACTVP
 70
    64
  9
$PINSBASE
 10
0.0
 20
0.0
 30
0.0
  9
$PLIMCHECK
 70
     0
  9
$PEXTMIN
 10
1.00000000000000E+20
 20
1.00000000000000E+20
 30
1.00000000000000E+20
  9
$PEXTMAX
 10
-1.00000000000000E+20
 20
-1.00000000000000E+20
 30
-1.00000000000000E+20
  9
$PLIMMIN
 10
0.0
 20
0.0
  9
$PLIMMAX
 10
12.0
 20
9.0
  9
$UNITMODE
 70
     0
  9
$VISRETAIN
 70
     1
  9
$PLINEGEN
 70
     0
  9
$PSLTSCALE
 70
     1
  9
$TREEDEPTH
 70
  3020
  9
$CMLSTYLE
  2
Standard
  9
$CMLJUST
 70
     0
  9
$CMLSCALE
 40
1.0
  9
$PROXYGRAPHICS
 70
     1
  9
$MEASUREMENT
 70
     1
  9
$CELWEIGHT
370
    -1
  9
$ENDCAPS
280
     0
  9
$JOINSTYLE
280
     0
  9
$LWDISPLAY
290
     0
  9
$INSUNITS
 70
     1
  9
$HYPERLINKBASE
  1

  9
$STYLESHEET
  1

  9
$XEDIT
290
     1
  9
$CEPSNTYPE
380
     0
  9
$PSTYLEMODE
290
     1
  9
$FINGERPRINTGUID
  2
{101B0951-9945-4A0C-8F2D-7A5944DEA4A6}
  9
$VERSIONGUID
  2
{FAEB1C32-E019-11D5-929B-00C0DF256EC4}
  9
$EXTNAMES
290
     1
  9
$PSVPSCALE
 40
0.0
  9
$OLESTARTUP
290
     0
  9
$SORTENTS
280
   127
  9
$INDEXCTL
280
     0
  9
$HIDETEXT
280
     1
  9
$XCLIPFRAME
280
     2
  9
$HALOGAP
280
     0
  9
$OBSCOLOR
 70
   257
  9
$OBSLTYPE
280
     0
  9
$INTERSECTIONDISPLAY
280
     0
  9
$INTERSECTIONCOLOR
 70
   257
  9
$DIMASSOC
280
     2
  9
$PROJECTNAME
  1

  9
$CAMERADISPLAY
290
     0
  9
$LENSLENGTH
 40
50.0
  9
$CAMERAHEIGHT
 40
0.0
  9
$STEPSPERSEC
 40
2.0
  9
$STEPSIZE
 40
6.0
  9
$3DDWFPREC
 40
2.0
  9
$PSOLWIDTH
 40
0.25
  9
$PSOLHEIGHT
 40
4.0
  9
$LOFTANG1
 40
1.5707963267949
  9
$LOFTANG2
 40
1.5707963267949
  9
$LOFTMAG1
 40
0.0
  9
$LOFTMAG2
 40
0.0
  9
$LOFTPARAM
 70
     7
  9
$LOFTNORMALS
280
     1
  9
$LATITUDE
 40
37.795
  9
$LONGITUDE
 40
-122.394
  9
$NORTHDIRECTION
 40
0.0
  9
$TIMEZONE
 70
 -8000
  9
$LIGHTGLYPHDISPLAY
280
     1
  9
$TILEMODELIGHTSYNCH
280
     1
  9
$SOLIDHIST
280
     1
  9
$SHOWHIST
280
     1
  9
$DWFFRAME
280
     2
  9
$DGNFRAME
280
     2
  9
$REALWORLDSCALE
290
     1
  9
$INTERFERECOLOR
 62
   256
  9
$CSHADOW
280
     0
  9
$SHADOWPLANELOCATION
 40
0.0
  0
ENDSEC
  0
SECTION
  2
CLASSES
  0
CLASS
  1
ACDBDICTIONARYWDFLT
  2
AcDbDictionaryWithDefault
  3
ObjectDBX Classes
 90
        0
 91
        4
280
     0
281
     0
  0
CLASS
  1
VISUALSTYLE
  2
AcDbVisualStyle
  3
ObjectDBX Classes
 90
     4095
 91
        4
280
     0
281
     0
  0
CLASS
  1
MATERIAL
  2
AcDbMaterial
  3
ObjectDBX Classes
 90
     1153
 91
        4
280
     0
281
     0
  0
CLASS
  1

  2
exOdDbCircle
  3

 90
        0
 91
        4
280
     0
281
     1
  0
CLASS
  1

  2
exOdDbSpline
  3

 90
        0
 91
        4
280
     0
281
     1
  0
ENDSEC
  0
SECTION
  2
TABLES
  0
TABLE
  2
VPORT
  5
8
330
0
100
AcDbSymbolTable
 70
     1
  0
VPORT
  5
29
330
8
100
AcDbSymbolTableRecord
100
AcDbViewportTableRecord
  2
*Active
 70
     0
 10
0.0
 20
0.0
 11
1.0
 21
1.0
 12
2490.48284146423
 22
12600.2945406727
 13
0.0
 23
0.0
 14
0.5
 24
0.5
 15
0.5
 25
0.5
 16
0.0
 26
0.0
 36
1.0
 17
0.0
 27
0.0
 37
0.0
 40
7493.279739123443
 41
1.60267857142857
 42
50.0
 43
0.0
 44
0.0
 50
0.0
 51
0.0
 71
     0
 72
   100
 73
     1
 74
     3
 75
     0
 76
     0
 77
     0
 78
     0
281
     0
 65
     1
110
0.0
120
0.0
130
0.0
111
1.0
121
0.0
131
0.0
112
0.0
122
1.0
132
0.0
 79
     0
146
0.0
 60
     3
 61
     5
292
     1
282
     1
141
0.0
142
0.0
 63
   250
  0
ENDTAB
  0
TABLE
  2
LTYPE
  5
5
330
0
100
AcDbSymbolTable
 70
     8
  0
LTYPE
  5
14
330
5
100
AcDbSymbolTableRecord
100
AcDbLinetypeTableRecord
  2
ByBlock
 70
     0
  3

 72
    65
 73
     0
 40
0.0
  0
LTYPE
  5
15
330
5
100
AcDbSymbolTableRecord
100
AcDbLinetypeTableRecord
  2
ByLayer
 70
     0
  3

 72
    65
 73
     0
 40
0.0
  0
LTYPE
  5
16
330
5
100
AcDbSymbolTableRecord
100
AcDbLinetypeTableRecord
  2
Continuous
 70
     0
  3
Solid line
 72
    65
 73
     0
 40
0.0
  0
LTYPE
  5
3F
330
5
100
AcDbSymbolTableRecord
100
AcDbLinetypeTableRecord
  2
DASHED
 70
     0
  3
Dashed
 72
    65
 73
     2
 40
15.0
 49
7.0
 74
     0
 49
-8.0
 74
     0
  0
LTYPE
  5
40
330
5
100
AcDbSymbolTableRecord
100
AcDbLinetypeTableRecord
  2
DOTTED
 70
     0
  3
Dotted
 72
    65
 73
     2
 40
1.0
 49
0.0
 74
     0
 49
-1.0
 74
     0
  0
LTYPE
  5
41
330
5
100
AcDbSymbolTableRecord
100
AcDbLinetypeTableRecord
  2
DOT_CENTER
 70
     0
  3
Dot_Center
 72
    65
 73
     4
 40
14.0
 49
12.0
 74
     0
 49
-1.0
 74
     0
 49
0.0
 74
     0
 49
-1.0
 74
     0
  0
LTYPE
  5
42
330
5
100
AcDbSymbolTableRecord
100
AcDbLinetypeTableRecord
  2
LONG_DASHED
 70
     0
  3
Long_Dashed
 72
    65
 73
     2
 40
15.0
 49
10.0
 74
     0
 49
-5.0
 74
     0
  0
LTYPE
  5
43
330
5
100
AcDbSymbolTableRecord
100
AcDbLinetypeTableRecord
  2
DASH_CENTER
 70
     0
  3
Dash_Center
 72
    65
 73
     4
 40
14.0
 49
11.0
 74
     0
 49
-1.0
 74
     0
 49
1.0
 74
     0
 49
-1.0
 74
     0
  0
LTYPE
  5
44
330
5
100
AcDbSymbolTableRecord
100
AcDbLinetypeTableRecord
  2
PHANTOM
 70
     0
  3
Phantom
 72
    65
 73
     6
 40
13.0
 49
10.0
 74
     0
 49
-1.0
 74
     0
 49
0.0
 74
     0
 49
-1.0
 74
     0
 49
0.0
 74
     0
 49
-1.0
 74
     0
  0
LTYPE
  5
45
330
5
100
AcDbSymbolTableRecord
100
AcDbLinetypeTableRecord
  2
CENTER_DASH_DASH
 70
     0
  3
Center_Dash_Dash
 72
    65
 73
     6
 40
14.0
 49
9.0
 74
     0
 49
-1.0
 74
     0
 49
1.0
 74
     0
 49
-1.0
 74
     0
 49
1.0
 74
     0
 49
-1.0
 74
     0
  0
ENDTAB
  0
TABLE
  2
LAYER
  5
2
330
0
100
AcDbSymbolTable
 70
     3
  0
LAYER
  5
10
330
2
100
AcDbSymbolTableRecord
100
AcDbLayerTableRecord
  2
0
 70
     0
 62
     7
  6
Continuous
370
    -3
390
F
347
3E
  0
LAYER
  5
46
330
2
100
AcDbSymbolTableRecord
100
AcDbLayerTableRecord
  2
1
 70
     0
 62
     7
  6
Continuous
370
    -3
390
F
347
3E
  0
LAYER
  5
47
330
2
100
AcDbSymbolTableRecord
100
AcDbLayerTableRecord
  2
POEF
 70
     0
 62
     7
  6
Continuous
370
    -3
390
F
347
3E
  0
ENDTAB
  0
TABLE
  2
STYLE
  5
3
330
0
100
AcDbSymbolTable
 70
     1
  0
STYLE
  5
11
330
3
100
AcDbSymbolTableRecord
100
AcDbTextStyleTableRecord
  2
Standard
 70
     0
 40
0.0
 41
1.0
 50
0.0
 71
     0
 42
0.2
  3
txt
  4

  0
ENDTAB
  0
TABLE
  2
VIEW
  5
6
330
0
100
AcDbSymbolTable
 70
     0
  0
ENDTAB
  0
TABLE
  2
UCS
  5
7
330
0
100
AcDbSymbolTable
 70
     0
  0
ENDTAB
  0
TABLE
  2
APPID
  5
9
330
0
100
AcDbSymbolTable
 70
     1
  0
APPID
  5
12
330
9
100
AcDbSymbolTableRecord
100
AcDbRegAppTableRecord
  2
ACAD
 70
     0
  0
ENDTAB
  0
TABLE
  2
DIMSTYLE
  5
A
330
0
100
AcDbSymbolTable
 70
     1
100
AcDbDimStyleTable
  0
DIMSTYLE
105
27
330
A
100
AcDbSymbolTableRecord
100
AcDbDimStyleTableRecord
  2
Standard
 70
     0
340
11
  0
ENDTAB
  0
TABLE
  2
BLOCK_RECORD
  5
1
330
0
100
AcDbSymbolTable
 70
     1
  0
BLOCK_RECORD
  5
1F
330
1
100
AcDbSymbolTableRecord
100
AcDbBlockTableRecord
  2
*Model_Space
340
22
 70
     0
280
     1
281
     0
  0
BLOCK_RECORD
  5
1B
330
1
100
AcDbSymbolTableRecord
100
AcDbBlockTableRecord
  2
*Paper_Space
340
1E
 70
     0
280
     1
281
     0
  0
BLOCK_RECORD
  5
23
330
1
100
AcDbSymbolTableRecord
100
AcDbBlockTableRecord
  2
*Paper_Space0
340
26
 70
     0
280
     1
281
     0
  0
ENDTAB
  0
ENDSEC
  0
SECTION
  2
BLOCKS
  0
BLOCK
  5
20
330
1F
100
AcDbEntity
  8
0
100
AcDbBlockBegin
  2
*Model_Space
 70
     0
 10
0.0
 20
0.0
 30
0.0
  3
*Model_Space
  1

  0
ENDBLK
  5
21
330
1F
100
AcDbEntity
  8
0
100
AcDbBlockEnd
  0
BLOCK
  5
1C
330
1B
100
AcDbEntity
 67
     1
  8
0
100
AcDbBlockBegin
  2
*Paper_Space
 70
     0
 10
0.0
 20
0.0
 30
0.0
  3
*Paper_Space
  1

  0
ENDBLK
  5
1D
330
1B
100
AcDbEntity
 67
     1
  8
0
100
AcDbBlockEnd
  0
BLOCK
  5
24
330
23
100
AcDbEntity
  8
0
100
AcDbBlockBegin
  2
*Paper_Space0
 70
     0
 10
0.0
 20
0.0
 30
0.0
  3
*Paper_Space0
  1

  0
ENDBLK
  5
25
330
23
100
AcDbEntity
  8
0
100
AcDbBlockEnd
  0
ENDSEC
  0
SECTION
  2
ENTITIES
  0
LINE
  5
48
330
1F
100
AcDbEntity
  8
1
  6
Continuous
 62
     3
100
AcDbLine
 10
-1647.514505303639
 20
14356.3290433688
 30
0.0
 11
-1618.032651434779
 21
14347.0716376265
 31
0.0
  0
LINE
  5
49
330
1F
100
AcDbEntity
  8
1
  6
Continuous
 62
     7
100
AcDbLine
 10
-1785.043347776109
 20
14379.8756934734
 30
0.0
 11
-1754.882610503849
 21
14386.5994718619
 31
0.0
  0
LINE
  5
4A
330
1F
100
AcDbEntity
  8
1
  6
Continuous
 62
     3
100
AcDbLine
 10
-2011.184716181259
 20
14265.1133505137
 30
0.0
 11
-1984.307702234049
 21
14280.3614779366
 31
0.0
  0
LINE
  5
4B
330
1F
100
AcDbEntity
  8
1
  6
Continuous
 62
     3
100
AcDbLine
 10
-2193.891520457999
 20
14089.248238747
 30
0.0
 11
-2172.647025202658
 21
14111.6881739066
 31
0.0
  0
LINE
  5
4C
330
1F
100
AcDbEntity
  8
1
  6
Continuous
 62
     1
100
AcDbLine
 10
-2319.298461996069
 20
10949.3339529453
 30
0.0
 11
-2319.298461996069
 21
11714.3339529453
 31
0.0
  0
LINE
  5
4D
330
1F
100
AcDbEntity
  8
1
  6
Continuous
 62
     1
100
AcDbLine
 10
-2369.298461996069
 20
11714.3339529453
 30
0.0
 11
-2369.298461996069
 21
10949.3339529453
 31
0.0
  0
LINE
  5
4E
330
1F
100
AcDbEntity
  8
1
  6
Continuous
 62
     1
100
AcDbLine
 10
-2908.29846199623
 20
10949.3339529453
 30
0.0
 11
-2908.29846199623
 21
11714.3339529453
 31
0.0
  0
LINE
  5
4F
330
1F
100
AcDbEntity
  8
1
  6
Continuous
 62
     1
100
AcDbLine
 10
-2958.29846199623
 20
11714.3339529453
 30
0.0
 11
-2958.29846199623
 21
10949.3339529453
 31
0.0
  0
LINE
  5
50
330
1F
100
AcDbEntity
  8
1
  6
Continuous
 62
     7
100
AcDbLine
 10
-2898.29846199623
 20
11763.2624191602
 30
0.0
 11
-2898.29846199623
 21
11709.3339529453
 31
0.0
  0
LINE
  5
51
330
1F
100
AcDbEntity
  8
1
  6
Continuous
 62
     7
100
AcDbLine
 10
-2379.298461996069
 20
11709.3339529453
 30
0.0
 11
-2379.298461996069
 21
11762.9801754073
 31
0.0
  0
LINE
  5
52
330
1F
100
AcDbEntity
  8
1
  6
Continuous
 62
     7
100
AcDbLine
 10
-2898.29846199623
 20
11709.3339529453
 30
0.0
 11
-2898.29846199623
 21
10954.3339529453
 31
0.0
  0
LINE
  5
53
330
1F
100
AcDbEntity
  8
1
  6
Continuous
 62
     7
100
AcDbLine
 10
-2379.298461996069
 20
10954.3339529453
 30
0.0
 11
-2379.298461996069
 21
11709.3339529453
 31
0.0
  0
LINE
  5
54
330
1F
100
AcDbEntity
  8
1
  6
Continuous
 62
     7
100
AcDbLine
 10
-2314.298461996069
 20
10949.3339529453
 30
0.0
 11
-2374.298461996069
 21
10949.3339529453
 31
0.0
  0
LINE
  5
55
330
1F
100
AcDbEntity
  8
1
  6
Continuous
 62
     7
100
AcDbLine
 10
-2309.298461996069
 20
11709.3339529453
 30
0.0
 11
-2309.298461996069
 21
10954.3339529453
 31
0.0
  0
LINE
  5
56
330
1F
100
AcDbEntity
  8
1
  6
Continuous
 62
     7
100
AcDbLine
 10
-2374.298461996069
 20
11714.3339529453
 30
0.0
 11
-2314.298461996069
 21
11714.3339529453
 31
0.0
  0
LINE
  5
57
330
1F
100
AcDbEntity
  8
1
  6
Continuous
 62
     7
100
AcDbLine
 10
-2968.29846199623
 20
10954.3339529453
 30
0.0
 11
-2968.29846199623
 21
11709.3339529453
 31
0.0
  0
LINE
  5
58
330
1F
100
AcDbEntity
  8
1
  6
Continuous
 62
     7
100
AcDbLine
 10
-2903.29846199623
 20
10949.3339529453
 30
0.0
 11
-2963.29846199623
 21
10949.3339529453
 31
0.0
  0
LINE
  5
59
330
1F
100
AcDbEntity
  8
1
  6
Continuous
 62
     7
100
AcDbLine
 10
-2963.29846199623
 20
11714.3339529453
 30
0.0
 11
-2903.29846199623
 21
11714.3339529453
 31
0.0
  0
LINE
  5
5A
330
1F
100
AcDbEntity
  8
1
  6
Continuous
 62
     1
100
AcDbLine
 10
-2393.360141013289
 20
11639.2312219432
 30
0.0
 11
-2393.360141013289
 21
11696.1119758576
 31
0.0
  0
LINE
  5
5B
330
1F
100
AcDbEntity
  8
1
  6
Continuous
 62
     1
100
AcDbLine
 10
-2885.236782978647
 20
11639.2312219432
 30
0.0
 11
-2885.236782978647
 21
11696.1119758576
 31
0.0
  0
LINE
  5
5C
330
1F
100
AcDbEntity
  8
1
  6
Continuous
 62
     1
100
AcDbLine
 10
-2319.298461996069
 20
13801.5072955839
 30
0.0
 11
-2319.298461996069
 21
13321.5072955839
 31
0.0
  0
LINE
  5
5D
330
1F
100
AcDbEntity
  8
1
  6
Continuous
 62
     1
100
AcDbLine
 10
-2369.298461996069
 20
13801.5072955839
 30
0.0
 11
-2369.298461996069
 21
13321.5072955839
 31
0.0
  0
LINE
  5
5E
330
1F
100
AcDbEntity
  8
1
  6
Continuous
 62
     1
100
AcDbLine
 10
-2908.29846199623
 20
13801.5072955839
 30
0.0
 11
-2908.29846199623
 21
13321.5072955839
 31
0.0
  0
LINE
  5
5F
330
1F
100
AcDbEntity
  8
1
  6
Continuous
 62
     1
100
AcDbLine
 10
-2958.29846199623
 20
13801.5072955839
 30
0.0
 11
-2958.29846199623
 21
13321.5072955839
 31
0.0
  0
LINE
  5
60
330
1F
100
AcDbEntity
  8
1
  6
Continuous
 62
     7
100
AcDbLine
 10
-2968.29846199623
 20
13321.5072955839
 30
0.0
 11
-2968.29846199623
 21
13796.5072955839
 31
0.0
  0
LINE
  5
61
330
1F
100
AcDbEntity
  8
1
  6
Continuous
 62
     7
100
AcDbLine
 10
-2898.29846199623
 20
13321.5072955839
 30
0.0
 11
-2968.29846199623
 21
13321.5072955839
 31
0.0
  0
LINE
  5
62
330
1F
100
AcDbEntity
  8
1
  6
Continuous
 62
     7
100
AcDbLine
 10
-2898.29846199623
 20
13796.5072955839
 30
0.0
 11
-2898.29846199623
 21
13321.5072955839
 31
0.0
  0
LINE
  5
63
330
1F
100
AcDbEntity
  8
1
  6
Continuous
 62
     7
100
AcDbLine
 10
-2963.29846199623
 20
13801.5072955839
 30
0.0
 11
-2903.29846199623
 21
13801.5072955839
 31
0.0
  0
LINE
  5
64
330
1F
100
AcDbEntity
  8
1
  6
Continuous
 62
     7
100
AcDbLine
 10
-2309.298461996069
 20
13796.5072955839
 30
0.0
 11
-2309.298461996069
 21
13321.5072955839
 31
0.0
  0
LINE
  5
65
330
1F
100
AcDbEntity
  8
1
  6
Continuous
 62
     7
100
AcDbLine
 10
-2374.298461996069
 20
13801.5072955839
 30
0.0
 11
-2314.298461996069
 21
13801.5072955839
 31
0.0
  0
LINE
  5
66
330
1F
100
AcDbEntity
  8
1
  6
Continuous
 62
     7
100
AcDbLine
 10
-2379.298461996069
 20
13321.5072955839
 30
0.0
 11
-2379.298461996069
 21
13796.5072955839
 31
0.0
  0
LINE
  5
67
330
1F
100
AcDbEntity
  8
1
  6
Continuous
 62
     7
100
AcDbLine
 10
-2309.298461996069
 20
13321.5072955839
 30
0.0
 11
-2379.298461996069
 21
13321.5072955839
 31
0.0
  0
LINE
  5
68
330
1F
100
AcDbEntity
  8
1
  6
Continuous
 62
     7
100
AcDbLine
 10
-2379.298461996069
 20
13801.5072955839
 30
0.0
 11
-2898.29846199623
 21
13801.5072955839
 31
0.0
  0
LINE
  5
69
330
1F
100
AcDbEntity
  8
0
  6
Continuous
 62
     7
100
AcDbLine
 10
-1467.888520668749
 20
13295.5052734292
 30
0.0
 11
-1467.888520668749
 21
13321.5072955839
 31
0.0
  0
LINE
  5
6A
330
1F
100
AcDbEntity
  8
0
  6
Continuous
 62
     7
100
AcDbLine
 10
-1397.888520610329
 20
13295.5052734292
 30
0.0
 11
-1397.888520610329
 21
13321.5072955839
 31
0.0
  0
LINE
  5
6B
330
1F
100
AcDbEntity
  8
0
  6
Continuous
 62
     7
100
AcDbLine
 10
-1397.907760186059
 20
13295.5052734292
 30
0.0
 11
-1134.924285851739
 21
13267.8645964718
 31
0.0
  0
LINE
  5
6C
330
1F
100
AcDbEntity
  8
0
  6
Continuous
 62
     7
100
AcDbLine
 10
-1137.790882815879
 20
13245.5052734292
 30
0.0
 11
-1156.205545419559
 21
13245.5052734292
 31
0.0
  0
LINE
  5
6D
330
1F
100
AcDbEntity
  8
0
  6
Continuous
 62
     7
100
AcDbLine
 10
-1133.961540311349
 20
13245.5052734292
 30
0.0
 11
-1137.790882815879
 21
13245.5052734292
 31
0.0
  0
LINE
  5
6E
330
1F
100
AcDbEntity
  8
0
  6
Continuous
 62
     7
100
AcDbLine
 10
-1134.030184780259
 20
13266.9224105326
 30
0.0
 11
-1132.962910776589
 21
13246.5576093854
 31
0.0
  0
LINE
  5
6F
330
1F
100
AcDbEntity
  8
0
  6
Continuous
 62
     7
100
AcDbLine
 10
-1397.888520610329
 20
13295.5052734292
 30
0.0
 11
-1467.888520668749
 21
13295.5052734292
 31
0.0
  0
LINE
  5
70
330
1F
100
AcDbEntity
  8
0
  6
Continuous
 62
     7
100
AcDbLine
 10
-1728.024637556249
 20
13245.5052734292
 30
0.0
 11
-1731.853980060779
 21
13245.5052734292
 31
0.0
  0
LINE
  5
71
330
1F
100
AcDbEntity
  8
0
  6
Continuous
 62
     7
100
AcDbLine
 10
-1709.609974952559
 20
13245.5052734292
 30
0.0
 11
-1728.024637556249
 21
13245.5052734292
 31
0.0
  0
LINE
  5
72
330
1F
100
AcDbEntity
  8
0
  6
Continuous
 62
     7
100
AcDbLine
 10
-1156.205545419559
 20
13245.5052734292
 30
0.0
 11
-1709.609974952559
 21
13245.5052734292
 31
0.0
  0
LINE
  5
73
330
1F
100
AcDbEntity
  8
0
  6
Continuous
 62
     7
100
AcDbLine
 10
-1467.907760186059
 20
13295.5052734292
 30
0.0
 11
-1730.891234520379
 21
13267.8645964718
 31
0.0
  0
LINE
  5
74
330
1F
100
AcDbEntity
  8
0
  6
Continuous
 62
     7
100
AcDbLine
 10
-1731.785335591869
 20
13266.9224105326
 30
0.0
 11
-1732.852609595539
 21
13246.5576093854
 31
0.0
  0
LINE
  5
75
330
1F
100
AcDbEntity
  8
0
  6
Continuous
 62
     7
100
AcDbLine
 10
-2603.759982961509
 20
13295.5052734292
 30
0.0
 11
-2603.759982961509
 21
13398.5134948427
 31
0.0
  0
LINE
  5
76
330
1F
100
AcDbEntity
  8
0
  6
Continuous
 62
     7
100
AcDbLine
 10
-2937.656797943055
 20
13266.9224105326
 30
0.0
 11
-2938.724071946721
 21
13246.5576093854
 31
0.0
  0
LINE
  5
77
330
1F
100
AcDbEntity
  8
0
  6
Continuous
 62
     7
100
AcDbLine
 10
-2673.779222537247
 20
13295.5052734292
 30
0.0
 11
-2936.762696871568
 21
13267.8645964718
 31
0.0
  0
LINE
  5
78
330
1F
100
AcDbEntity
  8
0
  6
Continuous
 62
     7
100
AcDbLine
 10
-2362.077007770748
 20
13245.5052734292
 30
0.0
 11
-2915.481437303745
 21
13245.5052734292
 31
0.0
  0
LINE
  5
79
330
1F
100
AcDbEntity
  8
0
  6
Continuous
 62
     7
100
AcDbLine
 10
-2915.481437303745
 20
13245.5052734292
 30
0.0
 11
-2933.89609990743
 21
13245.5052734292
 31
0.0
  0
LINE
  5
7A
330
1F
100
AcDbEntity
  8
0
  6
Continuous
 62
     7
100
AcDbLine
 10
-2933.89609990743
 20
13245.5052734292
 30
0.0
 11
-2937.725442411968
 21
13245.5052734292
 31
0.0
  0
LINE
  5
7B
330
1F
100
AcDbEntity
  8
0
  6
Continuous
 62
     7
100
AcDbLine
 10
-2603.759982961509
 20
13295.5052734292
 30
0.0
 11
-2673.759983019929
 21
13295.5052734292
 31
0.0
  0
LINE
  5
7C
330
1F
100
AcDbEntity
  8
0
  6
Continuous
 62
     7
100
AcDbLine
 10
-2339.901647131439
 20
13266.9224105326
 30
0.0
 11
-2338.834373127769
 21
13246.5576093854
 31
0.0
  0
LINE
  5
7D
330
1F
100
AcDbEntity
  8
0
  6
Continuous
 62
     7
100
AcDbLine
 10
-2339.833002662529
 20
13245.5052734292
 30
0.0
 11
-2343.662345167058
 21
13245.5052734292
 31
0.0
  0
LINE
  5
7E
330
1F
100
AcDbEntity
  8
0
  6
Continuous
 62
     7
100
AcDbLine
 10
-2343.662345167058
 20
13245.5052734292
 30
0.0
 11
-2362.077007770748
 21
13245.5052734292
 31
0.0
  0
LINE
  5
7F
330
1F
100
AcDbEntity
  8
0
  6
Continuous
 62
     7
100
AcDbLine
 10
-2603.779222537249
 20
13295.5052734292
 30
0.0
 11
-2340.795748202929
 21
13267.8645964718
 31
0.0
  0
LINE
  5
80
330
1F
100
AcDbEntity
  8
0
  6
Continuous
 62
     7
100
AcDbLine
 10
-2673.759983019929
 20
13295.5052734292
 30
0.0
 11
-2673.759983019929
 21
13398.5134948427
 31
0.0
  0
LINE
  5
81
330
1F
100
AcDbEntity
  8
1
  6
Continuous
 62
     1
100
AcDbLine
 10
-1345.388520610329
 20
13801.5072955839
 30
0.0
 11
-1345.388520610329
 21
13321.5072955839
 31
0.0
  0
LINE
  5
82
330
1F
100
AcDbEntity
  8
POEF
  6
Continuous
 62
     3
100
AcDbLine
 10
-752.6763581230985
 20
13724.3334550421
 30
0.0
 11
-751.5863802267586
 21
13718.6051790482
 31
0.0
  0
LINE
  5
83
330
1F
100
AcDbEntity
  8
1
  6
Continuous
 62
     3
100
AcDbLine
 10
-962.8885206103287
 20
13693.0642828604
 30
0.0
 11
-762.6122901909289
 21
13731.0953523904
 31
0.0
  0
LINE
  5
84
330
1F
100
AcDbEntity
  8
1
  6
Continuous
 62
     3
100
AcDbLine
 10
-757.5033046587187
 20
13708.8720261794
 30
0.0
 11
-962.8885206103287
 21
13647.5093929602
 31
0.0
  0
LINE
  5
85
330
1F
100
AcDbEntity
  8
0
  6
Continuous
 62
     7
100
AcDbLine
 10
-2518.686139723869
 20
11543.7733127222
 30
0.0
 11
-2518.686139723869
 21
11543.7689180336
 31
0.0
  0
LINE
  5
86
330
1F
100
AcDbEntity
  8
0
  6
Continuous
 62
     7
100
AcDbLine
 10
-2518.686139723869
 20
11343.7733127222
 30
0.0
 11
-2518.686139723869
 21
11343.7689180356
 31
0.0
  0
LINE
  5
87
330
1F
100
AcDbEntity
  8
1
  6
Continuous
 62
     7
100
AcDbLine
 10
-1727.888520610329
 20
13776.5072955839
 30
0.0
 11
-1727.888520610329
 21
13321.5072955839
 31
0.0
  0
LINE
  5
88
330
1F
100
AcDbEntity
  8
1
  6
Continuous
 62
     7
100
AcDbLine
 10
-987.8885206103287
 20
13801.5072955839
 30
0.0
 11
-1702.888520610329
 21
13801.5072955839
 31
0.0
  0
LINE
  5
89
330
1F
100
AcDbEntity
  8
1
  6
Continuous
 62
     7
100
AcDbLine
 10
-962.8885206103287
 20
13321.5072955839
 30
0.0
 11
-962.8885206103287
 21
13776.5072955839
 31
0.0
  0
LINE
  5
8A
330
1F
100
AcDbEntity
  8
1
  6
Continuous
 62
     7
100
AcDbLine
 10
-1727.888520610329
 20
13321.5072955839
 30
0.0
 11
-962.8885206103287
 21
13321.5072955839
 31
0.0
  0
LINE
  5
8B
330
1F
100
AcDbEntity
  8
1
  6
Continuous
 62
     1
100
AcDbLine
 10
-2394.298461996099
 20
13701.5072955839
 30
0.0
 11
-2394.298461995929
 21
14387.4700546144
 31
0.0
  0
LINE
  5
8C
330
1F
100
AcDbEntity
  8
1
  6
Continuous
 62
     1
100
AcDbLine
 10
-2883.298461996194
 20
13701.5072955839
 30
0.0
 11
-2883.298461996327
 21
14387.4700546144
 31
0.0
  0
LINE
  5
8D
330
1F
100
AcDbEntity
  8
0
  6
Continuous
 62
     7
100
AcDbLine
 10
-2898.29846199623
 20
10954.3339529453
 30
0.0
 11
-2379.298461996069
 21
10954.3339529453
 31
0.0
  0
LINE
  5
8E
330
1F
100
AcDbEntity
  8
1
  6
Continuous
 62
     7
100
AcDbLine
 10
-2874.037303100654
 20
13398.5134948427
 30
0.0
 11
-2403.559620891629
 21
13398.5134948427
 31
0.0
  0
LINE
  5
8F
330
1F
100
AcDbEntity
  8
1
  6
Continuous
 62
     7
100
AcDbLine
 10
-2887.500677277332
 20
13593.746449702
 30
0.0
 11
-2390.096246714958
 21
13593.746449702
 31
0.0
  0
LINE
  5
90
330
1F
100
AcDbEntity
  8
1
  6
Continuous
 62
     7
100
AcDbLine
 10
-2897.471292073697
 20
13582.9803944934
 30
0.0
 11
-2884.007917897019
 21
13407.7474396342
 31
0.0
  0
LINE
  5
91
330
1F
100
AcDbEntity
  8
1
  6
Continuous
 62
     7
100
AcDbLine
 10
-2393.589006095269
 20
13407.7474396342
 30
0.0
 11
-2380.125631918589
 21
13582.9803944934
 31
0.0
  0
LINE
  5
92
330
1F
100
AcDbEntity
  8
1
  6
Continuous
 62
     7
100
AcDbLine
 10
-2888.298461996194
 20
13701.5072955839
 30
0.0
 11
-2389.298461996099
 21
13701.5072955839
 31
0.0
  0
LINE
  5
93
330
1F
100
AcDbEntity
  8
1
  6
Continuous
 62
     7
100
AcDbLine
 10
-2379.298461995969
 20
14382.4700546144
 30
0.0
 11
-2379.298461996089
 21
13747.1097228823
 31
0.0
  0
LINE
  5
94
330
1F
100
AcDbEntity
  8
1
  6
Continuous
 62
     7
100
AcDbLine
 10
-2888.298461996134
 20
13593.746449702
 30
0.0
 11
-2389.298461996119
 21
13593.746449702
 31
0.0
  0
LINE
  5
95
330
1F
100
AcDbEntity
  8
1
  6
Continuous
 62
     7
100
AcDbLine
 10
-2898.298461996203
 20
13747.1097228823
 30
0.0
 11
-2898.298461996325
 21
14382.4700546144
 31
0.0
  0
LINE
  5
96
330
1F
100
AcDbEntity
  8
1
  6
Continuous
 62
     7
100
AcDbLine
 10
-2897.471292073697
 20
13582.9803944934
 30
0.0
 11
-2884.007917897019
 21
13407.7474396342
 31
0.0
  0
LINE
  5
97
330
1F
100
AcDbEntity
  8
1
  6
Continuous
 62
     7
100
AcDbLine
 10
-2893.298461996325
 20
14387.4700546144
 30
0.0
 11
-2384.298461995969
 21
14387.4700546144
 31
0.0
  0
LINE
  5
98
330
1F
100
AcDbEntity
  8
1
  6
Continuous
 62
     3
100
AcDbLine
 10
-2898.29846199623
 20
11763.2624191602
 30
0.0
 11
-2898.29846199623
 21
12159.0924575377
 31
0.0
  0
LINE
  5
99
330
1F
100
AcDbEntity
  8
1
  6
Continuous
 62
     3
100
AcDbLine
 10
-2379.298461996069
 20
12159.0924575377
 30
0.0
 11
-2379.298461996069
 21
11762.9801754073
 31
0.0
  0
LINE
  5
9A
330
1F
100
AcDbEntity
  8
1
  6
Continuous
 62
     3
100
AcDbLine
 10
-2898.29846199623
 20
10949.3339529453
 30
0.0
 11
-2898.29846199623
 21
10739.1217904581
 31
0.0
  0
LINE
  5
9B
330
1F
100
AcDbEntity
  8
1
  6
Continuous
 62
     3
100
AcDbLine
 10
-2898.29846199623
 20
10739.1217904581
 30
0.0
 11
-2379.298461996069
 21
10739.1217904581
 31
0.0
  0
LINE
  5
9C
330
1F
100
AcDbEntity
  8
1
  6
Continuous
 62
     3
100
AcDbLine
 10
-2379.298461996069
 20
10739.1217904581
 30
0.0
 11
-2379.298461996069
 21
10954.3339529453
 31
0.0
  0
LINE
  5
9D
330
1F
100
AcDbEntity
  8
1
  6
Continuous
 62
     1
100
AcDbLine
 10
6342.12376852483
 20
10949.3339529453
 30
0.0
 11
6342.12376852483
 21
11714.3339529453
 31
0.0
  0
LINE
  5
9E
330
1F
100
AcDbEntity
  8
1
  6
Continuous
 62
     1
100
AcDbLine
 10
6268.06208950761
 20
11639.2312219432
 30
0.0
 11
6268.06208950761
 21
11696.1119758576
 31
0.0
  0
LINE
  5
9F
330
1F
100
AcDbEntity
  8
1
  6
Continuous
 62
     1
100
AcDbLine
 10
5753.12376852467
 20
10949.3339529453
 30
0.0
 11
5753.12376852467
 21
11714.3339529453
 31
0.0
  0
LINE
  5
A0
330
1F
100
AcDbEntity
  8
1
  6
Continuous
 62
     1
100
AcDbLine
 10
6342.12376852483
 20
13861.5072955839
 30
0.0
 11
6342.12376852483
 21
13381.5072955839
 31
0.0
  0
LINE
  5
A1
330
1F
100
AcDbEntity
  8
1
  6
Continuous
 62
     7
100
AcDbLine
 10
6352.12376852483
 20
13856.5072955839
 30
0.0
 11
6352.12376852483
 21
13381.5072955839
 31
0.0
  0
LINE
  5
A2
330
1F
100
AcDbEntity
  8
1
  6
Continuous
 62
     3
100
AcDbLine
 10
7698.53370991057
 20
13753.0642828604
 30
0.0
 11
7938.08841333121
 21
13798.5538670424
 31
0.0
  0
LINE
  5
A3
330
1F
100
AcDbEntity
  8
1
  6
Continuous
 62
     3
100
AcDbLine
 10
7698.53370991057
 20
13707.5093929602
 30
0.0
 11
7943.19739886342
 21
13776.3305408314
 31
0.0
  0
LINE
  5
A4
330
1F
100
AcDbEntity
  8
POEF
  6
Continuous
 62
     3
100
AcDbLine
 10
7948.02434539904
 20
13791.7919696941
 30
0.0
 11
7949.11432329538
 21
13786.0636937002
 31
0.0
  0
LINE
  5
A5
330
1F
100
AcDbEntity
  8
1
  6
Continuous
 62
     3
100
AcDbLine
 10
7044.45669568907
 20
14457.9426795856
 30
0.0
 11
7072.31743427862
 21
14449.1943097392
 31
0.0
  0
LINE
  5
A6
330
1F
100
AcDbEntity
  8
1
  6
Continuous
 62
     3
100
AcDbLine
 10
6443.56598719551
 20
14194.9278014196
 30
0.0
 11
6463.64231385422
 21
14216.1338344673
 31
0.0
  0
LINE
  5
A7
330
1F
100
AcDbEntity
  8
1
  6
Continuous
 62
     3
100
AcDbLine
 10
6640.67551837767
 20
14375.8006395135
 30
0.0
 11
6666.07464907621
 21
14390.2103199223
 31
0.0
  0
LINE
  5
A8
330
1F
100
AcDbEntity
  8
1
  6
Continuous
 62
     7
100
AcDbLine
 10
5768.12376852457
 20
14497.4700546144
 30
0.0
 11
6277.12376852493
 21
14497.4700546144
 31
0.0
  0
LINE
  5
A9
330
1F
100
AcDbEntity
  8
1
  6
Continuous
 62
     7
100
AcDbLine
 10
5763.9509384472
 20
13642.9803944934
 30
0.0
 11
5777.41431262388
 21
13467.7474396342
 31
0.0
  0
LINE
  5
AA
330
1F
100
AcDbEntity
  8
1
  6
Continuous
 62
     7
100
AcDbLine
 10
5763.1237685247
 20
13807.1097228823
 30
0.0
 11
5763.12376852456
 21
14492.4700546144
 31
0.0
  0
LINE
  5
AB
330
1F
100
AcDbEntity
  8
1
  6
Continuous
 62
     7
100
AcDbLine
 10
5773.12376852477
 20
13653.746449702
 30
0.0
 11
6272.12376852478
 21
13653.746449702
 31
0.0
  0
LINE
  5
AC
330
1F
100
AcDbEntity
  8
1
  6
Continuous
 62
     7
100
AcDbLine
 10
6282.12376852493
 20
14492.4700546144
 30
0.0
 11
6282.12376852481
 21
13807.1097228823
 31
0.0
  0
LINE
  5
AD
330
1F
100
AcDbEntity
  8
1
  6
Continuous
 62
     7
100
AcDbLine
 10
5773.12376852471
 20
13761.5072955839
 30
0.0
 11
6272.1237685248
 21
13761.5072955839
 31
0.0
  0
LINE
  5
AE
330
1F
100
AcDbEntity
  8
1
  6
Continuous
 62
     7
100
AcDbLine
 10
6267.83322442563
 20
13467.7474396342
 30
0.0
 11
6281.29659860231
 21
13642.9803944934
 31
0.0
  0
LINE
  5
AF
330
1F
100
AcDbEntity
  8
1
  6
Continuous
 62
     7
100
AcDbLine
 10
5763.9509384472
 20
13642.9803944934
 30
0.0
 11
5777.41431262388
 21
13467.7474396342
 31
0.0
  0
LINE
  5
B0
330
1F
100
AcDbEntity
  8
1
  6
Continuous
 62
     7
100
AcDbLine
 10
5773.92155324357
 20
13653.746449702
 30
0.0
 11
6271.32598380594
 21
13653.746449702
 31
0.0
  0
LINE
  5
B1
330
1F
100
AcDbEntity
  8
1
  6
Continuous
 62
     7
100
AcDbLine
 10
5787.38492742024
 20
13458.5134948427
 30
0.0
 11
6257.86260962926
 21
13458.5134948427
 31
0.0
  0
LINE
  5
B2
330
1F
100
AcDbEntity
  8
0
  6
Continuous
 62
     7
100
AcDbLine
 10
5763.12376852467
 20
10954.3339529453
 30
0.0
 11
6282.12376852483
 21
10954.3339529453
 31
0.0
  0
LINE
  5
B3
330
1F
100
AcDbEntity
  8
1
  6
Continuous
 62
     1
100
AcDbLine
 10
5778.12376852471
 20
13761.5072955839
 30
0.0
 11
5778.12376852456
 21
14497.4700546144
 31
0.0
  0
LINE
  5
B4
330
1F
100
AcDbEntity
  8
1
  6
Continuous
 62
     1
100
AcDbLine
 10
6267.1237685248
 20
13761.5072955839
 30
0.0
 11
6267.12376852498
 21
14497.4700546144
 31
0.0
  0
LINE
  5
B5
330
1F
100
AcDbEntity
  8
1
  6
Continuous
 62
     7
100
AcDbLine
 10
6933.53370991057
 20
13381.5072955839
 30
0.0
 11
7698.53370991057
 21
13381.5072955839
 31
0.0
  0
LINE
  5
B6
330
1F
100
AcDbEntity
  8
1
  6
Continuous
 62
     7
100
AcDbLine
 10
7698.53370991057
 20
13381.5072955839
 30
0.0
 11
7698.53370991057
 21
13836.5072955839
 31
0.0
  0
LINE
  5
B7
330
1F
100
AcDbEntity
  8
1
  6
Continuous
 62
     7
100
AcDbLine
 10
7673.53370991057
 20
13861.5072955839
 30
0.0
 11
6958.53370991057
 21
13861.5072955839
 31
0.0
  0
LINE
  5
B8
330
1F
100
AcDbEntity
  8
1
  6
Continuous
 62
     7
100
AcDbLine
 10
6933.53370991057
 20
13836.5072955839
 30
0.0
 11
6933.53370991057
 21
13381.5072955839
 31
0.0
  0
LINE
  5
B9
330
1F
100
AcDbEntity
  8
0
  6
Continuous
 62
     7
100
AcDbLine
 10
6142.73609079703
 20
11343.7733127222
 30
0.0
 11
6142.73609079703
 21
11343.7689180356
 31
0.0
  0
LINE
  5
BA
330
1F
100
AcDbEntity
  8
0
  6
Continuous
 62
     7
100
AcDbLine
 10
6142.73609079703
 20
11543.7733127222
 30
0.0
 11
6142.73609079703
 21
11543.7689180336
 31
0.0
  0
LINE
  5
BB
330
1F
100
AcDbEntity
  8
1
  6
Continuous
 62
     1
100
AcDbLine
 10
7316.03370991057
 20
13861.5072955839
 30
0.0
 11
7316.03370991057
 21
13381.5072955839
 31
0.0
  0
LINE
  5
BC
330
1F
100
AcDbEntity
  8
0
  6
Continuous
 62
     7
100
AcDbLine
 10
5987.66224750097
 20
13295.5052734292
 30
0.0
 11
5987.66224750097
 21
13458.5134948427
 31
0.0
  0
LINE
  5
BD
330
1F
100
AcDbEntity
  8
0
  6
Continuous
 62
     7
100
AcDbLine
 10
6057.64300798365
 20
13295.5052734292
 30
0.0
 11
6320.62648231797
 21
13267.8645964718
 31
0.0
  0
LINE
  5
BE
330
1F
100
AcDbEntity
  8
0
  6
Continuous
 62
     7
100
AcDbLine
 10
6317.75988535384
 20
13245.5052734292
 30
0.0
 11
6299.34522275015
 21
13245.5052734292
 31
0.0
  0
LINE
  5
BF
330
1F
100
AcDbEntity
  8
0
  6
Continuous
 62
     7
100
AcDbLine
 10
6321.58922785837
 20
13245.5052734292
 30
0.0
 11
6317.75988535384
 21
13245.5052734292
 31
0.0
  0
LINE
  5
C0
330
1F
100
AcDbEntity
  8
0
  6
Continuous
 62
     7
100
AcDbLine
 10
6321.52058338946
 20
13266.9224105326
 30
0.0
 11
6322.58785739313
 21
13246.5576093854
 31
0.0
  0
LINE
  5
C1
330
1F
100
AcDbEntity
  8
0
  6
Continuous
 62
     7
100
AcDbLine
 10
6057.66224755939
 20
13295.5052734292
 30
0.0
 11
5987.66224750097
 21
13295.5052734292
 31
0.0
  0
LINE
  5
C2
330
1F
100
AcDbEntity
  8
0
  6
Continuous
 62
     7
100
AcDbLine
 10
5727.52613061347
 20
13245.5052734292
 30
0.0
 11
5723.69678810893
 21
13245.5052734292
 31
0.0
  0
LINE
  5
C3
330
1F
100
AcDbEntity
  8
0
  6
Continuous
 62
     7
100
AcDbLine
 10
5745.94079321715
 20
13245.5052734292
 30
0.0
 11
5727.52613061347
 21
13245.5052734292
 31
0.0
  0
LINE
  5
C4
330
1F
100
AcDbEntity
  8
0
  6
Continuous
 62
     7
100
AcDbLine
 10
6299.34522275015
 20
13245.5052734292
 30
0.0
 11
5745.94079321715
 21
13245.5052734292
 31
0.0
  0
LINE
  5
C5
330
1F
100
AcDbEntity
  8
0
  6
Continuous
 62
     7
100
AcDbLine
 10
5987.64300798365
 20
13295.5052734292
 30
0.0
 11
5724.65953364933
 21
13267.8645964718
 31
0.0
  0
LINE
  5
C6
330
1F
100
AcDbEntity
  8
0
  6
Continuous
 62
     7
100
AcDbLine
 10
5723.76543257784
 20
13266.9224105326
 30
0.0
 11
5722.69815857418
 21
13246.5576093854
 31
0.0
  0
LINE
  5
C7
330
1F
100
AcDbEntity
  8
0
  6
Continuous
 62
     7
100
AcDbLine
 10
6057.66224755939
 20
13295.5052734292
 30
0.0
 11
6057.66224755939
 21
13458.5134948427
 31
0.0
  0
LINE
  5
C8
330
1F
100
AcDbEntity
  8
0
  6
Continuous
 62
     7
100
AcDbLine
 10
6929.63689492903
 20
13266.9224105326
 30
0.0
 11
6928.56962092536
 21
13246.5576093854
 31
0.0
  0
LINE
  5
C9
330
1F
100
AcDbEntity
  8
0
  6
Continuous
 62
     7
100
AcDbLine
 10
7193.51447033484
 20
13295.5052734292
 30
0.0
 11
6930.53099600051
 21
13267.8645964718
 31
0.0
  0
LINE
  5
CA
330
1F
100
AcDbEntity
  8
0
  6
Continuous
 62
     7
100
AcDbLine
 10
7505.21668510134
 20
13245.5052734292
 30
0.0
 11
6951.81225556834
 21
13245.5052734292
 31
0.0
  0
LINE
  5
CB
330
1F
100
AcDbEntity
  8
0
  6
Continuous
 62
     7
100
AcDbLine
 10
6951.81225556834
 20
13245.5052734292
 30
0.0
 11
6933.39759296465
 21
13245.5052734292
 31
0.0
  0
LINE
  5
CC
330
1F
100
AcDbEntity
  8
0
  6
Continuous
 62
     7
100
AcDbLine
 10
6933.39759296465
 20
13245.5052734292
 30
0.0
 11
6929.56825046012
 21
13245.5052734292
 31
0.0
  0
LINE
  5
CD
330
1F
100
AcDbEntity
  8
0
  6
Continuous
 62
     7
100
AcDbLine
 10
7263.53370991057
 20
13295.5052734292
 30
0.0
 11
7193.53370985215
 21
13295.5052734292
 31
0.0
  0
LINE
  5
CE
330
1F
100
AcDbEntity
  8
0
  6
Continuous
 62
     7
100
AcDbLine
 10
7527.39204574064
 20
13266.9224105326
 30
0.0
 11
7528.45931974431
 21
13246.5576093854
 31
0.0
  0
LINE
  5
CF
330
1F
100
AcDbEntity
  8
0
  6
Continuous
 62
     7
100
AcDbLine
 10
7527.46069020955
 20
13245.5052734292
 30
0.0
 11
7523.63134770502
 21
13245.5052734292
 31
0.0
  0
LINE
  5
D0
330
1F
100
AcDbEntity
  8
0
  6
Continuous
 62
     7
100
AcDbLine
 10
7523.63134770502
 20
13245.5052734292
 30
0.0
 11
7505.21668510134
 21
13245.5052734292
 31
0.0
  0
LINE
  5
D1
330
1F
100
AcDbEntity
  8
0
  6
Continuous
 62
     7
100
AcDbLine
 10
7263.51447033484
 20
13295.5052734292
 30
0.0
 11
7526.49794466916
 21
13267.8645964718
 31
0.0
  0
LINE
  5
D2
330
1F
100
AcDbEntity
  8
0
  6
Continuous
 62
     7
100
AcDbLine
 10
7263.53370991057
 20
13295.5052734292
 30
0.0
 11
7263.53370991057
 21
13381.5072955839
 31
0.0
  0
LINE
  5
D3
330
1F
100
AcDbEntity
  8
0
  6
Continuous
 62
     7
100
AcDbLine
 10
7193.53370985215
 20
13295.5052734292
 30
0.0
 11
7193.53370985215
 21
13381.5072955839
 31
0.0
  0
LINE
  5
D4
330
1F
100
AcDbEntity
  8
1
  6
Continuous
 62
     7
100
AcDbLine
 10
6282.12376852483
 20
13861.5072955839
 30
0.0
 11
5763.12376852467
 21
13861.5072955839
 31
0.0
  0
LINE
  5
D5
330
1F
100
AcDbEntity
  8
1
  6
Continuous
 62
     7
100
AcDbLine
 10
6352.12376852483
 20
13381.5072955839
 30
0.0
 11
6282.12376852483
 21
13381.5072955839
 31
0.0
  0
LINE
  5
D6
330
1F
100
AcDbEntity
  8
1
  6
Continuous
 62
     7
100
AcDbLine
 10
6282.12376852483
 20
13381.5072955839
 30
0.0
 11
6282.12376852483
 21
13856.5072955839
 31
0.0
  0
LINE
  5
D7
330
1F
100
AcDbEntity
  8
1
  6
Continuous
 62
     7
100
AcDbLine
 10
6287.12376852483
 20
13861.5072955839
 30
0.0
 11
6347.12376852483
 21
13861.5072955839
 31
0.0
  0
LINE
  5
D8
330
1F
100
AcDbEntity
  8
1
  6
Continuous
 62
     7
100
AcDbLine
 10
5698.12376852467
 20
13861.5072955839
 30
0.0
 11
5758.12376852467
 21
13861.5072955839
 31
0.0
  0
LINE
  5
D9
330
1F
100
AcDbEntity
  8
1
  6
Continuous
 62
     7
100
AcDbLine
 10
5763.12376852467
 20
13856.5072955839
 30
0.0
 11
5763.12376852467
 21
13381.5072955839
 31
0.0
  0
LINE
  5
DA
330
1F
100
AcDbEntity
  8
1
  6
Continuous
 62
     7
100
AcDbLine
 10
5763.12376852467
 20
13381.5072955839
 30
0.0
 11
5693.12376852467
 21
13381.5072955839
 31
0.0
  0
LINE
  5
DB
330
1F
100
AcDbEntity
  8
1
  6
Continuous
 62
     7
100
AcDbLine
 10
5693.12376852467
 20
13381.5072955839
 30
0.0
 11
5693.12376852467
 21
13856.5072955839
 31
0.0
  0
LINE
  5
DC
330
1F
100
AcDbEntity
  8
1
  6
Continuous
 62
     1
100
AcDbLine
 10
5703.12376852467
 20
13861.5072955839
 30
0.0
 11
5703.12376852467
 21
13381.5072955839
 31
0.0
  0
LINE
  5
DD
330
1F
100
AcDbEntity
  8
1
  6
Continuous
 62
     1
100
AcDbLine
 10
5753.12376852467
 20
13861.5072955839
 30
0.0
 11
5753.12376852467
 21
13381.5072955839
 31
0.0
  0
LINE
  5
DE
330
1F
100
AcDbEntity
  8
1
  6
Continuous
 62
     1
100
AcDbLine
 10
6292.12376852483
 20
13861.5072955839
 30
0.0
 11
6292.12376852483
 21
13381.5072955839
 31
0.0
  0
LINE
  5
DF
330
1F
100
AcDbEntity
  8
1
  6
Continuous
 62
     1
100
AcDbLine
 10
5776.18544754225
 20
11639.2312219432
 30
0.0
 11
5776.18544754225
 21
11696.1119758576
 31
0.0
  0
LINE
  5
E0
330
1F
100
AcDbEntity
  8
1
  6
Continuous
 62
     7
100
AcDbLine
 10
5698.12376852467
 20
11714.3339529453
 30
0.0
 11
5758.12376852467
 21
11714.3339529453
 31
0.0
  0
LINE
  5
E1
330
1F
100
AcDbEntity
  8
1
  6
Continuous
 62
     7
100
AcDbLine
 10
5758.12376852467
 20
10949.3339529453
 30
0.0
 11
5698.12376852467
 21
10949.3339529453
 31
0.0
  0
LINE
  5
E2
330
1F
100
AcDbEntity
  8
1
  6
Continuous
 62
     7
100
AcDbLine
 10
5693.12376852467
 20
10954.3339529453
 30
0.0
 11
5693.12376852467
 21
11709.3339529453
 31
0.0
  0
LINE
  5
E3
330
1F
100
AcDbEntity
  8
1
  6
Continuous
 62
     7
100
AcDbLine
 10
6287.12376852483
 20
11714.3339529453
 30
0.0
 11
6347.12376852483
 21
11714.3339529453
 31
0.0
  0
LINE
  5
E4
330
1F
100
AcDbEntity
  8
1
  6
Continuous
 62
     7
100
AcDbLine
 10
6352.12376852483
 20
11709.3339529453
 30
0.0
 11
6352.12376852483
 21
10954.3339529453
 31
0.0
  0
LINE
  5
E5
330
1F
100
AcDbEntity
  8
1
  6
Continuous
 62
     7
100
AcDbLine
 10
6347.12376852483
 20
10949.3339529453
 30
0.0
 11
6287.12376852483
 21
10949.3339529453
 31
0.0
  0
LINE
  5
E6
330
1F
100
AcDbEntity
  8
1
  6
Continuous
 62
     7
100
AcDbLine
 10
6282.12376852483
 20
10954.3339529453
 30
0.0
 11
6282.12376852483
 21
11709.3339529453
 31
0.0
  0
LINE
  5
E7
330
1F
100
AcDbEntity
  8
1
  6
Continuous
 62
     7
100
AcDbLine
 10
5763.12376852467
 20
11709.3339529453
 30
0.0
 11
5763.12376852467
 21
10954.3339529453
 31
0.0
  0
LINE
  5
E8
330
1F
100
AcDbEntity
  8
1
  6
Continuous
 62
     7
100
AcDbLine
 10
6282.12376852483
 20
11709.3339529453
 30
0.0
 11
6282.12376852483
 21
11762.9801754073
 31
0.0
  0
LINE
  5
E9
330
1F
100
AcDbEntity
  8
1
  6
Continuous
 62
     7
100
AcDbLine
 10
5763.12376852467
 20
11763.2624191602
 30
0.0
 11
5763.12376852467
 21
11709.3339529453
 31
0.0
  0
LINE
  5
EA
330
1F
100
AcDbEntity
  8
1
  6
Continuous
 62
     1
100
AcDbLine
 10
5703.12376852467
 20
11714.3339529453
 30
0.0
 11
5703.12376852467
 21
10949.3339529453
 31
0.0
  0
LINE
  5
EB
330
1F
100
AcDbEntity
  8
1
  6
Continuous
 62
     1
100
AcDbLine
 10
6292.12376852483
 20
11714.3339529453
 30
0.0
 11
6292.12376852483
 21
10949.3339529453
 31
0.0
  0
LINE
  5
EC
330
1F
100
AcDbEntity
  8
1
  6
Continuous
 62
     7
100
AcDbLine
 10
6882.05440050436
 20
14491.1409451584
 30
0.0
 11
6910.55669281434
 21
14497.4950039245
 31
0.0
  0
LINE
  5
ED
330
1F
100
AcDbEntity
  8
1
  6
Continuous
 62
     3
100
AcDbLine
 10
2013.90772521726
 20
14376.3290433688
 30
0.0
 11
2043.38957908612
 21
14367.0716376265
 31
0.0
  0
LINE
  5
EE
330
1F
100
AcDbEntity
  8
1
  6
Continuous
 62
     7
100
AcDbLine
 10
1876.37888274479
 20
14399.8756934734
 30
0.0
 11
1906.53962001705
 21
14406.5994718619
 31
0.0
  0
LINE
  5
EF
330
1F
100
AcDbEntity
  8
1
  6
Continuous
 62
     3
100
AcDbLine
 10
1650.23751433964
 20
14285.1133505137
 30
0.0
 11
1677.11452828685
 21
14300.3614779366
 31
0.0
  0
LINE
  5
F0
330
1F
100
AcDbEntity
  8
1
  6
Continuous
 62
     3
100
AcDbLine
 10
1467.5307100629
 20
14109.248238747
 30
0.0
 11
1488.77520531824
 21
14131.6881739066
 31
0.0
  0
LINE
  5
F1
330
1F
100
AcDbEntity
  8
1
  6
Continuous
 62
     1
100
AcDbLine
 10
1342.12376852483
 20
10949.3339529453
 30
0.0
 11
1342.12376852483
 21
11714.3339529453
 31
0.0
  0
LINE
  5
F2
330
1F
100
AcDbEntity
  8
1
  6
Continuous
 62
     1
100
AcDbLine
 10
1292.12376852483
 20
11714.3339529453
 30
0.0
 11
1292.12376852483
 21
10949.3339529453
 31
0.0
  0
LINE
  5
F3
330
1F
100
AcDbEntity
  8
1
  6
Continuous
 62
     1
100
AcDbLine
 10
753.123768524669
 20
10949.3339529453
 30
0.0
 11
753.123768524669
 21
11714.3339529453
 31
0.0
  0
LINE
  5
F4
330
1F
100
AcDbEntity
  8
1
  6
Continuous
 62
     1
100
AcDbLine
 10
703.123768524669
 20
11714.3339529453
 30
0.0
 11
703.123768524669
 21
10949.3339529453
 31
0.0
  0
LINE
  5
F5
330
1F
100
AcDbEntity
  8
1
  6
Continuous
 62
     7
100
AcDbLine
 10
763.123768524669
 20
11763.2624191602
 30
0.0
 11
763.123768524669
 21
11709.3339529453
 31
0.0
  0
LINE
  5
F6
330
1F
100
AcDbEntity
  8
1
  6
Continuous
 62
     7
100
AcDbLine
 10
1282.12376852483
 20
11709.3339529453
 30
0.0
 11
1282.12376852483
 21
11762.9801754073
 31
0.0
  0
LINE
  5
F7
330
1F
100
AcDbEntity
  8
1
  6
Continuous
 62
     7
100
AcDbLine
 10
763.123768524669
 20
11709.3339529453
 30
0.0
 11
763.123768524669
 21
10954.3339529453
 31
0.0
  0
LINE
  5
F8
330
1F
100
AcDbEntity
  8
1
  6
Continuous
 62
     7
100
AcDbLine
 10
1282.12376852483
 20
10954.3339529453
 30
0.0
 11
1282.12376852483
 21
11709.3339529453
 31
0.0
  0
LINE
  5
F9
330
1F
100
AcDbEntity
  8
1
  6
Continuous
 62
     7
100
AcDbLine
 10
1347.12376852483
 20
10949.3339529453
 30
0.0
 11
1287.12376852483
 21
10949.3339529453
 31
0.0
  0
LINE
  5
FA
330
1F
100
AcDbEntity
  8
1
  6
Continuous
 62
     7
100
AcDbLine
 10
1352.12376852483
 20
11709.3339529453
 30
0.0
 11
1352.12376852483
 21
10954.3339529453
 31
0.0
  0
LINE
  5
FB
330
1F
100
AcDbEntity
  8
1
  6
Continuous
 62
     7
100
AcDbLine
 10
1287.12376852483
 20
11714.3339529453
 30
0.0
 11
1347.12376852483
 21
11714.3339529453
 31
0.0
  0
LINE
  5
FC
330
1F
100
AcDbEntity
  8
1
  6
Continuous
 62
     7
100
AcDbLine
 10
693.123768524669
 20
10954.3339529453
 30
0.0
 11
693.123768524669
 21
11709.3339529453
 31
0.0
  0
LINE
  5
FD
330
1F
100
AcDbEntity
  8
1
  6
Continuous
 62
     7
100
AcDbLine
 10
758.123768524669
 20
10949.3339529453
 30
0.0
 11
698.123768524669
 21
10949.3339529453
 31
0.0
  0
LINE
  5
FE
330
1F
100
AcDbEntity
  8
1
  6
Continuous
 62
     7
100
AcDbLine
 10
698.123768524669
 20
11714.3339529453
 30
0.0
 11
758.123768524669
 21
11714.3339529453
 31
0.0
  0
LINE
  5
FF
330
1F
100
AcDbEntity
  8
1
  6
Continuous
 62
     1
100
AcDbLine
 10
1268.06208950761
 20
11639.2312219432
 30
0.0
 11
1268.06208950761
 21
11696.1119758576
 31
0.0
  0
LINE
  5
100
330
1F
100
AcDbEntity
  8
1
  6
Continuous
 62
     1
100
AcDbLine
 10
776.185447542252
 20
11639.2312219432
 30
0.0
 11
776.185447542252
 21
11696.1119758576
 31
0.0
  0
LINE
  5
101
330
1F
100
AcDbEntity
  8
1
  6
Continuous
 62
     1
100
AcDbLine
 10
1342.12376852483
 20
13821.5072955839
 30
0.0
 11
1342.12376852483
 21
13341.5072955839
 31
0.0
  0
LINE
  5
102
330
1F
100
AcDbEntity
  8
1
  6
Continuous
 62
     1
100
AcDbLine
 10
1292.12376852483
 20
13821.5072955839
 30
0.0
 11
1292.12376852483
 21
13341.5072955839
 31
0.0
  0
LINE
  5
103
330
1F
100
AcDbEntity
  8
1
  6
Continuous
 62
     1
100
AcDbLine
 10
753.123768524669
 20
13821.5072955839
 30
0.0
 11
753.123768524669
 21
13341.5072955839
 31
0.0
  0
LINE
  5
104
330
1F
100
AcDbEntity
  8
1
  6
Continuous
 62
     1
100
AcDbLine
 10
703.123768524669
 20
13821.5072955839
 30
0.0
 11
703.123768524669
 21
13341.5072955839
 31
0.0
  0
LINE
  5
105
330
1F
100
AcDbEntity
  8
1
  6
Continuous
 62
     7
100
AcDbLine
 10
693.123768524669
 20
13341.5072955839
 30
0.0
 11
693.123768524669
 21
13816.5072955839
 31
0.0
  0
LINE
  5
106
330
1F
100
AcDbEntity
  8
1
  6
Continuous
 62
     7
100
AcDbLine
 10
763.123768524669
 20
13341.5072955839
 30
0.0
 11
693.123768524669
 21
13341.5072955839
 31
0.0
  0
LINE
  5
107
330
1F
100
AcDbEntity
  8
1
  6
Continuous
 62
     7
100
AcDbLine
 10
763.123768524669
 20
13816.5072955839
 30
0.0
 11
763.123768524669
 21
13341.5072955839
 31
0.0
  0
LINE
  5
108
330
1F
100
AcDbEntity
  8
1
  6
Continuous
 62
     7
100
AcDbLine
 10
698.123768524669
 20
13821.5072955839
 30
0.0
 11
758.123768524669
 21
13821.5072955839
 31
0.0
  0
LINE
  5
109
330
1F
100
AcDbEntity
  8
1
  6
Continuous
 62
     7
100
AcDbLine
 10
1352.12376852483
 20
13816.5072955839
 30
0.0
 11
1352.12376852483
 21
13341.5072955839
 31
0.0
  0
LINE
  5
10A
330
1F
100
AcDbEntity
  8
1
  6
Continuous
 62
     7
100
AcDbLine
 10
1287.12376852483
 20
13821.5072955839
 30
0.0
 11
1347.12376852483
 21
13821.5072955839
 31
0.0
  0
LINE
  5
10B
330
1F
100
AcDbEntity
  8
1
  6
Continuous
 62
     7
100
AcDbLine
 10
1282.12376852483
 20
13341.5072955839
 30
0.0
 11
1282.12376852483
 21
13816.5072955839
 31
0.0
  0
LINE
  5
10C
330
1F
100
AcDbEntity
  8
1
  6
Continuous
 62
     7
100
AcDbLine
 10
1352.12376852483
 20
13341.5072955839
 30
0.0
 11
1282.12376852483
 21
13341.5072955839
 31
0.0
  0
LINE
  5
10D
330
1F
100
AcDbEntity
  8
1
  6
Continuous
 62
     7
100
AcDbLine
 10
1282.12376852483
 20
13821.5072955839
 30
0.0
 11
763.123768524669
 21
13821.5072955839
 31
0.0
  0
LINE
  5
10E
330
1F
100
AcDbEntity
  8
0
  6
Continuous
 62
     7
100
AcDbLine
 10
2193.53370985215
 20
13295.5052734292
 30
0.0
 11
2193.53370985215
 21
13341.5072955839
 31
0.0
  0
LINE
  5
10F
330
1F
100
AcDbEntity
  8
0
  6
Continuous
 62
     7
100
AcDbLine
 10
2263.53370991057
 20
13295.5052734292
 30
0.0
 11
2263.53370991057
 21
13341.5072955839
 31
0.0
  0
LINE
  5
110
330
1F
100
AcDbEntity
  8
0
  6
Continuous
 62
     7
100
AcDbLine
 10
2263.51447033484
 20
13295.5052734292
 30
0.0
 11
2526.49794466916
 21
13267.8645964718
 31
0.0
  0
LINE
  5
111
330
1F
100
AcDbEntity
  8
0
  6
Continuous
 62
     7
100
AcDbLine
 10
2523.63134770502
 20
13245.5052734292
 30
0.0
 11
2505.21668510134
 21
13245.5052734292
 31
0.0
  0
LINE
  5
112
330
1F
100
AcDbEntity
  8
0
  6
Continuous
 62
     7
100
AcDbLine
 10
2527.46069020955
 20
13245.5052734292
 30
0.0
 11
2523.63134770502
 21
13245.5052734292
 31
0.0
  0
LINE
  5
113
330
1F
100
AcDbEntity
  8
0
  6
Continuous
 62
     7
100
AcDbLine
 10
2527.39204574064
 20
13266.9224105326
 30
0.0
 11
2528.45931974431
 21
13246.5576093854
 31
0.0
  0
LINE
  5
114
330
1F
100
AcDbEntity
  8
0
  6
Continuous
 62
     7
100
AcDbLine
 10
2263.53370991057
 20
13295.5052734292
 30
0.0
 11
2193.53370985215
 21
13295.5052734292
 31
0.0
  0
LINE
  5
115
330
1F
100
AcDbEntity
  8
0
  6
Continuous
 62
     7
100
AcDbLine
 10
1933.39759296465
 20
13245.5052734292
 30
0.0
 11
1929.56825046012
 21
13245.5052734292
 31
0.0
  0
LINE
  5
116
330
1F
100
AcDbEntity
  8
0
  6
Continuous
 62
     7
100
AcDbLine
 10
1951.81225556834
 20
13245.5052734292
 30
0.0
 11
1933.39759296465
 21
13245.5052734292
 31
0.0
  0
LINE
  5
117
330
1F
100
AcDbEntity
  8
0
  6
Continuous
 62
     7
100
AcDbLine
 10
2505.21668510134
 20
13245.5052734292
 30
0.0
 11
1951.81225556834
 21
13245.5052734292
 31
0.0
  0
LINE
  5
118
330
1F
100
AcDbEntity
  8
0
  6
Continuous
 62
     7
100
AcDbLine
 10
2193.51447033484
 20
13295.5052734292
 30
0.0
 11
1930.53099600052
 21
13267.8645964718
 31
0.0
  0
LINE
  5
119
330
1F
100
AcDbEntity
  8
0
  6
Continuous
 62
     7
100
AcDbLine
 10
1929.63689492903
 20
13266.9224105326
 30
0.0
 11
1928.56962092536
 21
13246.5576093854
 31
0.0
  0
LINE
  5
11A
330
1F
100
AcDbEntity
  8
0
  6
Continuous
 62
     7
100
AcDbLine
 10
1057.66224755939
 20
13295.5052734292
 30
0.0
 11
1057.66224755939
 21
13418.5134948427
 31
0.0
  0
LINE
  5
11B
330
1F
100
AcDbEntity
  8
0
  6
Continuous
 62
     7
100
AcDbLine
 10
723.765432577844
 20
13266.9224105326
 30
0.0
 11
722.698158574178
 21
13246.5576093854
 31
0.0
  0
LINE
  5
11C
330
1F
100
AcDbEntity
  8
0
  6
Continuous
 62
     7
100
AcDbLine
 10
987.643007983652
 20
13295.5052734292
 30
0.0
 11
724.659533649331
 21
13267.8645964718
 31
0.0
  0
LINE
  5
11D
330
1F
100
AcDbEntity
  8
0
  6
Continuous
 62
     7
100
AcDbLine
 10
1299.34522275015
 20
13245.5052734292
 30
0.0
 11
745.940793217154
 21
13245.5052734292
 31
0.0
  0
LINE
  5
11E
330
1F
100
AcDbEntity
  8
0
  6
Continuous
 62
     7
100
AcDbLine
 10
745.940793217154
 20
13245.5052734292
 30
0.0
 11
727.526130613469
 21
13245.5052734292
 31
0.0
  0
LINE
  5
11F
330
1F
100
AcDbEntity
  8
0
  6
Continuous
 62
     7
100
AcDbLine
 10
727.526130613469
 20
13245.5052734292
 30
0.0
 11
723.696788108931
 21
13245.5052734292
 31
0.0
  0
LINE
  5
120
330
1F
100
AcDbEntity
  8
0
  6
Continuous
 62
     7
100
AcDbLine
 10
1057.66224755939
 20
13295.5052734292
 30
0.0
 11
987.66224750097
 21
13295.5052734292
 31
0.0
  0
LINE
  5
121
330
1F
100
AcDbEntity
  8
0
  6
Continuous
 62
     7
100
AcDbLine
 10
1321.52058338946
 20
13266.9224105326
 30
0.0
 11
1322.58785739313
 21
13246.5576093854
 31
0.0
  0
LINE
  5
122
330
1F
100
AcDbEntity
  8
0
  6
Continuous
 62
     7
100
AcDbLine
 10
1321.58922785837
 20
13245.5052734292
 30
0.0
 11
1317.75988535384
 21
13245.5052734292
 31
0.0
  0
LINE
  5
123
330
1F
100
AcDbEntity
  8
0
  6
Continuous
 62
     7
100
AcDbLine
 10
1317.75988535384
 20
13245.5052734292
 30
0.0
 11
1299.34522275015
 21
13245.5052734292
 31
0.0
  0
LINE
  5
124
330
1F
100
AcDbEntity
  8
0
  6
Continuous
 62
     7
100
AcDbLine
 10
1057.64300798365
 20
13295.5052734292
 30
0.0
 11
1320.62648231797
 21
13267.8645964718
 31
0.0
  0
LINE
  5
125
330
1F
100
AcDbEntity
  8
0
  6
Continuous
 62
     7
100
AcDbLine
 10
987.66224750097
 20
13295.5052734292
 30
0.0
 11
987.66224750097
 21
13418.5134948427
 31
0.0
  0
LINE
  5
126
330
1F
100
AcDbEntity
  8
1
  6
Continuous
 62
     1
100
AcDbLine
 10
2316.03370991057
 20
13821.5072955839
 30
0.0
 11
2316.03370991057
 21
13341.5072955839
 31
0.0
  0
LINE
  5
127
330
1F
100
AcDbEntity
  8
POEF
  6
Continuous
 62
     3
100
AcDbLine
 10
2908.7458723978
 20
13744.3334550421
 30
0.0
 11
2909.83585029414
 21
13738.6051790482
 31
0.0
  0
LINE
  5
128
330
1F
100
AcDbEntity
  8
1
  6
Continuous
 62
     3
100
AcDbLine
 10
2698.53370991057
 20
13713.0642828604
 30
0.0
 11
2898.80994032997
 21
13751.0953523904
 31
0.0
  0
LINE
  5
129
330
1F
100
AcDbEntity
  8
1
  6
Continuous
 62
     3
100
AcDbLine
 10
2903.91892586218
 20
13728.8720261794
 30
0.0
 11
2698.53370991057
 21
13667.5093929602
 31
0.0
  0
LINE
  5
12A
330
1F
100
AcDbEntity
  8
0
  6
Continuous
 62
     7
100
AcDbLine
 10
1142.73609079703
 20
11543.7733127222
 30
0.0
 11
1142.73609079703
 21
11543.7689180336
 31
0.0
  0
LINE
  5
12B
330
1F
100
AcDbEntity
  8
0
  6
Continuous
 62
     7
100
AcDbLine
 10
1142.73609079703
 20
11343.7733127222
 30
0.0
 11
1142.73609079703
 21
11343.7689180356
 31
0.0
  0
LINE
  5
12C
330
1F
100
AcDbEntity
  8
1
  6
Continuous
 62
     7
100
AcDbLine
 10
1933.53370991057
 20
13796.5072955839
 30
0.0
 11
1933.53370991057
 21
13341.5072955839
 31
0.0
  0
LINE
  5
12D
330
1F
100
AcDbEntity
  8
1
  6
Continuous
 62
     7
100
AcDbLine
 10
2673.53370991057
 20
13821.5072955839
 30
0.0
 11
1958.53370991057
 21
13821.5072955839
 31
0.0
  0
LINE
  5
12E
330
1F
100
AcDbEntity
  8
1
  6
Continuous
 62
     7
100
AcDbLine
 10
2698.53370991057
 20
13341.5072955839
 30
0.0
 11
2698.53370991057
 21
13796.5072955839
 31
0.0
  0
LINE
  5
12F
330
1F
100
AcDbEntity
  8
1
  6
Continuous
 62
     7
100
AcDbLine
 10
1933.53370991057
 20
13341.5072955839
 30
0.0
 11
2698.53370991057
 21
13341.5072955839
 31
0.0
  0
LINE
  5
130
330
1F
100
AcDbEntity
  8
1
  6
Continuous
 62
     1
100
AcDbLine
 10
1267.1237685248
 20
13721.5072955839
 30
0.0
 11
1267.12376852497
 21
14407.4700546144
 31
0.0
  0
LINE
  5
131
330
1F
100
AcDbEntity
  8
1
  6
Continuous
 62
     1
100
AcDbLine
 10
778.123768524705
 20
13721.5072955839
 30
0.0
 11
778.123768524572
 21
14407.4700546144
 31
0.0
  0
LINE
  5
132
330
1F
100
AcDbEntity
  8
0
  6
Continuous
 62
     7
100
AcDbLine
 10
763.123768524669
 20
10954.3339529453
 30
0.0
 11
1282.12376852483
 21
10954.3339529453
 31
0.0
  0
LINE
  5
133
330
1F
100
AcDbEntity
  8
1
  6
Continuous
 62
     7
100
AcDbLine
 10
787.384927420245
 20
13418.5134948427
 30
0.0
 11
1257.86260962927
 21
13418.5134948427
 31
0.0
  0
LINE
  5
134
330
1F
100
AcDbEntity
  8
1
  6
Continuous
 62
     7
100
AcDbLine
 10
773.921553243567
 20
13613.746449702
 30
0.0
 11
1271.32598380594
 21
13613.746449702
 31
0.0
  0
LINE
  5
135
330
1F
100
AcDbEntity
  8
1
  6
Continuous
 62
     7
100
AcDbLine
 10
763.950938447201
 20
13602.9803944934
 30
0.0
 11
777.41431262388
 21
13427.7474396342
 31
0.0
  0
LINE
  5
136
330
1F
100
AcDbEntity
  8
1
  6
Continuous
 62
     7
100
AcDbLine
 10
1267.83322442563
 20
13427.7474396342
 30
0.0
 11
1281.29659860231
 21
13602.9803944934
 31
0.0
  0
LINE
  5
137
330
1F
100
AcDbEntity
  8
1
  6
Continuous
 62
     7
100
AcDbLine
 10
773.123768524705
 20
13721.5072955839
 30
0.0
 11
1272.1237685248
 21
13721.5072955839
 31
0.0
  0
LINE
  5
138
330
1F
100
AcDbEntity
  8
1
  6
Continuous
 62
     7
100
AcDbLine
 10
1282.12376852493
 20
14402.4700546144
 30
0.0
 11
1282.12376852481
 21
13767.1097228823
 31
0.0
  0
LINE
  5
139
330
1F
100
AcDbEntity
  8
1
  6
Continuous
 62
     7
100
AcDbLine
 10
773.123768524765
 20
13613.746449702
 30
0.0
 11
1272.12376852478
 21
13613.746449702
 31
0.0
  0
LINE
  5
13A
330
1F
100
AcDbEntity
  8
1
  6
Continuous
 62
     7
100
AcDbLine
 10
763.123768524696
 20
13767.1097228823
 30
0.0
 11
763.123768524574
 21
14402.4700546144
 31
0.0
  0
LINE
  5
13B
330
1F
100
AcDbEntity
  8
1
  6
Continuous
 62
     7
100
AcDbLine
 10
763.950938447201
 20
13602.9803944934
 30
0.0
 11
777.41431262388
 21
13427.7474396342
 31
0.0
  0
LINE
  5
13C
330
1F
100
AcDbEntity
  8
1
  6
Continuous
 62
     7
100
AcDbLine
 10
768.123768524574
 20
14407.4700546144
 30
0.0
 11
1277.12376852493
 21
14407.4700546144
 31
0.0
  0
LINE
  5
13D
330
1F
100
AcDbEntity
  8
1
  6
DOT_CENTER
 62
     2
100
AcDbLine
 10
7155.24496226367
 20
13625.9188858659
 30
0.0
 11
7139.24496226367
 21
13625.9188858659
 31
0.0
  0
LINE
  5
13E
330
1F
100
AcDbEntity
  8
1
  6
DOT_CENTER
 62
     2
100
AcDbLine
 10
7147.24496226367
 20
13633.9188858659
 30
0.0
 11
7147.24496226367
 21
13617.9188858659
 31
0.0
  0
LINE
  5
13F
330
1F
100
AcDbEntity
  8
1
  6
Continuous
 62
     3
100
AcDbLine
 10
763.123768524669
 20
11763.2624191602
 30
0.0
 11
763.123768524669
 21
12159.0924575377
 31
0.0
  0
LINE
  5
140
330
1F
100
AcDbEntity
  8
1
  6
Continuous
 62
     3
100
AcDbLine
 10
1282.12376852483
 20
12159.0924575377
 30
0.0
 11
1282.12376852483
 21
11762.9801754073
 31
0.0
  0
LINE
  5
141
330
1F
100
AcDbEntity
  8
1
  6
Continuous
 62
     3
100
AcDbLine
 10
763.123768524669
 20
10949.3339529453
 30
0.0
 11
763.123768524669
 21
10739.1217904581
 31
0.0
  0
LINE
  5
142
330
1F
100
AcDbEntity
  8
1
  6
Continuous
 62
     3
100
AcDbLine
 10
763.123768524669
 20
10739.1217904581
 30
0.0
 11
1282.12376852483
 21
10739.1217904581
 31
0.0
  0
LINE
  5
143
330
1F
100
AcDbEntity
  8
1
  6
Continuous
 62
     3
100
AcDbLine
 10
1282.12376852483
 20
10739.1217904581
 30
0.0
 11
1282.12376852483
 21
10954.3339529453
 31
0.0
  0
LINE
  5
144
330
1F
100
AcDbEntity
  8
1
  6
Continuous
 62
     3
100
AcDbLine
 10
5763.12376852467
 20
10949.3339529453
 30
0.0
 11
5763.12376852467
 21
10699.8433174569
 31
0.0
  0
LINE
  5
145
330
1F
100
AcDbEntity
  8
1
  6
Continuous
 62
     3
100
AcDbLine
 10
5763.12376852467
 20
10699.8433174569
 30
0.0
 11
6282.12376852483
 21
10699.8433174569
 31
0.0
  0
LINE
  5
146
330
1F
100
AcDbEntity
  8
1
  6
Continuous
 62
     3
100
AcDbLine
 10
6282.12376852483
 20
10699.8433174569
 30
0.0
 11
6282.12376852483
 21
10954.3339529453
 31
0.0
  0
LINE
  5
147
330
1F
100
AcDbEntity
  8
1
  6
Continuous
 62
     3
100
AcDbLine
 10
5763.12376852467
 20
11763.2624191602
 30
0.0
 11
5763.12376852465
 21
12184.2253490017
 31
0.0
  0
LINE
  5
148
330
1F
100
AcDbEntity
  8
1
  6
Continuous
 62
     3
100
AcDbLine
 10
6282.12376852486
 20
12184.2253490017
 30
0.0
 11
6282.12376852483
 21
11762.9801754073
 31
0.0
  0
ARC
  5
149
330
1F
100
AcDbEntity
  8
1
  6
Continuous
 62
     3
100
AcDbCircle
 10
-1487.321828719259
 20
14090.1716758503
 30
0.0
 40
199.9999999999906
100
AcDbArc
 50
152.2943738128428
 51
192.7324859708781
  0
ARC
  5
14A
330
1F
100
AcDbEntity
  8
1
  6
Continuous
 62
     7
100
AcDbCircle
 10
-2374.298461996069
 20
11709.3339529453
 30
0.0
 40
5.0
100
AcDbArc
 50
90.0
 51
180.0
  0
ARC
  5
14B
330
1F
100
AcDbEntity
  8
1
  6
Continuous
 62
     7
100
AcDbCircle
 10
-2314.298461996069
 20
11709.3339529453
 30
0.0
 40
5.0
100
AcDbArc
 50
0.0
 51
90.0
  0
ARC
  5
14C
330
1F
100
AcDbEntity
  8
1
  6
Continuous
 62
     7
100
AcDbCircle
 10
-2314.298461996069
 20
10954.3339529453
 30
0.0
 40
5.0
100
AcDbArc
 50
270.0
 51
0.0
  0
ARC
  5
14D
330
1F
100
AcDbEntity
  8
1
  6
Continuous
 62
     7
100
AcDbCircle
 10
-2374.298461996069
 20
10954.3339529453
 30
0.0
 40
5.0
100
AcDbArc
 50
180.0
 51
270.0
  0
ARC
  5
14E
330
1F
100
AcDbEntity
  8
1
  6
Continuous
 62
     7
100
AcDbCircle
 10
-2963.29846199623
 20
10954.3339529453
 30
0.0
 40
5.0
100
AcDbArc
 50
180.0
 51
270.0
  0
ARC
  5
14F
330
1F
100
AcDbEntity
  8
1
  6
Continuous
 62
     7
100
AcDbCircle
 10
-2903.29846199623
 20
10954.3339529453
 30
0.0
 40
5.0
100
AcDbArc
 50
270.0
 51
0.0
  0
ARC
  5
150
330
1F
100
AcDbEntity
  8
1
  6
Continuous
 62
     7
100
AcDbCircle
 10
-2903.29846199623
 20
11709.3339529453
 30
0.0
 40
5.0
100
AcDbArc
 50
0.0
 51
90.0
  0
ARC
  5
151
330
1F
100
AcDbEntity
  8
1
  6
Continuous
 62
     7
100
AcDbCircle
 10
-2963.29846199623
 20
11709.3339529453
 30
0.0
 40
5.0
100
AcDbArc
 50
90.0
 51
180.0
  0
ARC
  5
152
330
1F
100
AcDbEntity
  8
1
  6
Continuous
 62
     7
100
AcDbCircle
 10
-2384.298461995969
 20
14382.4700546144
 30
0.0
 40
5.0
100
AcDbArc
 50
0.0
 51
90.0
  0
ARC
  5
153
330
1F
100
AcDbEntity
  8
1
  6
Continuous
 62
     7
100
AcDbCircle
 10
-2893.298461996325
 20
14382.4700546144
 30
0.0
 40
5.0
100
AcDbArc
 50
90.0
 51
180.0
  0
ARC
  5
154
330
1F
100
AcDbEntity
  8
1
  6
Continuous
 62
     7
100
AcDbCircle
 10
-2314.298461996069
 20
13796.5072955839
 30
0.0
 40
5.0
100
AcDbArc
 50
0.0
 51
90.0
  0
ARC
  5
155
330
1F
100
AcDbEntity
  8
1
  6
Continuous
 62
     7
100
AcDbCircle
 10
-2374.298461996069
 20
13796.5072955839
 30
0.0
 40
5.0
100
AcDbArc
 50
90.0
 51
180.0
  0
ARC
  5
156
330
1F
100
AcDbEntity
  8
1
  6
Continuous
 62
     7
100
AcDbCircle
 10
-2903.29846199623
 20
13796.5072955839
 30
0.0
 40
5.0
100
AcDbArc
 50
0.0
 51
90.0
  0
ARC
  5
157
330
1F
100
AcDbEntity
  8
1
  6
Continuous
 62
     7
100
AcDbCircle
 10
-2963.29846199623
 20
13796.5072955839
 30
0.0
 40
5.0
100
AcDbArc
 50
90.0
 51
180.0
  0
ARC
  5
158
330
1F
100
AcDbEntity
  8
1
  6
Continuous
 62
     7
100
AcDbCircle
 10
-1702.888520610329
 20
13776.5072955839
 30
0.0
 40
25.0
100
AcDbArc
 50
90.0
 51
180.0
  0
ARC
  5
159
330
1F
100
AcDbEntity
  8
1
  6
Continuous
 62
     7
100
AcDbCircle
 10
-987.8885206103287
 20
13776.5072955839
 30
0.0
 40
25.0
100
AcDbArc
 50
0.0
 51
90.0
  0
ARC
  5
15A
330
1F
100
AcDbEntity
  8
1
  6
Continuous
 62
     3
100
AcDbCircle
 10
-908.9897760833587
 20
14946.2856427214
 30
0.0
 40
1478.190580703375
100
AcDbArc
 50
217.5278233910539
 51
234.8729936357849
  0
ARC
  5
15B
330
1F
100
AcDbEntity
  8
1
  6
Continuous
 62
     3
100
AcDbCircle
 10
-531.8535802794586
 20
14709.0333825686
 30
0.0
 40
1478.190580703344
100
AcDbArc
 50
200.5278233910527
 51
211.9127493253664
  0
ARC
  5
15C
330
1F
100
AcDbEntity
  8
1
  6
Continuous
 62
     7
100
AcDbCircle
 10
-240.5622903365488
 20
14371.8839653417
 30
0.0
 40
1478.190580703361
100
AcDbArc
 50
183.5278233910533
 51
202.6972267196557
  0
ARC
  5
15D
330
1F
100
AcDbEntity
  8
1
  6
Continuous
 62
     7
100
AcDbCircle
 10
-240.5622903365488
 20
14371.8839653417
 30
0.0
 40
1478.190580703349
100
AcDbArc
 50
192.7324859708737
 51
202.6972267196557
  0
ARC
  5
15E
330
1F
100
AcDbEntity
  8
0
  6
Continuous
 62
     7
100
AcDbCircle
 10
-1135.028814314999
 20
13266.8700745764
 30
0.0
 40
0.9999999999830148
100
AcDbArc
 50
2.99999999755188
 51
84.00000000062163
  0
ARC
  5
15F
330
1F
100
AcDbEntity
  8
0
  6
Continuous
 62
     7
100
AcDbCircle
 10
-1133.961540311349
 20
13246.5052734292
 30
0.0
 40
1.0
100
AcDbArc
 50
270.0
 51
2.99999999749188
  0
ARC
  5
160
330
1F
100
AcDbEntity
  8
0
  6
Continuous
 62
     7
100
AcDbCircle
 10
-1731.853980060779
 20
13246.5052734292
 30
0.0
 40
1.000000000003223
100
AcDbArc
 50
177.0000000025088
 51
270.0
  0
ARC
  5
161
330
1F
100
AcDbEntity
  8
0
  6
Continuous
 62
     7
100
AcDbCircle
 10
-1730.786706057129
 20
13266.8700745764
 30
0.0
 40
1.000000000029575
100
AcDbArc
 50
95.99999999879536
 51
177.0000000024481
  0
ARC
  5
162
330
1F
100
AcDbEntity
  8
0
  6
Continuous
 62
     7
100
AcDbCircle
 10
-2936.658168408309
 20
13266.8700745764
 30
0.0
 40
1.00000000003055
100
AcDbArc
 50
95.99999999932656
 51
177.0000000024672
  0
ARC
  5
163
330
1F
100
AcDbEntity
  8
0
  6
Continuous
 62
     7
100
AcDbCircle
 10
-2937.725442411968
 20
13246.5052734292
 30
0.0
 40
0.9999999999961844
100
AcDbArc
 50
177.0000000024877
 51
270.0
  0
ARC
  5
164
330
1F
100
AcDbEntity
  8
0
  6
Continuous
 62
     7
100
AcDbCircle
 10
-2339.833002662529
 20
13246.5052734292
 30
0.0
 40
1.0
100
AcDbArc
 50
270.0
 51
2.99999999749188
  0
ARC
  5
165
330
1F
100
AcDbEntity
  8
0
  6
Continuous
 62
     7
100
AcDbCircle
 10
-2340.900276666179
 20
13266.8700745764
 30
0.0
 40
0.9999999999830148
100
AcDbArc
 50
2.99999999755188
 51
84.00000000121761
  0
ARC
  5
166
330
1F
100
AcDbEntity
  8
1
  6
Continuous
 62
     3
100
AcDbCircle
 10
-759.9365585974588
 20
13717.0163048626
 30
0.0
 40
8.500000000000655
100
AcDbArc
 50
286.63448867892
 51
10.77346501181886
  0
ARC
  5
167
330
1F
100
AcDbEntity
  8
1
  6
Continuous
 62
     3
100
AcDbCircle
 10
-761.0265364937886
 20
13722.7445808565
 30
0.0
 40
8.50000000000042
100
AcDbArc
 50
10.77346501183147
 51
100.7520541558864
  0
ARC
  5
168
330
1F
100
AcDbEntity
  8
1
  6
Continuous
 62
     7
100
AcDbCircle
 10
-2639.298461995969
 20
10992.0757385937
 30
0.0
 40
747.4202728842268
100
AcDbArc
 50
69.64332618940435
 51
110.2749307846689
  0
ARC
  5
169
330
1F
100
AcDbEntity
  8
1
  6
Continuous
 62
     7
100
AcDbCircle
 10
-2639.298461995969
 20
13517.5711864125
 30
0.0
 40
1973.000000000116
100
AcDbArc
 50
262.650565773581
 51
277.3494342264192
  0
ARC
  5
16A
330
1F
100
AcDbEntity
  8
1
  6
Continuous
 62
     7
100
AcDbCircle
 10
-2639.298461995969
 20
17090.7678432048
 30
0.0
 40
5457.309004802059
100
AcDbArc
 50
267.2797612736074
 51
272.7307495230146
  0
ARC
  5
16B
330
1F
100
AcDbEntity
  8
1
  6
Continuous
 62
     7
100
AcDbCircle
 10
-2639.298461996139
 20
11018.9171216231
 30
0.0
 40
740.2430309991673
100
AcDbArc
 50
69.43706706207577
 51
110.480286908312
  0
ARC
  5
16C
330
1F
100
AcDbEntity
  8
1
  6
Continuous
 62
     7
100
AcDbCircle
 10
-2639.298461995018
 20
10843.7032527941
 30
0.0
 40
955.337668287318
100
AcDbArc
 50
74.20745297188671
 51
105.7302295936473
  0
ARC
  5
16D
330
1F
100
AcDbEntity
  8
1
  6
Continuous
 62
     7
100
AcDbCircle
 10
-2888.298461996134
 20
13691.5072955839
 30
0.0
 40
10.0
100
AcDbArc
 50
90.00000000034393
 51
180.0
  0
ARC
  5
16E
330
1F
100
AcDbEntity
  8
1
  6
Continuous
 62
     7
100
AcDbCircle
 10
-2874.037303100654
 20
13408.5134948427
 30
0.0
 40
9.99999999999835
100
AcDbArc
 50
184.3934773166003
 51
270.0
  0
ARC
  5
16F
330
1F
100
AcDbEntity
  8
1
  6
Continuous
 62
     7
100
AcDbCircle
 10
-2403.559620891629
 20
13408.5134948427
 30
0.0
 40
10.0
100
AcDbArc
 50
270.0
 51
355.6065226833974
  0
ARC
  5
170
330
1F
100
AcDbEntity
  8
1
  6
Continuous
 62
     7
100
AcDbCircle
 10
-2390.096246714958
 20
13583.746449702
 30
0.0
 40
10.00000000000964
100
AcDbArc
 50
355.6065226828297
 51
90.0
  0
ARC
  5
171
330
1F
100
AcDbEntity
  8
1
  6
Continuous
 62
     7
100
AcDbCircle
 10
-2887.500677277332
 20
13583.746449702
 30
0.0
 40
10.0
100
AcDbArc
 50
90.0
 51
184.3934773171721
  0
ARC
  5
172
330
1F
100
AcDbEntity
  8
1
  6
Continuous
 62
     7
100
AcDbCircle
 10
-2888.298461996134
 20
13603.746449702
 30
0.0
 40
10.0
100
AcDbArc
 50
180.0
 51
270.0
  0
ARC
  5
173
330
1F
100
AcDbEntity
  8
1
  6
Continuous
 62
     7
100
AcDbCircle
 10
-2389.298461996119
 20
13603.746449702
 30
0.0
 40
10.0
100
AcDbArc
 50
270.0
 51
0.0
  0
ARC
  5
174
330
1F
100
AcDbEntity
  8
1
  6
Continuous
 62
     7
100
AcDbCircle
 10
-2389.298461996099
 20
13691.5072955839
 30
0.0
 40
10.0
100
AcDbArc
 50
0.0
 51
90.0
  0
ARC
  5
175
330
1F
100
AcDbEntity
  8
1
  6
Continuous
 62
     7
100
AcDbCircle
 10
-2888.298461996134
 20
13691.5072955839
 30
0.0
 40
10.0
100
AcDbArc
 50
90.00000000034393
 51
180.0
  0
ARC
  5
176
330
1F
100
AcDbEntity
  8
1
  6
Continuous
 62
     7
100
AcDbCircle
 10
-2888.298461996134
 20
13603.746449702
 30
0.0
 40
10.0
100
AcDbArc
 50
180.0
 51
270.0
  0
ARC
  5
177
330
1F
100
AcDbEntity
  8
1
  6
Continuous
 62
     7
100
AcDbCircle
 10
-2887.500677277332
 20
13583.746449702
 30
0.0
 40
10.0
100
AcDbArc
 50
90.0
 51
184.3934773171721
  0
ARC
  5
178
330
1F
100
AcDbEntity
  8
1
  6
Continuous
 62
     7
100
AcDbCircle
 10
-2874.037303100654
 20
13408.5134948427
 30
0.0
 40
9.99999999999835
100
AcDbArc
 50
184.3934773166003
 51
270.0
  0
ARC
  5
179
330
1F
100
AcDbEntity
  8
1
  6
Continuous
 62
     3
100
AcDbCircle
 10
-2638.798461996149
 20
10584.8276746506
 30
0.0
 40
1595.509278142439
100
AcDbArc
 50
80.6396035116645
 51
99.36039648833554
  0
ARC
  5
17A
330
1F
100
AcDbEntity
  8
1
  6
Continuous
 62
     3
100
AcDbCircle
 10
7175.00002291604
 20
14146.2194293157
 30
0.0
 40
200.0000000000002
100
AcDbArc
 50
156.5332210873289
 51
192.9141798557955
  0
ARC
  5
17B
330
1F
100
AcDbEntity
  8
1
  6
Continuous
 62
     7
100
AcDbCircle
 10
7673.53370991057
 20
13836.5072955839
 30
0.0
 40
25.0
100
AcDbArc
 50
0.0
 51
90.0
  0
ARC
  5
17C
330
1F
100
AcDbEntity
  8
1
  6
Continuous
 62
     7
100
AcDbCircle
 10
6958.53370991057
 20
13836.5072955839
 30
0.0
 40
25.0
100
AcDbArc
 50
90.0
 51
180.0
  0
ARC
  5
17D
330
1F
100
AcDbEntity
  8
1
  6
Continuous
 62
     7
100
AcDbCircle
 10
5698.12376852467
 20
13856.5072955839
 30
0.0
 40
5.0
100
AcDbArc
 50
90.0
 51
180.0
  0
ARC
  5
17E
330
1F
100
AcDbEntity
  8
1
  6
Continuous
 62
     7
100
AcDbCircle
 10
5758.12376852467
 20
13856.5072955839
 30
0.0
 40
5.0
100
AcDbArc
 50
0.0
 51
90.0
  0
ARC
  5
17F
330
1F
100
AcDbEntity
  8
1
  6
Continuous
 62
     7
100
AcDbCircle
 10
6287.12376852483
 20
13856.5072955839
 30
0.0
 40
5.0
100
AcDbArc
 50
90.0
 51
180.0
  0
ARC
  5
180
330
1F
100
AcDbEntity
  8
1
  6
Continuous
 62
     7
100
AcDbCircle
 10
6347.12376852483
 20
13856.5072955839
 30
0.0
 40
5.0
100
AcDbArc
 50
0.0
 51
90.0
  0
ARC
  5
181
330
1F
100
AcDbEntity
  8
1
  6
Continuous
 62
     7
100
AcDbCircle
 10
5768.12376852457
 20
14492.4700546144
 30
0.0
 40
5.0
100
AcDbArc
 50
90.0
 51
180.0
  0
ARC
  5
182
330
1F
100
AcDbEntity
  8
1
  6
Continuous
 62
     7
100
AcDbCircle
 10
6277.12376852493
 20
14492.4700546144
 30
0.0
 40
5.0
100
AcDbArc
 50
0.0
 51
90.0
  0
ARC
  5
183
330
1F
100
AcDbEntity
  8
1
  6
Continuous
 62
     7
100
AcDbCircle
 10
5698.12376852467
 20
11709.3339529453
 30
0.0
 40
5.0
100
AcDbArc
 50
90.0
 51
180.0
  0
ARC
  5
184
330
1F
100
AcDbEntity
  8
1
  6
Continuous
 62
     7
100
AcDbCircle
 10
5758.12376852467
 20
11709.3339529453
 30
0.0
 40
5.0
100
AcDbArc
 50
0.0
 51
90.0
  0
ARC
  5
185
330
1F
100
AcDbEntity
  8
1
  6
Continuous
 62
     7
100
AcDbCircle
 10
5758.12376852467
 20
10954.3339529453
 30
0.0
 40
5.0
100
AcDbArc
 50
270.0
 51
0.0
  0
ARC
  5
186
330
1F
100
AcDbEntity
  8
1
  6
Continuous
 62
     7
100
AcDbCircle
 10
5698.12376852467
 20
10954.3339529453
 30
0.0
 40
5.0
100
AcDbArc
 50
180.0
 51
270.0
  0
ARC
  5
187
330
1F
100
AcDbEntity
  8
1
  6
Continuous
 62
     7
100
AcDbCircle
 10
6287.12376852483
 20
10954.3339529453
 30
0.0
 40
5.0
100
AcDbArc
 50
180.0
 51
270.0
  0
ARC
  5
188
330
1F
100
AcDbEntity
  8
1
  6
Continuous
 62
     7
100
AcDbCircle
 10
6347.12376852483
 20
10954.3339529453
 30
0.0
 40
5.0
100
AcDbArc
 50
270.0
 51
0.0
  0
ARC
  5
189
330
1F
100
AcDbEntity
  8
1
  6
Continuous
 62
     7
100
AcDbCircle
 10
6347.12376852483
 20
11709.3339529453
 30
0.0
 40
5.0
100
AcDbArc
 50
0.0
 51
90.0
  0
ARC
  5
18A
330
1F
100
AcDbEntity
  8
1
  6
Continuous
 62
     7
100
AcDbCircle
 10
6287.12376852483
 20
11709.3339529453
 30
0.0
 40
5.0
100
AcDbArc
 50
90.0
 51
180.0
  0
ARC
  5
18B
330
1F
100
AcDbEntity
  8
1
  6
Continuous
 62
     3
100
AcDbCircle
 10
2174.10040180164
 20
14110.1716758503
 30
0.0
 40
199.9999999999908
100
AcDbArc
 50
152.2943738128428
 51
192.7324859708781
  0
ARC
  5
18C
330
1F
100
AcDbEntity
  8
1
  6
Continuous
 62
     7
100
AcDbCircle
 10
1287.12376852483
 20
11709.3339529453
 30
0.0
 40
5.0
100
AcDbArc
 50
90.0
 51
180.0
  0
ARC
  5
18D
330
1F
100
AcDbEntity
  8
1
  6
Continuous
 62
     7
100
AcDbCircle
 10
1347.12376852483
 20
11709.3339529453
 30
0.0
 40
5.0
100
AcDbArc
 50
0.0
 51
90.0
  0
ARC
  5
18E
330
1F
100
AcDbEntity
  8
1
  6
Continuous
 62
     7
100
AcDbCircle
 10
1347.12376852483
 20
10954.3339529453
 30
0.0
 40
5.0
100
AcDbArc
 50
270.0
 51
0.0
  0
ARC
  5
18F
330
1F
100
AcDbEntity
  8
1
  6
Continuous
 62
     7
100
AcDbCircle
 10
1287.12376852483
 20
10954.3339529453
 30
0.0
 40
5.0
100
AcDbArc
 50
180.0
 51
270.0
  0
ARC
  5
190
330
1F
100
AcDbEntity
  8
1
  6
Continuous
 62
     7
100
AcDbCircle
 10
698.123768524669
 20
10954.3339529453
 30
0.0
 40
5.0
100
AcDbArc
 50
180.0
 51
270.0
  0
ARC
  5
191
330
1F
100
AcDbEntity
  8
1
  6
Continuous
 62
     7
100
AcDbCircle
 10
758.123768524669
 20
10954.3339529453
 30
0.0
 40
5.0
100
AcDbArc
 50
270.0
 51
0.0
  0
ARC
  5
192
330
1F
100
AcDbEntity
  8
1
  6
Continuous
 62
     7
100
AcDbCircle
 10
758.123768524669
 20
11709.3339529453
 30
0.0
 40
5.0
100
AcDbArc
 50
0.0
 51
90.0
  0
ARC
  5
193
330
1F
100
AcDbEntity
  8
1
  6
Continuous
 62
     7
100
AcDbCircle
 10
698.123768524669
 20
11709.3339529453
 30
0.0
 40
5.0
100
AcDbArc
 50
90.0
 51
180.0
  0
ARC
  5
194
330
1F
100
AcDbEntity
  8
1
  6
Continuous
 62
     7
100
AcDbCircle
 10
1277.12376852493
 20
14402.4700546144
 30
0.0
 40
5.0
100
AcDbArc
 50
0.0
 51
90.0
  0
ARC
  5
195
330
1F
100
AcDbEntity
  8
1
  6
Continuous
 62
     7
100
AcDbCircle
 10
768.123768524574
 20
14402.4700546144
 30
0.0
 40
5.0
100
AcDbArc
 50
90.0
 51
180.0
  0
ARC
  5
196
330
1F
100
AcDbEntity
  8
1
  6
Continuous
 62
     7
100
AcDbCircle
 10
1347.12376852483
 20
13816.5072955839
 30
0.0
 40
5.0
100
AcDbArc
 50
0.0
 51
90.0
  0
ARC
  5
197
330
1F
100
AcDbEntity
  8
1
  6
Continuous
 62
     7
100
AcDbCircle
 10
1287.12376852483
 20
13816.5072955839
 30
0.0
 40
5.0
100
AcDbArc
 50
90.0
 51
180.0
  0
ARC
  5
198
330
1F
100
AcDbEntity
  8
1
  6
Continuous
 62
     7
100
AcDbCircle
 10
758.123768524669
 20
13816.5072955839
 30
0.0
 40
5.0
100
AcDbArc
 50
0.0
 51
90.0
  0
ARC
  5
199
330
1F
100
AcDbEntity
  8
1
  6
Continuous
 62
     7
100
AcDbCircle
 10
698.123768524669
 20
13816.5072955839
 30
0.0
 40
5.0
100
AcDbArc
 50
90.0
 51
180.0
  0
ARC
  5
19A
330
1F
100
AcDbEntity
  8
1
  6
Continuous
 62
     7
100
AcDbCircle
 10
1958.53370991057
 20
13796.5072955839
 30
0.0
 40
25.0
100
AcDbArc
 50
90.0
 51
180.0
  0
ARC
  5
19B
330
1F
100
AcDbEntity
  8
1
  6
Continuous
 62
     7
100
AcDbCircle
 10
2673.53370991057
 20
13796.5072955839
 30
0.0
 40
25.0
100
AcDbArc
 50
0.0
 51
90.0
  0
ARC
  5
19C
330
1F
100
AcDbEntity
  8
1
  6
Continuous
 62
     3
100
AcDbCircle
 10
7940.76414492468
 20
13784.4748195146
 30
0.0
 40
8.500000000000526
100
AcDbArc
 50
286.6344886789171
 51
10.77346501181943
  0
ARC
  5
19D
330
1F
100
AcDbEntity
  8
1
  6
Continuous
 62
     3
100
AcDbCircle
 10
7939.67416702835
 20
13790.2030955085
 30
0.0
 40
8.500000000000313
100
AcDbArc
 50
10.77346501184408
 51
100.7520541558834
  0
ARC
  5
19E
330
1F
100
AcDbEntity
  8
1
  6
Continuous
 62
     7
100
AcDbCircle
 10
8420.85994018435
 20
14431.8839653417
 30
0.0
 40
1478.19058070336
100
AcDbArc
 50
183.5278233910533
 51
194.912716055121
  0
ARC
  5
19F
330
1F
100
AcDbEntity
  8
1
  6
Continuous
 62
     3
100
AcDbCircle
 10
8347.47289462782
 20
13637.2218598729
 30
0.0
 40
1478.190580703319
100
AcDbArc
 50
153.7301548104614
 51
156.5332210873281
  0
ARC
  5
1A0
330
1F
100
AcDbEntity
  8
1
  6
Continuous
 62
     3
100
AcDbCircle
 10
7752.42967904066
 20
15006.290676326
 30
0.0
 40
1478.190580703375
100
AcDbArc
 50
217.527823391054
 51
234.8731428556799
  0
ARC
  5
1A1
330
1F
100
AcDbEntity
  8
1
  6
Continuous
 62
     3
100
AcDbCircle
 10
8129.56763868163
 20
14769.0361067639
 30
0.0
 40
1478.19058070339
100
AcDbArc
 50
200.5278233910563
 51
211.9127160551249
  0
ARC
  5
1A2
330
1F
100
AcDbEntity
  8
1
  6
Continuous
 62
     7
100
AcDbCircle
 10
5787.38492742024
 20
13468.5134948427
 30
0.0
 40
9.999999999993815
100
AcDbArc
 50
184.3934773166023
 51
270.0
  0
ARC
  5
1A3
330
1F
100
AcDbEntity
  8
1
  6
Continuous
 62
     7
100
AcDbCircle
 10
5773.92155324357
 20
13643.746449702
 30
0.0
 40
10.0
100
AcDbArc
 50
90.0
 51
184.3934773171699
  0
ARC
  5
1A4
330
1F
100
AcDbEntity
  8
1
  6
Continuous
 62
     7
100
AcDbCircle
 10
5773.12376852477
 20
13663.746449702
 30
0.0
 40
10.0
100
AcDbArc
 50
180.0
 51
270.0
  0
ARC
  5
1A5
330
1F
100
AcDbEntity
  8
1
  6
Continuous
 62
     7
100
AcDbCircle
 10
5773.12376852477
 20
13751.5072955839
 30
0.0
 40
10.0
100
AcDbArc
 50
90.00000000034393
 51
180.0
  0
ARC
  5
1A6
330
1F
100
AcDbEntity
  8
1
  6
Continuous
 62
     7
100
AcDbCircle
 10
6272.1237685248
 20
13751.5072955839
 30
0.0
 40
10.0
100
AcDbArc
 50
0.0
 51
90.0
  0
ARC
  5
1A7
330
1F
100
AcDbEntity
  8
1
  6
Continuous
 62
     7
100
AcDbCircle
 10
6272.12376852478
 20
13663.746449702
 30
0.0
 40
10.0
100
AcDbArc
 50
270.0
 51
0.0
  0
ARC
  5
1A8
330
1F
100
AcDbEntity
  8
1
  6
Continuous
 62
     7
100
AcDbCircle
 10
5773.12376852477
 20
13663.746449702
 30
0.0
 40
10.0
100
AcDbArc
 50
180.0
 51
270.0
  0
ARC
  5
1A9
330
1F
100
AcDbEntity
  8
1
  6
Continuous
 62
     7
100
AcDbCircle
 10
5773.92155324357
 20
13643.746449702
 30
0.0
 40
10.0
100
AcDbArc
 50
90.0
 51
184.3934773171699
  0
ARC
  5
1AA
330
1F
100
AcDbEntity
  8
1
  6
Continuous
 62
     7
100
AcDbCircle
 10
6271.32598380594
 20
13643.746449702
 30
0.0
 40
10.00000000001055
100
AcDbArc
 50
355.6065226828301
 51
90.0
  0
ARC
  5
1AB
330
1F
100
AcDbEntity
  8
1
  6
Continuous
 62
     7
100
AcDbCircle
 10
6257.86260962926
 20
13468.5134948427
 30
0.0
 40
10.0
100
AcDbArc
 50
270.0
 51
355.6065226834017
  0
ARC
  5
1AC
330
1F
100
AcDbEntity
  8
1
  6
Continuous
 62
     7
100
AcDbCircle
 10
5787.38492742024
 20
13468.5134948427
 30
0.0
 40
9.999999999993815
100
AcDbArc
 50
184.3934773166023
 51
270.0
  0
ARC
  5
1AD
330
1F
100
AcDbEntity
  8
1
  6
Continuous
 62
     7
100
AcDbCircle
 10
5773.12376852477
 20
13751.5072955839
 30
0.0
 40
10.0
100
AcDbArc
 50
90.00000000034393
 51
180.0
  0
ARC
  5
1AE
330
1F
100
AcDbEntity
  8
1
  6
Continuous
 62
     7
100
AcDbCircle
 10
6022.12376852588
 20
10843.7032527941
 30
0.0
 40
955.3376682873181
100
AcDbArc
 50
74.20745297188667
 51
105.7302295936473
  0
ARC
  5
1AF
330
1F
100
AcDbEntity
  8
1
  6
Continuous
 62
     7
100
AcDbCircle
 10
6022.12376852476
 20
11018.9171216231
 30
0.0
 40
740.2430309991673
100
AcDbArc
 50
69.43706706207577
 51
110.4802869083119
  0
ARC
  5
1B0
330
1F
100
AcDbEntity
  8
1
  6
Continuous
 62
     7
100
AcDbCircle
 10
6022.12376852493
 20
17090.7678432048
 30
0.0
 40
5457.309004802059
100
AcDbArc
 50
267.2797612736074
 51
272.7307495230146
  0
ARC
  5
1B1
330
1F
100
AcDbEntity
  8
1
  6
Continuous
 62
     7
100
AcDbCircle
 10
6022.12376852493
 20
13517.5711864125
 30
0.0
 40
1973.000000000115
100
AcDbArc
 50
262.6505657735811
 51
277.3494342264192
  0
ARC
  5
1B2
330
1F
100
AcDbEntity
  8
1
  6
Continuous
 62
     7
100
AcDbCircle
 10
6022.12376852493
 20
10992.0757385937
 30
0.0
 40
747.4202728842268
100
AcDbArc
 50
69.64332618940435
 51
110.2749307846689
  0
ARC
  5
1B3
330
1F
100
AcDbEntity
  8
0
  6
Continuous
 62
     7
100
AcDbCircle
 10
6320.52195385472
 20
13266.8700745764
 30
0.0
 40
0.9999999999830148
100
AcDbArc
 50
2.99999999755188
 51
84.0000000011917
  0
ARC
  5
1B4
330
1F
100
AcDbEntity
  8
0
  6
Continuous
 62
     7
100
AcDbCircle
 10
6321.58922785837
 20
13246.5052734292
 30
0.0
 40
1.0
100
AcDbArc
 50
270.0
 51
2.99999999748915
  0
ARC
  5
1B5
330
1F
100
AcDbEntity
  8
0
  6
Continuous
 62
     7
100
AcDbCircle
 10
5723.69678810893
 20
13246.5052734292
 30
0.0
 40
0.9999999999939138
100
AcDbArc
 50
177.0000000024809
 51
270.0
  0
ARC
  5
1B6
330
1F
100
AcDbEntity
  8
0
  6
Continuous
 62
     7
100
AcDbCircle
 10
5724.76406211259
 20
13266.8700745764
 30
0.0
 40
1.000000000030645
100
AcDbArc
 50
95.99999999937839
 51
177.0000000024781
  0
ARC
  5
1B7
330
1F
100
AcDbEntity
  8
0
  6
Continuous
 62
     7
100
AcDbCircle
 10
6930.63552446377
 20
13266.8700745764
 30
0.0
 40
1.000000000030645
100
AcDbArc
 50
95.99999999937839
 51
177.0000000024481
  0
ARC
  5
1B8
330
1F
100
AcDbEntity
  8
0
  6
Continuous
 62
     7
100
AcDbCircle
 10
6929.56825046012
 20
13246.5052734292
 30
0.0
 40
1.000000000002996
100
AcDbArc
 50
177.0000000025081
 51
270.0
  0
ARC
  5
1B9
330
1F
100
AcDbEntity
  8
0
  6
Continuous
 62
     7
100
AcDbCircle
 10
7527.46069020955
 20
13246.5052734292
 30
0.0
 40
1.0
100
AcDbArc
 50
270.0
 51
2.99999999749188
  0
ARC
  5
1BA
330
1F
100
AcDbEntity
  8
0
  6
Continuous
 62
     7
100
AcDbCircle
 10
7526.3934162059
 20
13266.8700745764
 30
0.0
 40
0.9999999999830148
100
AcDbArc
 50
2.99999999755188
 51
84.00000000067344
  0
ARC
  5
1BB
330
1F
100
AcDbEntity
  8
1
  6
Continuous
 62
     7
100
AcDbCircle
 10
8420.85994018435
 20
14431.8839653417
 30
0.0
 40
1478.190580703348
100
AcDbArc
 50
192.7324859708737
 51
202.6972267196557
  0
ARC
  5
1BC
330
1F
100
AcDbEntity
  8
1
  6
Continuous
 62
     7
100
AcDbCircle
 10
8420.85994018435
 20
14431.8839653417
 30
0.0
 40
1478.190580703353
100
AcDbArc
 50
192.9141798557923
 51
202.6972267196557
  0
ARC
  5
1BD
330
1F
100
AcDbEntity
  8
1
  6
Continuous
 62
     3
100
AcDbCircle
 10
2752.43245443754
 20
14966.2856427214
 30
0.0
 40
1478.190580703375
100
AcDbArc
 50
217.5278233910539
 51
234.8729936357849
  0
ARC
  5
1BE
330
1F
100
AcDbEntity
  8
1
  6
Continuous
 62
     3
100
AcDbCircle
 10
3129.56865024144
 20
14729.0333825686
 30
0.0
 40
1478.190580703344
100
AcDbArc
 50
200.5278233910527
 51
211.9127493253664
  0
ARC
  5
1BF
330
1F
100
AcDbEntity
  8
1
  6
Continuous
 62
     7
100
AcDbCircle
 10
3420.85994018435
 20
14391.8839653417
 30
0.0
 40
1478.190580703361
100
AcDbArc
 50
183.5278233910533
 51
202.6972267196557
  0
ARC
  5
1C0
330
1F
100
AcDbEntity
  8
1
  6
Continuous
 62
     7
100
AcDbCircle
 10
3420.85994018435
 20
14391.8839653417
 30
0.0
 40
1478.190580703349
100
AcDbArc
 50
192.7324859708737
 51
202.6972267196557
  0
ARC
  5
1C1
330
1F
100
AcDbEntity
  8
0
  6
Continuous
 62
     7
100
AcDbCircle
 10
2526.3934162059
 20
13266.8700745764
 30
0.0
 40
0.9999999999830148
100
AcDbArc
 50
2.99999999755188
 51
84.00000000062163
  0
ARC
  5
1C2
330
1F
100
AcDbEntity
  8
0
  6
Continuous
 62
     7
100
AcDbCircle
 10
2527.46069020955
 20
13246.5052734292
 30
0.0
 40
1.0
100
AcDbArc
 50
270.0
 51
2.99999999749188
  0
ARC
  5
1C3
330
1F
100
AcDbEntity
  8
0
  6
Continuous
 62
     7
100
AcDbCircle
 10
1929.56825046012
 20
13246.5052734292
 30
0.0
 40
1.000000000003223
100
AcDbArc
 50
177.0000000025088
 51
270.0
  0
ARC
  5
1C4
330
1F
100
AcDbEntity
  8
0
  6
Continuous
 62
     7
100
AcDbCircle
 10
1930.63552446377
 20
13266.8700745764
 30
0.0
 40
1.000000000029599
100
AcDbArc
 50
95.9999999988083
 51
177.0000000024488
  0
ARC
  5
1C5
330
1F
100
AcDbEntity
  8
0
  6
Continuous
 62
     7
100
AcDbCircle
 10
724.76406211259
 20
13266.8700745764
 30
0.0
 40
1.000000000030526
100
AcDbArc
 50
95.9999999993136
 51
177.0000000024665
  0
ARC
  5
1C6
330
1F
100
AcDbEntity
  8
0
  6
Continuous
 62
     7
100
AcDbCircle
 10
723.696788108931
 20
13246.5052734292
 30
0.0
 40
0.9999999999960708
100
AcDbArc
 50
177.0000000024873
 51
270.0
  0
ARC
  5
1C7
330
1F
100
AcDbEntity
  8
0
  6
Continuous
 62
     7
100
AcDbCircle
 10
1321.58922785837
 20
13246.5052734292
 30
0.0
 40
1.0
100
AcDbArc
 50
270.0
 51
2.9999999974912
  0
ARC
  5
1C8
330
1F
100
AcDbEntity
  8
0
  6
Continuous
 62
     7
100
AcDbCircle
 10
1320.52195385472
 20
13266.8700745764
 30
0.0
 40
0.9999999999830148
100
AcDbArc
 50
2.99999999755188
 51
84.00000000120465
  0
ARC
  5
1C9
330
1F
100
AcDbEntity
  8
1
  6
Continuous
 62
     3
100
AcDbCircle
 10
2901.48567192344
 20
13737.0163048626
 30
0.0
 40
8.500000000000655
100
AcDbArc
 50
286.63448867892
 51
10.77346501181886
  0
ARC
  5
1CA
330
1F
100
AcDbEntity
  8
1
  6
Continuous
 62
     3
100
AcDbCircle
 10
2900.39569402711
 20
13742.7445808565
 30
0.0
 40
8.50000000000042
100
AcDbArc
 50
10.77346501183147
 51
100.7520541558864
  0
ARC
  5
1CB
330
1F
100
AcDbEntity
  8
1
  6
Continuous
 62
     7
100
AcDbCircle
 10
1022.12376852493
 20
10992.0757385937
 30
0.0
 40
747.4202728842268
100
AcDbArc
 50
69.64332618940435
 51
110.2749307846689
  0
ARC
  5
1CC
330
1F
100
AcDbEntity
  8
1
  6
Continuous
 62
     7
100
AcDbCircle
 10
1022.12376852493
 20
13517.5711864125
 30
0.0
 40
1973.000000000116
100
AcDbArc
 50
262.650565773581
 51
277.3494342264192
  0
ARC
  5
1CD
330
1F
100
AcDbEntity
  8
1
  6
Continuous
 62
     7
100
AcDbCircle
 10
1022.12376852493
 20
17090.7678432048
 30
0.0
 40
5457.309004802059
100
AcDbArc
 50
267.2797612736074
 51
272.7307495230146
  0
ARC
  5
1CE
330
1F
100
AcDbEntity
  8
1
  6
Continuous
 62
     7
100
AcDbCircle
 10
1022.12376852476
 20
11018.9171216231
 30
0.0
 40
740.2430309991673
100
AcDbArc
 50
69.43706706207577
 51
110.480286908312
  0
ARC
  5
1CF
330
1F
100
AcDbEntity
  8
1
  6
Continuous
 62
     7
100
AcDbCircle
 10
1022.12376852588
 20
10843.7032527941
 30
0.0
 40
955.3376682873183
100
AcDbArc
 50
74.20745297188665
 51
105.7302295936473
  0
ARC
  5
1D0
330
1F
100
AcDbEntity
  8
1
  6
Continuous
 62
     7
100
AcDbCircle
 10
773.123768524765
 20
13711.5072955839
 30
0.0
 40
10.0
100
AcDbArc
 50
90.00000000034329
 51
180.0
  0
ARC
  5
1D1
330
1F
100
AcDbEntity
  8
1
  6
Continuous
 62
     7
100
AcDbCircle
 10
787.384927420245
 20
13428.5134948427
 30
0.0
 40
9.999999999998122
100
AcDbArc
 50
184.3934773166004
 51
270.0
  0
ARC
  5
1D2
330
1F
100
AcDbEntity
  8
1
  6
Continuous
 62
     7
100
AcDbCircle
 10
1257.86260962927
 20
13428.5134948427
 30
0.0
 40
10.0
100
AcDbArc
 50
270.0
 51
355.6065226833974
  0
ARC
  5
1D3
330
1F
100
AcDbEntity
  8
1
  6
Continuous
 62
     7
100
AcDbCircle
 10
1271.32598380594
 20
13603.746449702
 30
0.0
 40
10.00000000001077
100
AcDbArc
 50
355.6065226828302
 51
90.0
  0
ARC
  5
1D4
330
1F
100
AcDbEntity
  8
1
  6
Continuous
 62
     7
100
AcDbCircle
 10
773.921553243567
 20
13603.746449702
 30
0.0
 40
10.0
100
AcDbArc
 50
90.0
 51
184.3934773171715
  0
ARC
  5
1D5
330
1F
100
AcDbEntity
  8
1
  6
Continuous
 62
     7
100
AcDbCircle
 10
773.123768524765
 20
13623.746449702
 30
0.0
 40
10.0
100
AcDbArc
 50
180.0
 51
270.0
  0
ARC
  5
1D6
330
1F
100
AcDbEntity
  8
1
  6
Continuous
 62
     7
100
AcDbCircle
 10
1272.12376852478
 20
13623.746449702
 30
0.0
 40
10.0
100
AcDbArc
 50
270.0
 51
0.0
  0
ARC
  5
1D7
330
1F
100
AcDbEntity
  8
1
  6
Continuous
 62
     7
100
AcDbCircle
 10
1272.1237685248
 20
13711.5072955839
 30
0.0
 40
10.0
100
AcDbArc
 50
0.0
 51
90.0
  0
ARC
  5
1D8
330
1F
100
AcDbEntity
  8
1
  6
Continuous
 62
     7
100
AcDbCircle
 10
773.123768524765
 20
13711.5072955839
 30
0.0
 40
10.0
100
AcDbArc
 50
90.00000000034329
 51
180.0
  0
ARC
  5
1D9
330
1F
100
AcDbEntity
  8
1
  6
Continuous
 62
     7
100
AcDbCircle
 10
773.123768524765
 20
13623.746449702
 30
0.0
 40
10.0
100
AcDbArc
 50
180.0
 51
270.0
  0
ARC
  5
1DA
330
1F
100
AcDbEntity
  8
1
  6
Continuous
 62
     7
100
AcDbCircle
 10
773.921553243567
 20
13603.746449702
 30
0.0
 40
10.0
100
AcDbArc
 50
90.0
 51
184.3934773171715
  0
ARC
  5
1DB
330
1F
100
AcDbEntity
  8
1
  6
Continuous
 62
     7
100
AcDbCircle
 10
787.384927420245
 20
13428.5134948427
 30
0.0
 40
9.999999999998122
100
AcDbArc
 50
184.3934773166004
 51
270.0
  0
ARC
  5
1DC
330
1F
100
AcDbEntity
  8
1
  6
Continuous
 62
     3
100
AcDbCircle
 10
1022.62376852475
 20
10584.8276746506
 30
0.0
 40
1595.509278142439
100
AcDbArc
 50
80.6396035116645
 51
99.36039648833554
  0
ARC
  5
1DD
330
1F
100
AcDbEntity
  8
1
  6
Continuous
 62
     3
100
AcDbCircle
 10
6022.62376852475
 20
10517.1576566433
 30
0.0
 40
1687.144019017113
100
AcDbArc
 50
81.15220031017085
 51
98.84779968982882
  0
CIRCLE
  5
1DE
330
1F
100
AcDbEntity
  8
0
  6
Continuous
 62
     7
100
AcDbCircle
 10
7147.24496226367
 20
13625.9188858659
 30
0.0
 40
6.0
  0
CIRCLE
  5
1DF
330
1F
100
AcDbEntity
  8
0
  6
Continuous
 62
     7
100
AcDbCircle
 10
7147.24496226367
 20
13625.9188858659
 30
0.0
 40
4.050000000000182
  0
CIRCLE
  5
1E0
330
1F
100
AcDbEntity
  8
0
  6
Continuous
 62
     7
100
AcDbCircle
 10
7147.24496226367
 20
13625.9188858659
 30
0.0
 40
6.0
  0
CIRCLE
  5
1E1
330
1F
100
AcDbEntity
  8
0
  6
Continuous
 62
     7
100
AcDbCircle
 10
7147.24496226367
 20
13625.9188858659
 30
0.0
 40
4.050000000000182
  0
SPLINE
  5
1E2
330
1F
100
AcDbEntity
  8
1
  6
Continuous
 62
     3
100
AcDbSpline
210
0.0
220
0.0
230
1.0
 70
     8
 71
     3
 72
     9
 73
     5
 74
     3
 42
0.0000000001
 43
0.0000000001
 44
0.00000001
 40
0.0
 40
0.0
 40
0.0
 40
0.0
 40
58.03292949011183
 40
116.0658194012579
 40
116.0658194012579
 40
116.0658194012579
 40
116.0658194012579
 10
-1647.514505303639
 20
14356.3290433688
 30
0.0
 10
-1658.763246892765
 20
14340.58922327825
 30
0.0
 10
-1681.260722399277
 20
14309.10959383184
 30
0.0
 10
-1702.556312174456
 20
14276.80477483938
 30
0.0
 10
-1713.204103431099
 20
14260.6523708512
 30
0.0
 11
-1647.514505303639
 21
14356.3290433688
 31
0.0
 11
-1680.96025843326
 21
14308.90328556993
 31
0.0
 11
-1713.204103431099
 21
14260.6523708512
 31
0.0
  0
SPLINE
  5
1E3
330
1F
100
AcDbEntity
  8
1
  6
Continuous
 62
     3
100
AcDbSpline
210
0.0
220
0.0
230
1.0
 70
     8
 71
     3
 72
    11
 73
     7
 74
     5
 42
0.0000000001
 43
0.0000000001
 44
0.00000001
 40
0.0
 40
0.0
 40
0.0
 40
0.0
 40
3.394338362318955
 40
6.788676725164962
 40
89.92250832140773
 40
173.0563404120993
 40
173.0563404120993
 40
173.0563404120993
 40
173.0563404120993
 10
-1707.707831818919
 20
14199.0625257988
 30
0.0
 10
-1707.109898477064
 20
14200.02307008883
 30
0.0
 10
-1705.91403179326
 20
14201.94415866904
 30
0.0
 10
-1690.107688779956
 20
14227.41206372023
 30
0.0
 10
-1661.240627233003
 20
14276.04890911333
 30
0.0
 10
-1632.43531006274
 20
14323.39739474184
 30
0.0
 10
-1618.032651434779
 20
14347.0716376265
 30
0.0
 11
-1707.707831818919
 21
14199.0625257988
 31
0.0
 11
-1705.914674510359
 21
14201.9445597654
 31
0.0
 11
-1704.124838103696
 21
14204.82865729477
 31
0.0
 11
-1661.111681385972
 21
14275.9700819716
 31
0.0
 11
-1618.032651434779
 21
14347.0716376265
 31
0.0
  0
SPLINE
  5
1E4
330
1F
100
AcDbEntity
  8
1
  6
Continuous
 62
     3
100
AcDbSpline
210
0.0
220
0.0
230
1.0
 70
     8
 71
     3
 72
    15
 73
    11
 74
     9
 42
0.0000000001
 43
0.0000000001
 44
0.00000001
 40
0.0
 40
0.0
 40
0.0
 40
0.0
 40
43.91595850697315
 40
87.83221463643262
 40
104.147820477988
 40
120.4214126872849
 40
136.4240230757181
 40
152.6076229851889
 40
169.5947846513434
 40
186.5233276160936
 40
186.5233276160936
 40
186.5233276160936
 40
186.5233276160936
 10
-1664.391423937909
 20
14183.1574728792
 30
0.0
 10
-1657.72230132999
 20
14196.18797345863
 30
0.0
 10
-1644.384010916896
 20
14222.2490629264
 30
0.0
 10
-1628.355865808408
 20
14253.0528833421
 30
0.0
 10
-1615.404790950715
 20
14275.03802548659
 30
0.0
 10
-1607.948846292532
 20
14289.3984841425
 30
0.0
 10
-1602.372110768055
 20
14304.7835722755
 30
0.0
 10
-1600.262689488494
 20
14320.69064048568
 30
0.0
 10
-1601.526663717095
 20
14339.34483080866
 30
0.0
 10
-1612.536998819825
 20
14344.49900478441
 30
0.0
 10
-1618.032651434779
 20
14347.0716376265
 30
0.0
 11
-1664.391423937909
 21
14183.1574728792
 31
0.0
 11
-1644.339327670485
 21
14222.22824004428
 31
0.0
 11
-1623.615549126406
 21
14260.94726063216
 31
0.0
 11
-1615.527086713524
 21
14275.1167973138
 31
0.0
 11
-1608.222020883826
 21
14289.65866158968
 31
0.0
 11
-1602.967241375765
 21
14304.77391321067
 31
0.0
 11
-1600.835076002959
 21
14320.81644346162
 31
0.0
 11
-1604.075591447079
 21
14337.49165623773
 31
0.0
 11
-1618.032651434779
 21
14347.0716376265
 31
0.0
  0
SPLINE
  5
1E5
330
1F
100
AcDbEntity
  8
0
  6
Continuous
 62
     1
100
AcDbSpline
210
0.0
220
0.0
230
1.0
 70
     8
 71
     3
 72
    37
 73
    33
 74
    31
 42
0.0000000001
 43
0.0000000001
 44
0.00000001
 40
0.0
 40
0.0
 40
0.0
 40
0.0
 40
2.484539103895838
 40
4.969077759009708
 40
6.017895196320596
 40
7.066712487080876
 40
8.058077312583631
 40
9.049441375753776
 40
9.971966282934876
 40
10.8944927934104
 40
11.7368276806272
 40
12.57915619044803
 40
12.94252692320298
 40
13.30589772025935
 40
13.6852829849901
 40
14.06466745456661
 40
14.38051842144905
 40
14.69637093142388
 40
15.01596636147027
 40
15.33555611321133
 40
15.69399885440306
 40
16.05247176714611
 40
16.35820035530615
 40
16.66383778190564
 40
16.91494986610867
 40
17.16631130374513
 40
17.34245825445034
 40
17.51805065592278
 40
17.63648939414388
 40
17.75599988041588
 40
17.9020362147801
 40
18.04552546308482
 40
18.04552546308482
 40
18.04552546308482
 40
18.04552546308482
 10
-1156.147320347609
 20
13256.691221385
 30
0.0
 10
-1155.321000432549
 20
13256.63565517799
 30
0.0
 10
-1153.668360751686
 20
13256.52452277401
 30
0.0
 10
-1151.665290220355
 20
13256.41567419499
 30
0.0
 10
-1150.139592857433
 20
13256.34372707575
 30
0.0
 10
-1149.110830056563
 20
13256.30046651486
 30
0.0
 10
-1148.100997550645
 20
13256.26320456006
 30
0.0
 10
-1147.133049765071
 20
13256.23285558522
 30
0.0
 10
-1146.187880317123
 20
13256.20872980631
 30
0.0
 10
-1145.292241938449
 20
13256.19158781631
 30
0.0
 10
-1144.423237573241
 20
13256.18089871668
 30
0.0
 10
-1143.740557292989
 20
13256.17782047808
 30
0.0
 10
-1143.217533726753
 20
13256.17885183573
 30
0.0
 10
-1142.848830812188
 20
13256.1811720336
 30
0.0
 10
-1142.474805457577
 20
13256.18533603455
 30
0.0
 10
-1142.116646423357
 20
13256.19132090029
 30
0.0
 10
-1141.779699978088
 20
13256.19886875342
 30
0.0
 10
-1141.462724897004
 20
13256.20782619208
 30
0.0
 10
-1141.144569326987
 20
13256.21891226828
 30
0.0
 10
-1140.812324277976
 20
13256.23306076119
 30
0.0
 10
-1140.467281189468
 20
13256.25099695818
 30
0.0
 10
-1140.127096176909
 20
13256.27293955166
 30
0.0
 10
-1139.804795928283
 20
13256.29823833782
 30
0.0
 10
-1139.51860648768
 20
13256.32576807567
 30
0.0
 10
-1139.251029316325
 20
13256.35701166838
 30
0.0
 10
-1139.02707748526
 20
13256.38899731803
 30
0.0
 10
-1138.828853225008
 20
13256.42287231051
 30
0.0
 10
-1138.675624082794
 20
13256.45559025138
 30
0.0
 10
-1138.541976182551
 20
13256.49066473022
 30
0.0
 10
-1138.421280662834
 20
13256.53048158183
 30
0.0
 10
-1138.28833619444
 20
13256.57633191087
 30
0.0
 10
-1138.226733832675
 20
13256.65315014541
 30
0.0
 10
-1138.196203623559
 20
13256.6912213605
 30
0.0
 11
-1156.147320347609
 21
13256.691221385
 31
0.0
 11
-1153.668028225764
 21
13256.52983633815
 31
0.0
 11
-1151.187212519759
 21
13256.39387398457
 31
0.0
 11
-1150.139552385916
 21
13256.34461689611
 31
0.0
 11
-1149.091659756858
 21
13256.30058568714
 31
0.0
 11
-1148.100965853523
 21
13256.26411916634
 31
0.0
 11
-1147.110086163535
 21
13256.23313294819
 31
0.0
 11
-1146.187858635153
 21
13256.20971094434
 31
0.0
 11
-1145.265498802847
 21
13256.19217520146
 31
0.0
 11
-1144.423225466748
 21
13256.1819923964
 31
0.0
 11
-1143.580904737855
 21
13256.17837188064
 31
0.0
 11
-1143.217534761931
 21
13256.17911351394
 31
0.0
 11
-1142.854171318258
 21
13256.18142521352
 31
0.0
 11
-1142.474810009264
 21
13256.18568858466
 31
0.0
 11
-1142.095479165814
 21
13256.19206721798
 31
0.0
 11
-1141.779708225856
 21
13256.19917684237
 31
0.0
 11
-1141.463982778684
 21
13256.20813508246
 31
0.0
 11
-1141.144583257366
 21
13256.21932367881
 31
0.0
 11
-1140.825285415408
 21
13256.23298008898
 31
0.0
 11
-1140.467333962093
 21
13256.25174057359
 31
0.0
 11
-1140.109614279815
 21
13256.27496681051
 31
0.0
 11
-1139.804842261886
 21
13256.29913262739
 31
0.0
 11
-1139.500632534882
 21
13256.3286398898
 31
0.0
 11
-1139.251250422617
 21
13256.35806506465
 31
0.0
 11
-1139.002453259932
 21
13256.3938776905
 31
0.0
 11
-1138.828916119468
 21
13256.42408711159
 31
0.0
 11
-1138.657282858363
 21
13256.46116426274
 31
0.0
 11
-1138.542844619455
 21
13256.49168678208
 31
0.0
 11
-1138.429043058716
 21
13256.52818282436
 31
0.0
 11
-1138.295776659736
 21
13256.58790449428
 31
0.0
 11
-1138.196203623559
 21
13256.6912213605
 31
0.0
  0
SPLINE
  5
1E6
330
1F
100
AcDbEntity
  8
0
  6
Continuous
 62
     1
100
AcDbSpline
210
0.0
220
0.0
230
1.0
 70
     8
 71
     3
 72
    19
 73
    15
 74
    13
 42
0.0000000001
 43
0.0000000001
 44
0.00000001
 40
0.0
 40
0.0
 40
0.0
 40
0.0
 40
4.202299690026273
 40
8.404583268953662
 40
9.023862965040674
 40
9.643139951530442
 40
10.22551229793745
 40
10.80788414354969
 40
10.97905133892307
 40
11.15021842632782
 40
11.29257390237784
 40
11.43492938125894
 40
11.54072725405468
 40
11.6465251268962
 40
11.6465251268962
 40
11.6465251268962
 40
11.6465251268962
 10
-1138.196203623559
 20
13256.6912213605
 30
0.0
 10
-1137.752621713195
 20
13258.02002565416
 30
0.0
 10
-1136.865459593106
 20
13260.67762914703
 30
0.0
 10
-1136.03646300766
 20
13263.57015993678
 30
0.0
 10
-1135.567472454814
 20
13265.32206820824
 30
0.0
 10
-1135.413612042954
 20
13265.90922520072
 30
0.0
 10
-1135.265716354903
 20
13266.48521618497
 30
0.0
 10
-1135.157065695045
 20
13266.91706384116
 30
0.0
 10
-1135.08279827347
 20
13267.21621836046
 30
0.0
 10
-1135.044095072878
 20
13267.37307743002
 30
0.0
 10
-1135.00788506917
 20
13267.52065957452
 30
0.0
 10
-1134.977020206089
 20
13267.6471170564
 30
0.0
 10
-1134.949156348664
 20
13267.76176335557
 30
0.0
 10
-1134.932576017382
 20
13267.83031876639
 30
0.0
 10
-1134.924285851739
 20
13267.8645964718
 30
0.0
 11
-1138.196203623559
 21
13256.6912213605
 31
0.0
 11
-1136.894222251811
 21
13260.68673974895
 31
0.0
 11
-1135.728065487665
 21
13264.72397465407
 31
0.0
 11
-1135.567999423853
 21
13265.32221055838
 31
0.0
 11
-1135.411002924102
 21
13265.92125653747
 31
0.0
 11
-1135.266173315048
 21
13266.48533271512
 31
0.0
 11
-1135.124079457207
 21
13267.05010373255
 31
0.0
 11
-1135.082837900962
 21
13267.21622821242
 31
0.0
 11
-1135.041833890269
 21
13267.38241137317
 31
0.0
 11
-1135.007912941952
 21
13267.52066639415
 31
0.0
 11
-1134.974156526465
 21
13267.6589616825
 31
0.0
 11
-1134.949175592229
 21
13267.76176801895
 31
0.0
 11
-1134.924285851739
 21
13267.8645964718
 31
0.0
  0
SPLINE
  5
1E7
330
1F
100
AcDbEntity
  8
0
  6
Continuous
 62
     1
100
AcDbSpline
210
0.0
220
0.0
230
1.0
 70
     8
 71
     3
 72
    43
 73
    39
 74
    37
 42
0.0000000001
 43
0.0000000001
 44
0.00000001
 40
0.0
 40
0.0
 40
0.0
 40
0.0
 40
34.62455098978571
 40
69.24909815135058
 40
86.99963908116318
 40
104.7501806487666
 40
121.6290948145336
 40
138.5080078816372
 40
156.1425516100982
 40
173.7771020139968
 40
190.7755832906528
 40
207.7740349452759
 40
216.4327505552147
 40
225.091460963516
 40
233.7501209566954
 40
242.4087822131756
 40
250.9828870849441
 40
259.5569916556779
 40
268.3005169471367
 40
277.0440425819216
 40
285.7873772798526
 40
294.5307116343315
 40
303.1050071412143
 40
311.6793029497659
 40
320.3382175665956
 40
328.9971309195908
 40
337.6555879675686
 40
346.3140502166057
 40
363.3125045138855
 40
380.3109884342631
 40
397.9455361911726
 40
415.5800772723128
 40
432.4589761432694
 40
449.337876112945
 40
467.0884318678097
 40
484.8389869850195
 40
519.4635341351027
 40
554.0880851125678
 40
554.0880851125678
 40
554.0880851125678
 40
554.0880851125678
 10
-1709.668200023159
 20
13256.691221385
 30
0.0
 10
-1698.153829544849
 20
13257.4827016751
 30
0.0
 10
-1675.125089861301
 20
13259.0656621678
 30
0.0
 10
-1646.18021564862
 20
13260.8553411507
 30
0.0
 10
-1622.843065604629
 20
13262.18920588088
 30
0.0
 10
-1605.407864592949
 20
13263.12033336137
 30
0.0
 10
-1588.259388987933
 20
13263.96972428072
 30
0.0
 10
-1571.146218818153
 20
13264.74761582462
 30
0.0
 10
-1553.778083784052
 20
13265.45984950217
 30
0.0
 10
-1536.366867476883
 20
13266.08951998282
 30
0.0
 10
-1519.164628238223
 20
13266.62480903688
 30
0.0
 10
-1504.950783420235
 20
13266.99338320901
 30
0.0
 10
-1493.514872316253
 20
13267.24315204541
 30
0.0
 10
-1484.857733200187
 20
13267.40794063013
 30
0.0
 10
-1476.200177943468
 20
13267.54805339218
 30
0.0
 10
-1467.570453262628
 20
13267.66280357638
 30
0.0
 10
-1458.968615120795
 20
13267.75216658229
 30
0.0
 10
-1450.338265599099
 20
13267.81666519931
 30
0.0
 10
-1441.651288950354
 20
13267.85582301302
 30
0.0
 10
-1432.907823805348
 20
13267.86898310521
 30
0.0
 10
-1424.164422306237
 20
13267.85582339699
 30
0.0
 10
-1415.477509299632
 20
13267.81666672335
 30
0.0
 10
-1406.847096127361
 20
13267.75216847304
 30
0.0
 10
-1398.245046248835
 20
13267.66280354521
 30
0.0
 10
-1389.615089040126
 20
13267.54804989896
 30
0.0
 10
-1380.957449357962
 20
13267.4079346777
 30
0.0
 10
-1372.300394701733
 20
13267.24314662895
 30
0.0
 10
-1360.864651594997
 20
13266.99338099901
 30
0.0
 10
-1346.65088944113
 20
13266.62480896408
 30
0.0
 10
-1329.448649323758
 20
13266.08951986233
 30
0.0
 10
-1312.037433900267
 20
13265.45984939404
 30
0.0
 10
-1294.669305357829
 20
13264.74761597641
 30
0.0
 10
-1277.556145522596
 20
13263.9697249335
 30
0.0
 10
-1260.407674642606
 20
13263.12033433427
 30
0.0
 10
-1242.972468907137
 20
13262.18920668067
 30
0.0
 10
-1219.635309422328
 20
13260.85534144171
 30
0.0
 10
-1190.690430497351
 20
13259.06566216858
 30
0.0
 10
-1167.661690821788
 20
13257.48270167536
 30
0.0
 10
-1156.147320347609
 20
13256.691221385
 30
0.0
 11
-1709.668200023159
 21
13256.691221385
 31
0.0
 11
-1675.12246100701
 21
13259.02605479926
 31
0.0
 11
-1640.564166578852
 21
13261.16697804875
 31
0.0
 11
-1622.84245062449
 21
13262.17815900875
 31
0.0
 11
-1605.117133376482
 21
13263.12412645041
 31
0.0
 11
-1588.258844530978
 21
13263.95829706659
 31
0.0
 11
-1571.397307111424
 21
13264.7239746592
 31
0.0
 11
-1553.777536310524
 21
13265.44564593807
 31
0.0
 11
-1536.154474937319
 21
13266.08210157979
 31
0.0
 11
-1519.164196871881
 21
13266.6101328023
 31
0.0
 11
-1502.17144005512
 21
13267.05010373424
 31
0.0
 11
-1493.514787450747
 21
13267.23910558876
 31
0.0
 11
-1484.857644021809
 21
13267.40382834258
 31
0.0
 11
-1476.200116895209
 21
13267.5438887926
 31
0.0
 11
-1467.542220327084
 21
13267.65896168309
 31
0.0
 11
-1458.968577789862
 21
13267.74800097792
 31
0.0
 11
-1450.394712422167
 21
13267.81204663756
 31
0.0
 11
-1441.651275907687
 21
13267.85144764822
 31
0.0
 11
-1432.907760159741
 21
13267.86459647175
 31
0.0
 11
-1424.164435348001
 21
13267.85144822283
 31
0.0
 11
-1415.421189764696
 21
13267.81204893061
 31
0.0
 11
-1406.84713345992
 21
13267.74800268257
 31
0.0
 11
-1398.273299993326
 21
13267.65896168273
 31
0.0
 11
-1389.615150092116
 21
13267.54388505729
 31
0.0
 11
-1380.957369656469
 21
13267.40381941978
 31
0.0
 11
-1372.300479562458
 21
13267.2391004109
 31
0.0
 11
-1363.644080266346
 21
13267.05010373296
 31
0.0
 11
-1346.651320808006
 21
13266.61013272515
 31
0.0
 11
-1329.661040100745
 21
13266.08210140049
 31
0.0
 11
-1312.037981373527
 21
13265.4456458343
 31
0.0
 11
-1294.418213217999
 21
13264.72397465721
 31
0.0
 11
-1277.556689978645
 21
13263.95829773794
 31
0.0
 11
-1260.698415307776
 21
13263.12412790639
 31
0.0
 11
-1242.973083888314
 21
13262.17815979023
 31
0.0
 11
-1225.251353768149
 21
13261.16697804735
 31
0.0
 11
-1190.69305935139
 21
13259.02605479955
 31
0.0
 11
-1156.147320347609
 21
13256.691221385
 31
0.0
  0
SPLINE
  5
1E8
330
1F
100
AcDbEntity
  8
0
  6
Continuous
 62
     1
100
AcDbSpline
210
0.0
220
0.0
230
1.0
 70
     8
 71
     3
 72
    47
 73
    43
 74
    41
 42
0.0000000001
 43
0.0000000001
 44
0.00000001
 40
0.0
 40
0.0
 40
0.0
 40
0.0
 40
0.1434889441015335
 40
0.2895246845386943
 40
0.4090334071427383
 40
0.5274733184172098
 40
0.7030747757521554
 40
0.8792110745382361
 40
1.071794499213252
 40
1.26420064646521
 40
1.467856273265991
 40
1.671564572381285
 40
1.902578300283097
 40
2.133575083739785
 40
2.421772872166283
 40
2.709978107649482
 40
3.029575753211608
 40
3.349171281926068
 40
3.66501934679395
 40
3.980867855535174
 40
4.320516764084197
 40
4.660165715908112
 40
5.063273270703832
 40
5.466381048156809
 40
5.852170060947834
 40
6.23795899833125
 40
6.691272081317583
 40
7.144585349736277
 40
7.571749390984976
 40
7.998913309073329
 40
8.494939151786339
 40
8.990965415293296
 40
9.985154237975657
 40
10.97934575254647
 40
12.02791112610297
 40
13.07647512427752
 40
13.72342838088344
 40
14.37038118109152
 40
14.95190386139739
 40
15.533426636693
 40
16.78949379782118
 40
18.04556067574245
 40
18.04556067574245
 40
18.04556067574245
 40
18.04556067574245
 10
-1727.619316748619
 20
13256.6912213605
 30
0.0
 10
-1727.588786605403
 20
13256.65315022565
 30
0.0
 10
-1727.527184437106
 20
13256.57633222844
 30
0.0
 10
-1727.394240882827
 20
13256.53048212301
 30
0.0
 10
-1727.27354591798
 20
13256.49066484038
 30
0.0
 10
-1727.139895105589
 20
13256.45558992007
 30
0.0
 10
-1726.986666409874
 20
13256.42287288955
 30
0.0
 10
-1726.807759487858
 20
13256.39229963707
 30
0.0
 10
-1726.622694418132
 20
13256.36514895564
 30
0.0
 10
-1726.427991248955
 20
13256.34072104365
 30
0.0
 10
-1726.229221725996
 20
13256.31920409061
 30
0.0
 10
-1726.017353214344
 20
13256.29933310732
 30
0.0
 10
-1725.796180082356
 20
13256.28124769897
 30
0.0
 10
-1725.546731980315
 20
13256.26357451462
 30
0.0
 10
-1725.27808737645
 20
13256.24727952386
 30
0.0
 10
-1724.979804612232
 20
13256.23206464043
 30
0.0
 10
-1724.670948153894
 20
13256.21891226657
 30
0.0
 10
-1724.352791480942
 20
13256.20782619902
 30
0.0
 10
-1724.035818673416
 20
13256.19886809826
 30
0.0
 10
-1723.712116431663
 20
13256.19161709713
 30
0.0
 10
-1723.380447470981
 20
13256.18597012971
 30
0.0
 10
-1723.019670243677
 20
13256.18164691161
 30
0.0
 10
-1722.637723245068
 20
13256.17895634993
 30
0.0
 10
-1722.24038801335
 20
13256.17809076411
 30
0.0
 10
-1721.848825918866
 20
13256.17891266931
 30
0.0
 10
-1721.440535269643
 20
13256.18135034843
 30
0.0
 10
-1721.009749838358
 20
13256.18558982574
 30
0.0
 10
-1720.565193827823
 20
13256.19168646031
 30
0.0
 10
-1720.129376923482
 20
13256.19917136455
 30
0.0
 10
-1719.679351360274
 20
13256.2083234184
 30
0.0
 10
-1719.206409469038
 20
13256.2194578376
 30
0.0
 10
-1718.54456555
 20
13256.23718280657
 30
0.0
 10
-1717.716831104536
 20
13256.26311977303
 30
0.0
 10
-1716.705199593165
 20
13256.30044144215
 30
0.0
 10
-1715.675665421867
 20
13256.34375378361
 30
0.0
 10
-1714.761979196457
 20
13256.38676350772
 30
0.0
 10
-1713.982162977747
 20
13256.42642729123
 30
0.0
 10
-1713.35791836913
 20
13256.45994347358
 30
0.0
 10
-1712.755538432599
 20
13256.49385047609
 30
0.0
 10
-1711.950556900036
 20
13256.54116884424
 30
0.0
 10
-1710.921319893533
 20
13256.6051913879
 30
0.0
 10
-1710.085906615223
 20
13256.66254472145
 30
0.0
 10
-1709.668200023159
 20
13256.691221385
 30
0.0
 11
-1727.619316748619
 21
13256.6912213605
 31
0.0
 11
-1727.519743927161
 21
13256.58790470983
 31
0.0
 11
-1727.386478139135
 21
13256.52818312891
 31
0.0
 11
-1727.272678364903
 21
13256.4916872913
 31
0.0
 11
-1727.158238955558
 21
13256.4611646084
 31
0.0
 11
-1726.986596676766
 21
13256.42408631354
 31
0.0
 11
-1726.813070125142
 21
13256.39387817505
 31
0.0
 11
-1726.622543984223
 21
13256.36580389703
 31
0.0
 11
-1726.431651927027
 21
13256.341713484
 31
0.0
 11
-1726.229190686361
 21
13256.3196893982
 31
0.0
 11
-1726.026382452008
 21
13256.30056111529
 31
0.0
 11
-1725.796142911243
 21
13256.28166412221
 31
0.0
 11
-1725.565728691145
 21
13256.2652689661
 31
0.0
 11
-1725.278064417996
 21
13256.24774095401
 31
0.0
 11
-1724.990237424738
 21
13256.23298020499
 31
0.0
 11
-1724.670931691344
 21
13256.2193235703
 31
0.0
 11
-1724.351532073594
 21
13256.20813490839
 31
0.0
 11
-1724.035811082377
 21
13256.19917634902
 31
0.0
 11
-1723.720042589459
 21
13256.1920672454
 31
0.0
 11
-1723.380443406924
 21
13256.18625550727
 31
0.0
 11
-1723.040819195918
 21
13256.18215602273
 31
0.0
 11
-1722.637721877747
 21
13256.17928325107
 31
0.0
 11
-1722.234615130536
 21
13256.17837188067
 31
0.0
 11
-1721.848826926009
 21
13256.17916158784
 31
0.0
 11
-1721.463044745072
 21
13256.18144480467
 31
0.0
 11
-1721.009753382539
 21
13256.18588235576
 31
0.0
 11
-1720.556482415818
 21
13256.19207509765
 31
0.0
 11
-1720.129381119992
 21
13256.19939638442
 31
0.0
 11
-1719.702305225433
 21
13256.20806778585
 31
0.0
 11
-1719.206416387912
 21
13256.21972529253
 31
0.0
 11
-1718.710567453148
 21
13256.23298756916
 31
0.0
 11
-1717.716863663136
 21
13256.26403902425
 31
0.0
 11
-1716.723344865774
 21
13256.30060631747
 31
0.0
 11
-1715.675703871536
 21
13256.34462551571
 31
0.0
 11
-1714.628297076575
 21
13256.39387451709
 31
0.0
 11
-1713.982178689419
 21
13256.4267309626
 31
0.0
 11
-1713.336155829604
 21
13256.46140646251
 31
0.0
 11
-1712.755552391692
 21
13256.49409094804
 31
0.0
 11
-1712.175029831554
 21
13256.52818340113
 31
0.0
 11
-1710.921408637325
 21
13256.60653271285
 31
0.0
 11
-1709.668200023159
 21
13256.691221385
 31
0.0
  0
SPLINE
  5
1E9
330
1F
100
AcDbEntity
  8
0
  6
Continuous
 62
     1
100
AcDbSpline
210
0.0
220
0.0
230
1.0
 70
     8
 71
     3
 72
    19
 73
    15
 74
    13
 42
0.0000000001
 43
0.0000000001
 44
0.00000001
 40
0.0
 40
0.0
 40
0.0
 40
0.0
 40
0.1057978726772463
 40
0.2115957453429135
 40
0.3539535247928507
 40
0.4963113013968071
 40
0.6674760883888102
 40
0.838640983336438
 40
1.420983650848459
 40
2.003326819120783
 40
2.622632983304491
 40
3.241941857464708
 40
7.444225435666583
 40
11.64652512686171
 40
11.64652512686171
 40
11.64652512686171
 40
11.64652512686171
 10
-1730.891234520379
 20
13267.8645964718
 30
0.0
 10
-1730.882944354776
 20
13267.83031876644
 30
0.0
 10
-1730.866364023572
 20
13267.7617633557
 30
0.0
 10
-1730.838499984896
 20
13267.64711631151
 30
0.0
 10
-1730.807634756927
 20
13267.52065733999
 30
0.0
 10
-1730.771424566252
 20
13267.37307445172
 30
0.0
 10
-1730.732721544892
 20
13267.21621612769
 30
0.0
 10
-1730.658456833512
 20
13266.91707253701
 30
0.0
 10
-1730.549811159528
 20
13266.48524447569
 30
0.0
 10
-1730.401918100003
 20
13265.90926285849
 30
0.0
 10
-1730.248055436657
 20
13265.32209640122
 30
0.0
 10
-1729.779060055536
 20
13263.57016928617
 30
0.0
 10
-1728.950060775277
 20
13260.67762914911
 30
0.0
 10
-1728.062898657784
 20
13258.02002565506
 30
0.0
 10
-1727.619316748619
 20
13256.6912213605
 30
0.0
 11
-1730.891234520379
 21
13267.8645964718
 31
0.0
 11
-1730.866344779971
 21
13267.7617680191
 31
0.0
 11
-1730.841363845665
 21
13267.6589616828
 31
0.0
 11
-1730.807606883259
 21
13267.52066415984
 31
0.0
 11
-1730.773685382801
 21
13267.38240690554
 31
0.0
 11
-1730.732681918463
 21
13267.21622597938
 31
0.0
 11
-1730.69144091496
 21
13267.05010373255
 31
0.0
 11
-1730.549354245019
 21
13266.4853609941
 31
0.0
 11
-1730.40453209733
 21
13265.92131302524
 31
0.0
 11
-1730.247528417925
 21
13265.3222387647
 31
0.0
 11
-1730.087454884627
 21
13264.7239746545
 31
0.0
 11
-1728.92129812074
 21
13260.68673975005
 31
0.0
 11
-1727.619316748619
 21
13256.6912213605
 31
0.0
  0
SPLINE
  5
1EA
330
1F
100
AcDbEntity
  8
0
  6
Continuous
 62
     1
100
AcDbSpline
210
0.0
220
0.0
230
1.0
 70
     8
 71
     3
 72
    19
 73
    15
 74
    13
 42
0.0000000001
 43
0.0000000001
 44
0.00000001
 40
0.0
 40
0.0
 40
0.0
 40
0.0
 40
0.1057978726796562
 40
0.2115957453438779
 40
0.3539535247939768
 40
0.4963113013979874
 40
0.667476088393577
 40
0.8386409833374
 40
1.420983650849199
 40
2.00332681912124
 40
2.622632983301371
 40
3.241941857463405
 40
7.444225435669974
 40
11.64652512686394
 40
11.64652512686394
 40
11.64652512686394
 40
11.64652512686394
 10
-2936.762696871568
 20
13267.8645964718
 30
0.0
 10
-2936.754406705964
 20
13267.83031876643
 30
0.0
 10
-2936.737826374758
 20
13267.76176335571
 30
0.0
 10
-2936.70996233608
 20
13267.64711631151
 30
0.0
 10
-2936.679097108112
 20
13267.52065733999
 30
0.0
 10
-2936.642886917436
 20
13267.37307445172
 30
0.0
 10
-2936.604183896077
 20
13267.21621612769
 30
0.0
 10
-2936.529919184697
 20
13266.917072537
 30
0.0
 10
-2936.421273510713
 20
13266.48524447569
 30
0.0
 10
-2936.273380451193
 20
13265.90926285849
 30
0.0
 10
-2936.119517787844
 20
13265.32209640123
 30
0.0
 10
-2935.650522406727
 20
13263.57016928619
 30
0.0
 10
-2934.821523126458
 20
13260.6776291491
 30
0.0
 10
-2933.934361008965
 20
13258.02002565506
 30
0.0
 10
-2933.4907790998
 20
13256.6912213605
 30
0.0
 11
-2936.762696871568
 21
13267.8645964718
 31
0.0
 11
-2936.737807131157
 21
13267.76176801909
 31
0.0
 11
-2936.71282619685
 21
13267.6589616828
 31
0.0
 11
-2936.679069234444
 21
13267.52066415984
 31
0.0
 11
-2936.645147733985
 21
13267.38240690554
 31
0.0
 11
-2936.604144269647
 21
13267.21622597938
 31
0.0
 11
-2936.562903266145
 21
13267.05010373255
 31
0.0
 11
-2936.420816596205
 21
13266.4853609941
 31
0.0
 11
-2936.275994448517
 21
13265.92131302524
 31
0.0
 11
-2936.118990769112
 21
13265.3222387647
 31
0.0
 11
-2935.958917235814
 21
13264.7239746545
 31
0.0
 11
-2934.792760471923
 21
13260.68673975005
 31
0.0
 11
-2933.4907790998
 21
13256.6912213605
 31
0.0
  0
SPLINE
  5
1EB
330
1F
100
AcDbEntity
  8
0
  6
Continuous
 62
     1
100
AcDbSpline
210
0.0
220
0.0
230
1.0
 70
     8
 71
     3
 72
    47
 73
    43
 74
    41
 42
0.0000000001
 43
0.0000000001
 44
0.00000001
 40
0.0
 40
0.0
 40
0.0
 40
0.0
 40
0.1434889441023698
 40
0.2895246845376633
 40
0.4090334071407472
 40
0.5274733184140615
 40
0.7030747757505629
 40
0.8792110745386597
 40
1.07179449921296
 40
1.264200646465374
 40
1.467856273265506
 40
1.671564572381706
 40
1.9025783002839
 40
2.133575083740717
 40
2.421772872167326
 40
2.709978107649844
 40
3.029575753211593
 40
3.34917128192479
 40
3.665019346790854
 40
3.980867855531891
 40
4.320516764083704
 40
4.66016571590998
 40
5.063273270707324
 40
5.466381048159895
 40
5.85217006095028
 40
6.237958998333186
 40
6.691272081318996
 40
7.144585349735744
 40
7.571749390983015
 40
7.998913309071368
 40
8.494939151784193
 40
8.990965415291832
 40
9.985154237975328
 40
10.97934575254666
 40
12.02791112610399
 40
13.07647512427917
 40
13.72342838088645
 40
14.37038118109463
 40
14.95190386139815
 40
15.53342663669069
 40
16.78949379782238
 40
18.04556067574365
 40
18.04556067574365
 40
18.04556067574365
 40
18.04556067574365
 10
-2933.4907790998
 20
13256.6912213605
 30
0.0
 10
-2933.460248956585
 20
13256.65315022565
 30
0.0
 10
-2933.398646788288
 20
13256.57633222844
 30
0.0
 10
-2933.265703234011
 20
13256.530482123
 30
0.0
 10
-2933.145008269166
 20
13256.49066484038
 30
0.0
 10
-2933.011357456774
 20
13256.45558992008
 30
0.0
 10
-2932.858128761058
 20
13256.42287288955
 30
0.0
 10
-2932.679221839041
 20
13256.39229963708
 30
0.0
 10
-2932.494156769312
 20
13256.36514895563
 30
0.0
 10
-2932.299453600137
 20
13256.34072104365
 30
0.0
 10
-2932.100684077178
 20
13256.31920409061
 30
0.0
 10
-2931.888815565527
 20
13256.29933310733
 30
0.0
 10
-2931.667642433537
 20
13256.28124769897
 30
0.0
 10
-2931.418194331497
 20
13256.26357451463
 30
0.0
 10
-2931.14954972763
 20
13256.24727952386
 30
0.0
 10
-2930.851266963415
 20
13256.23206464043
 30
0.0
 10
-2930.542410505076
 20
13256.21891226656
 30
0.0
 10
-2930.224253832126
 20
13256.20782619903
 30
0.0
 10
-2929.9072810246
 20
13256.19886809826
 30
0.0
 10
-2929.583578782848
 20
13256.19161709713
 30
0.0
 10
-2929.251909822164
 20
13256.18597012971
 30
0.0
 10
-2928.891132594858
 20
13256.1816469116
 30
0.0
 10
-2928.509185596247
 20
13256.17895634987
 30
0.0
 10
-2928.11185036453
 20
13256.17809076403
 30
0.0
 10
-2927.720288270047
 20
13256.17891266927
 30
0.0
 10
-2927.311997620823
 20
13256.18135034842
 30
0.0
 10
-2926.881212189541
 20
13256.18558982573
 30
0.0
 10
-2926.436656179006
 20
13256.19168646031
 30
0.0
 10
-2926.000839274668
 20
13256.19917136455
 30
0.0
 10
-2925.550813711458
 20
13256.2083234184
 30
0.0
 10
-2925.077871820224
 20
13256.21945783761
 30
0.0
 10
-2924.416027901184
 20
13256.23718280657
 30
0.0
 10
-2923.588293455721
 20
13256.26311977303
 30
0.0
 10
-2922.576661944348
 20
13256.30044144215
 30
0.0
 10
-2921.547127773049
 20
13256.34375378361
 30
0.0
 10
-2920.633441547638
 20
13256.38676350772
 30
0.0
 10
-2919.853625328928
 20
13256.42642729123
 30
0.0
 10
-2919.22938072031
 20
13256.45994347359
 30
0.0
 10
-2918.627000783782
 20
13256.49385047609
 30
0.0
 10
-2917.822019251218
 20
13256.54116884424
 30
0.0
 10
-2916.792782244717
 20
13256.6051913879
 30
0.0
 10
-2915.957368966406
 20
13256.66254472146
 30
0.0
 10
-2915.539662374341
 20
13256.691221385
 30
0.0
 11
-2933.4907790998
 21
13256.6912213605
 31
0.0
 11
-2933.391206278343
 21
13256.58790470982
 31
0.0
 11
-2933.257940490319
 21
13256.52818312891
 31
0.0
 11
-2933.144140716088
 21
13256.4916872913
 31
0.0
 11
-2933.029701306743
 21
13256.4611646084
 31
0.0
 11
-2932.85805902795
 21
13256.42408631354
 31
0.0
 11
-2932.684532476324
 21
13256.39387817505
 31
0.0
 11
-2932.494006335406
 21
13256.36580389703
 31
0.0
 11
-2932.30311427821
 21
13256.341713484
 31
0.0
 11
-2932.100653037543
 21
13256.3196893982
 31
0.0
 11
-2931.89784480319
 21
13256.30056111529
 31
0.0
 11
-2931.667605262424
 21
13256.28166412222
 31
0.0
 11
-2931.437191042326
 21
13256.2652689661
 31
0.0
 11
-2931.149526769177
 21
13256.24774095401
 31
0.0
 11
-2930.86169977592
 21
13256.23298020499
 31
0.0
 11
-2930.542394042527
 21
13256.2193235703
 31
0.0
 11
-2930.222994424777
 21
13256.2081349084
 31
0.0
 11
-2929.907273433563
 21
13256.19917634902
 31
0.0
 11
-2929.591504940645
 21
13256.1920672454
 31
0.0
 11
-2929.251905758107
 21
13256.18625550727
 31
0.0
 11
-2928.912281547099
 21
13256.18215602271
 31
0.0
 11
-2928.509184228927
 21
13256.17928325102
 31
0.0
 11
-2928.106077481716
 21
13256.1783718806
 31
0.0
 11
-2927.720289277189
 21
13256.17916158779
 31
0.0
 11
-2927.334507096253
 21
13256.18144480465
 31
0.0
 11
-2926.881215733721
 21
13256.18588235576
 31
0.0
 11
-2926.427944767001
 21
13256.19207509765
 31
0.0
 11
-2926.000843471177
 21
13256.19939638442
 31
0.0
 11
-2925.573767576618
 21
13256.20806778585
 31
0.0
 11
-2925.077878739098
 21
13256.21972529254
 31
0.0
 11
-2924.582029804332
 21
13256.23298756916
 31
0.0
 11
-2923.58832601432
 21
13256.26403902425
 31
0.0
 11
-2922.594807216957
 21
13256.30060631747
 31
0.0
 11
-2921.547166222718
 21
13256.34462551571
 31
0.0
 11
-2920.499759427757
 21
13256.39387451709
 31
0.0
 11
-2919.853641040599
 21
13256.4267309626
 31
0.0
 11
-2919.207618180784
 21
13256.46140646251
 31
0.0
 11
-2918.627014742874
 21
13256.49409094804
 31
0.0
 11
-2918.046492182739
 21
13256.52818340113
 31
0.0
 11
-2916.792870988507
 21
13256.60653271285
 31
0.0
 11
-2915.539662374341
 21
13256.691221385
 31
0.0
  0
SPLINE
  5
1EC
330
1F
100
AcDbEntity
  8
0
  6
Continuous
 62
     1
100
AcDbSpline
210
0.0
220
0.0
230
1.0
 70
     8
 71
     3
 72
    43
 73
    39
 74
    37
 42
0.0000000001
 43
0.0000000001
 44
0.00000001
 40
0.0
 40
0.0
 40
0.0
 40
0.0
 40
34.62455098978483
 40
69.24909815135013
 40
86.99963908116611
 40
104.7501806487711
 40
121.6290948145347
 40
138.508007881634
 40
156.1425516100967
 40
173.7771020139975
 40
190.7755832906529
 40
207.7740349452747
 40
216.4327505552141
 40
225.0914609635166
 40
233.750120956696
 40
242.4087822131766
 40
250.9828870849419
 40
259.5569916556734
 40
268.3005169471338
 40
277.0440425819226
 40
285.7873772798559
 40
294.5307116343347
 40
303.1050071412171
 40
311.6793029497669
 40
320.3382175665934
 40
328.9971309195857
 40
337.6555879675619
 40
346.3140502165998
 40
363.3125045138821
 40
380.3109884342633
 40
397.9455361911749
 40
415.5800772723143
 40
432.4589761432673
 40
449.3378761129396
 40
467.0884318678027
 40
484.8389869850128
 40
519.4635341350971
 40
554.0880851125706
 40
554.0880851125706
 40
554.0880851125706
 40
554.0880851125706
 10
-2915.539662374341
 20
13256.691221385
 30
0.0
 10
-2904.02529189603
 20
13257.4827016751
 30
0.0
 10
-2880.996552212483
 20
13259.06566216779
 30
0.0
 10
-2852.051677999804
 20
13260.85534115073
 30
0.0
 10
-2828.714527955813
 20
13262.18920588094
 30
0.0
 10
-2811.279326944133
 20
13263.12033336144
 30
0.0
 10
-2794.130851339117
 20
13263.96972428077
 30
0.0
 10
-2777.017681169336
 20
13264.74761582463
 30
0.0
 10
-2759.649546135237
 20
13265.45984950218
 30
0.0
 10
-2742.238329828067
 20
13266.08951998282
 30
0.0
 10
-2725.036090589406
 20
13266.62480903687
 30
0.0
 10
-2710.822245771418
 20
13266.99338320902
 30
0.0
 10
-2699.386334667437
 20
13267.24315204541
 30
0.0
 10
-2690.72919555137
 20
13267.40794063013
 30
0.0
 10
-2682.07164029465
 20
13267.54805339218
 30
0.0
 10
-2673.441915613811
 20
13267.66280357638
 30
0.0
 10
-2664.840077471979
 20
13267.75216658228
 30
0.0
 10
-2656.209727950285
 20
13267.81666519932
 30
0.0
 10
-2647.522751301538
 20
13267.85582301302
 30
0.0
 10
-2638.779286156531
 20
13267.86898310522
 30
0.0
 10
-2630.035884657417
 20
13267.85582339698
 30
0.0
 10
-2621.348971650812
 20
13267.81666672336
 30
0.0
 10
-2612.718558478542
 20
13267.75216847303
 30
0.0
 10
-2604.116508600017
 20
13267.66280354521
 30
0.0
 10
-2595.486551391311
 20
13267.54804989896
 30
0.0
 10
-2586.828911709149
 20
13267.40793467769
 30
0.0
 10
-2578.171857052922
 20
13267.24314662895
 30
0.0
 10
-2566.736113946185
 20
13266.99338099901
 30
0.0
 10
-2552.522351792316
 20
13266.62480896408
 30
0.0
 10
-2535.320111674941
 20
13266.08951986233
 30
0.0
 10
-2517.908896251449
 20
13265.45984939404
 30
0.0
 10
-2500.540767709011
 20
13264.7476159764
 30
0.0
 10
-2483.427607873781
 20
13263.96972493351
 30
0.0
 10
-2466.279136993793
 20
13263.12033433426
 30
0.0
 10
-2448.843931258327
 20
13262.18920668067
 30
0.0
 10
-2425.506771773517
 20
13260.8553414417
 30
0.0
 10
-2396.561892848537
 20
13259.06566216859
 30
0.0
 10
-2373.53315317297
 20
13257.48270167536
 30
0.0
 10
-2362.018782698789
 20
13256.691221385
 30
0.0
 11
-2915.539662374341
 21
13256.691221385
 31
0.0
 11
-2880.993923358193
 21
13259.02605479927
 31
0.0
 11
-2846.435628930036
 21
13261.16697804878
 31
0.0
 11
-2828.713912975672
 21
13262.17815900881
 31
0.0
 11
-2810.988595727663
 21
13263.12412645048
 31
0.0
 11
-2794.130306882162
 21
13263.95829706664
 31
0.0
 11
-2777.268769462611
 21
13264.72397465922
 31
0.0
 11
-2759.648998661708
 21
13265.44564593807
 31
0.0
 11
-2742.025937288501
 21
13266.08210157979
 31
0.0
 11
-2725.035659223064
 21
13266.6101328023
 31
0.0
 11
-2708.042902406304
 21
13267.05010373425
 31
0.0
 11
-2699.386249801931
 21
13267.23910558876
 31
0.0
 11
-2690.729106372992
 21
13267.40382834258
 31
0.0
 11
-2682.071579246391
 21
13267.5438887926
 31
0.0
 11
-2673.413682678266
 21
13267.65896168309
 31
0.0
 11
-2664.840040141047
 21
13267.74800097791
 31
0.0
 11
-2656.266174773355
 21
13267.81204663756
 31
0.0
 11
-2647.522738258873
 21
13267.85144764822
 31
0.0
 11
-2638.779222510923
 21
13267.86459647175
 31
0.0
 11
-2630.035897699181
 21
13267.85144822282
 31
0.0
 11
-2621.292652115876
 21
13267.81204893061
 31
0.0
 11
-2612.7185958111
 21
13267.74800268257
 31
0.0
 11
-2604.144762344508
 21
13267.65896168273
 31
0.0
 11
-2595.486612443301
 21
13267.54388505729
 31
0.0
 11
-2586.828832007657
 21
13267.40381941978
 31
0.0
 11
-2578.171941913648
 21
13267.2391004109
 31
0.0
 11
-2569.515542617535
 21
13267.05010373296
 31
0.0
 11
-2552.522783159192
 21
13266.61013272515
 31
0.0
 11
-2535.532502451928
 21
13266.0821014005
 31
0.0
 11
-2517.909443724708
 21
13265.4456458343
 31
0.0
 11
-2500.28967556918
 21
13264.72397465721
 31
0.0
 11
-2483.42815232983
 21
13263.95829773794
 31
0.0
 11
-2466.569877658964
 21
13263.12412790639
 31
0.0
 11
-2448.844546239504
 21
13262.17815979023
 31
0.0
 11
-2431.122816119338
 21
13261.16697804735
 31
0.0
 11
-2396.564521702579
 21
13259.02605479955
 31
0.0
 11
-2362.018782698789
 21
13256.691221385
 31
0.0
  0
SPLINE
  5
1ED
330
1F
100
AcDbEntity
  8
0
  6
Continuous
 62
     1
100
AcDbSpline
210
0.0
220
0.0
230
1.0
 70
     8
 71
     3
 72
    19
 73
    15
 74
    13
 42
0.0000000001
 43
0.0000000001
 44
0.00000001
 40
0.0
 40
0.0
 40
0.0
 40
0.0
 40
4.202299690025216
 40
8.404583268952795
 40
9.023862965043616
 40
9.643139951530152
 40
10.22551229793898
 40
10.80788414354962
 40
10.97905133891936
 40
11.15021842632765
 40
11.29257390237772
 40
11.4349293812622
 40
11.54072725405594
 40
11.64652512689362
 40
11.64652512689362
 40
11.64652512689362
 40
11.64652512689362
 10
-2344.067665974739
 20
13256.6912213605
 30
0.0
 10
-2343.624084064377
 20
13258.02002565417
 30
0.0
 10
-2342.73692194429
 20
13260.67762914703
 30
0.0
 10
-2341.907925358842
 20
13263.5701599368
 30
0.0
 10
-2341.438934805996
 20
13265.32206820824
 30
0.0
 10
-2341.285074394134
 20
13265.90922520072
 30
0.0
 10
-2341.137178706083
 20
13266.48521618497
 30
0.0
 10
-2341.028528046226
 20
13266.91706384117
 30
0.0
 10
-2340.954260624649
 20
13267.21621836045
 30
0.0
 10
-2340.915557424059
 20
13267.37307743002
 30
0.0
 10
-2340.879347420348
 20
13267.52065957452
 30
0.0
 10
-2340.848482557271
 20
13267.64711705641
 30
0.0
 10
-2340.820618699844
 20
13267.76176335558
 30
0.0
 10
-2340.804038368568
 20
13267.83031876639
 30
0.0
 10
-2340.795748202929
 20
13267.8645964718
 30
0.0
 11
-2344.067665974739
 21
13256.6912213605
 31
0.0
 11
-2342.765684602994
 21
13260.68673974895
 31
0.0
 11
-2341.599527838848
 21
13264.72397465407
 31
0.0
 11
-2341.439461775034
 21
13265.32221055838
 31
0.0
 11
-2341.282465275282
 21
13265.92125653747
 31
0.0
 11
-2341.137635666228
 21
13266.48533271512
 31
0.0
 11
-2340.995541808386
 21
13267.05010373255
 31
0.0
 11
-2340.954300252142
 21
13267.21622821241
 31
0.0
 11
-2340.913296241449
 21
13267.38241137317
 31
0.0
 11
-2340.879375293131
 21
13267.52066639415
 31
0.0
 11
-2340.845618877645
 21
13267.65896168251
 31
0.0
 11
-2340.82063794341
 21
13267.76176801895
 31
0.0
 11
-2340.795748202929
 21
13267.8645964718
 31
0.0
  0
SPLINE
  5
1EE
330
1F
100
AcDbEntity
  8
0
  6
Continuous
 62
     1
100
AcDbSpline
210
0.0
220
0.0
230
1.0
 70
     8
 71
     3
 72
    37
 73
    33
 74
    31
 42
0.0000000001
 43
0.0000000001
 44
0.00000001
 40
0.0
 40
0.0
 40
0.0
 40
0.0
 40
2.484539103892661
 40
4.969077759001763
 40
6.017895196312196
 40
7.066712487073689
 40
8.058077312579853
 40
9.04944137575318
 40
9.971966282935643
 40
10.89449279341162
 40
11.73682768062681
 40
12.579156190444
 40
12.94252692319713
 40
13.30589772025304
 40
13.68528298498536
 40
14.06466745456259
 40
14.38051842144358
 40
14.69637093141641
 40
15.01596636146508
 40
15.33555611321
 40
15.69399885440283
 40
16.05247176714587
 40
16.35820035530636
 40
16.66383778190563
 40
16.91494986610802
 40
17.16631130374091
 40
17.34245825444109
 40
17.51805065591245
 40
17.63648939413898
 40
17.75599988041757
 40
17.90203621478579
 40
18.04552546309498
 40
18.04552546309498
 40
18.04552546309498
 40
18.04552546309498
 10
-2362.018782698789
 20
13256.691221385
 30
0.0
 10
-2361.192462783729
 20
13256.63565517799
 30
0.0
 10
-2359.539823102869
 20
13256.52452277401
 30
0.0
 10
-2357.536752571541
 20
13256.41567419499
 30
0.0
 10
-2356.01105520862
 20
13256.34372707575
 30
0.0
 10
-2354.98229240775
 20
13256.30046651486
 30
0.0
 10
-2353.97245990183
 20
13256.26320456006
 30
0.0
 10
-2353.004512116252
 20
13256.23285558522
 30
0.0
 10
-2352.059342668303
 20
13256.2087298063
 30
0.0
 10
-2351.163704289628
 20
13256.19158781632
 30
0.0
 10
-2350.294699924423
 20
13256.18089871668
 30
0.0
 10
-2349.612019644173
 20
13256.17782047808
 30
0.0
 10
-2349.08899607794
 20
13256.17885183574
 30
0.0
 10
-2348.720293163373
 20
13256.1811720336
 30
0.0
 10
-2348.346267808763
 20
13256.18533603455
 30
0.0
 10
-2347.988108774542
 20
13256.19132090029
 30
0.0
 10
-2347.651162329274
 20
13256.19886875341
 30
0.0
 10
-2347.334187248191
 20
13256.20782619208
 30
0.0
 10
-2347.016031678171
 20
13256.21891226828
 30
0.0
 10
-2346.683786629158
 20
13256.23306076119
 30
0.0
 10
-2346.338743540649
 20
13256.25099695819
 30
0.0
 10
-2345.998558528089
 20
13256.27293955165
 30
0.0
 10
-2345.676258279463
 20
13256.29823833782
 30
0.0
 10
-2345.39006883886
 20
13256.32576807566
 30
0.0
 10
-2345.122491667506
 20
13256.35701166838
 30
0.0
 10
-2344.898539836444
 20
13256.38899731802
 30
0.0
 10
-2344.700315576185
 20
13256.42287231044
 30
0.0
 10
-2344.54708643397
 20
13256.45559025131
 30
0.0
 10
-2344.413438533731
 20
13256.49066473017
 30
0.0
 10
-2344.292743014017
 20
13256.53048158182
 30
0.0
 10
-2344.159798545626
 20
13256.57633191087
 30
0.0
 10
-2344.098196183857
 20
13256.65315014541
 30
0.0
 10
-2344.067665974739
 20
13256.6912213605
 30
0.0
 11
-2362.018782698789
 21
13256.691221385
 31
0.0
 11
-2359.539490576948
 21
13256.52983633815
 31
0.0
 11
-2357.058674870947
 21
13256.39387398457
 31
0.0
 11
-2356.011014737104
 21
13256.34461689611
 31
0.0
 11
-2354.963122108045
 21
13256.30058568714
 31
0.0
 11
-2353.972428204707
 21
13256.26411916633
 31
0.0
 11
-2352.981548514716
 21
13256.23313294818
 31
0.0
 11
-2352.059320986333
 21
13256.20971094434
 31
0.0
 11
-2351.136961154026
 21
13256.19217520145
 31
0.0
 11
-2350.294687817929
 21
13256.1819923964
 31
0.0
 11
-2349.452367089039
 21
13256.17837188064
 31
0.0
 11
-2349.088997113117
 21
13256.17911351394
 31
0.0
 11
-2348.725633669444
 21
13256.18142521352
 31
0.0
 11
-2348.346272360449
 21
13256.18568858466
 31
0.0
 11
-2347.966941516998
 21
13256.19206721799
 31
0.0
 11
-2347.651170577042
 21
13256.19917684237
 31
0.0
 11
-2347.335445129872
 21
13256.20813508246
 31
0.0
 11
-2347.016045608551
 21
13256.21932367881
 31
0.0
 11
-2346.696747766589
 21
13256.23298008898
 31
0.0
 11
-2346.338796313274
 21
13256.2517405736
 31
0.0
 11
-2345.981076630995
 21
13256.27496681051
 31
0.0
 11
-2345.676304613065
 21
13256.29913262739
 31
0.0
 11
-2345.372094886062
 21
13256.3286398898
 31
0.0
 11
-2345.122712773797
 21
13256.35806506464
 31
0.0
 11
-2344.873915611112
 21
13256.39387769047
 31
0.0
 11
-2344.700378470647
 21
13256.42408711152
 31
0.0
 11
-2344.528745209543
 21
13256.46116426267
 31
0.0
 11
-2344.414306970635
 21
13256.49168678203
 31
0.0
 11
-2344.300505409898
 21
13256.52818282435
 31
0.0
 11
-2344.167239010921
 21
13256.58790449428
 31
0.0
 11
-2344.067665974739
 21
13256.6912213605
 31
0.0
  0
SPLINE
  5
1EF
330
1F
100
AcDbEntity
  8
1
  6
Continuous
 62
     7
100
AcDbSpline
210
0.0
220
0.0
230
1.0
 70
     8
 71
     3
 72
     9
 73
     5
 74
     3
 42
0.0000000001
 43
0.0000000001
 44
0.00000001
 40
0.0
 40
0.0
 40
0.0
 40
0.0
 40
395.5794905913469
 40
791.1481127770107
 40
791.1481127770107
 40
791.1481127770107
 40
791.1481127770107
 10
-1785.043347776109
 20
14379.8756934734
 30
0.0
 10
-1793.016888364284
 20
14247.60902998978
 30
0.0
 10
-1808.963750470446
 20
13983.07933700205
 30
0.0
 10
-1754.913349724381
 20
13723.63995582105
 30
0.0
 10
-1727.888520610329
 20
13593.9220472562
 30
0.0
 11
-1785.043347776109
 21
14379.8756934734
 31
0.0
 11
-1791.464173030201
 21
13984.34831593859
 31
0.0
 11
-1727.888520610329
 21
13593.9220472562
 31
0.0
  0
SPLINE
  5
1F0
330
1F
100
AcDbEntity
  8
0
  6
Continuous
 62
     7
100
AcDbSpline
210
0.0
220
0.0
230
1.0
 70
     8
 71
     3
 72
    11
 73
     7
 74
     5
 42
0.0000000001
 43
0.0000000001
 44
0.00000001
 40
0.0
 40
0.0
 40
0.0
 40
0.0
 40
27.42850180184425
 40
54.85700360367505
 40
59.3638386580546
 40
63.87067371238487
 40
63.87067371238487
 40
63.87067371238487
 40
63.87067371238487
 10
-2891.685327977812
 20
11560.780479699
 30
0.0
 10
-2892.494777021799
 20
11569.88754695467
 30
0.0
 10
-2894.113675109772
 20
11588.10168146602
 30
0.0
 10
-2896.263304497576
 20
11607.77443129679
 30
0.0
 10
-2897.73024314767
 20
11619.83293695631
 30
0.0
 10
-2898.109055713391
 20
11622.81352426678
 30
0.0
 10
-2898.298461996251
 20
11624.303817922
 30
0.0
 11
-2891.685327977812
 21
11560.780479699
 31
0.0
 11
-2894.205558580705
 21
11588.09295210268
 31
0.0
 11
-2897.188561714247
 21
11615.3587622575
 31
0.0
 11
-2897.734237500572
 21
11619.8324408494
 31
0.0
 11
-2898.298461996251
 21
11624.303817922
 31
0.0
  0
SPLINE
  5
1F1
330
1F
100
AcDbEntity
  8
1
  6
Continuous
 62
     1
100
AcDbSpline
210
0.0
220
0.0
230
1.0
 70
     8
 71
     3
 72
    23
 73
    19
 74
    17
 42
0.0000000001
 43
0.0000000001
 44
0.00000001
 40
0.0
 40
0.0
 40
0.0
 40
0.0
 40
21.218484712753
 40
42.43696942550503
 40
44.79612012765025
 40
47.1552704527795
 40
49.51442061461221
 40
51.873570872629
 40
54.23272866196294
 40
56.59188644356168
 40
58.95104407079261
 40
61.31020163287781
 40
63.4622706475887
 40
65.6143395441431
 40
67.76640917983651
 40
69.9184788564691
 40
73.9980490133328
 40
78.07761917025194
 40
78.07761917025194
 40
78.07761917025194
 40
78.07761917025194
 10
-2876.721444991794
 20
11561.6296179922
 30
0.0
 10
-2877.341912687366
 20
11568.6752375182
 30
0.0
 10
-2878.582848078512
 20
11582.7664765702
 30
0.0
 10
-2880.1113815145
 20
11597.62080108808
 30
0.0
 10
-2881.062862467324
 20
11606.21387443932
 30
0.0
 10
-2881.326662528576
 20
11608.55823136143
 30
0.0
 10
-2881.594670758328
 20
11610.9021099372
 30
0.0
 10
-2881.867061764904
 20
11613.24548607618
 30
0.0
 10
-2882.143974199138
 20
11615.58833480874
 30
0.0
 10
-2882.425556184755
 20
11617.93062949953
 30
0.0
 10
-2882.711952515325
 20
11620.27234042443
 30
0.0
 10
-2882.994785032385
 20
11622.54493815905
 30
0.0
 10
-2883.273685872106
 20
11624.74845800222
 30
0.0
 10
-2883.548365151457
 20
11626.88292735032
 30
0.0
 10
-2883.827629023215
 20
11629.01680271207
 30
0.0
 10
-2884.196698802746
 20
11631.78689481817
 30
0.0
 10
-2884.660937302809
 20
11635.1924896134
 30
0.0
 10
-2885.044834420034
 20
11637.88497783326
 30
0.0
 10
-2885.236782978647
 20
11639.2312219432
 30
0.0
 11
-2876.721444991794
 21
11561.6296179922
 31
0.0
 11
-2878.634622851696
 21
11582.76167525082
 31
0.0
 11
-2880.803833801681
 21
11603.86898719147
 31
0.0
 11
-2881.063556898276
 21
11606.21379762059
 31
0.0
 11
-2881.327363898885
 21
11608.55815171564
 31
0.0
 11
-2881.595401169569
 21
11610.90202575398
 31
0.0
 11
-2881.867814994639
 21
11613.2453952613
 31
0.0
 11
-2882.144752409969
 21
11615.58824206443
 31
0.0
 11
-2882.426358583298
 21
11617.93053226883
 31
0.0
 11
-2882.712779416627
 21
11620.27223844518
 31
0.0
 11
-2883.004160732973
 21
11622.61333249097
 31
0.0
 11
-2883.274426939066
 21
11624.74836345607
 31
0.0
 11
-2883.549129213741
 21
11626.8828280718
 31
0.0
 11
-2883.82845451479
 21
11629.01669336583
 31
0.0
 11
-2884.112589427981
 21
11631.14992360286
 31
0.0
 11
-2884.665074953225
 21
11635.19190979892
 31
0.0
 11
-2885.236782978647
 21
11639.2312219432
 31
0.0
  0
SPLINE
  5
1F2
330
1F
100
AcDbEntity
  8
1
  6
Continuous
 62
     1
100
AcDbSpline
210
0.0
220
0.0
230
1.0
 70
     8
 71
     3
 72
    23
 73
    19
 74
    17
 42
0.0000000001
 43
0.0000000001
 44
0.00000001
 40
0.0
 40
0.0
 40
0.0
 40
0.0
 40
21.21848471275086
 40
42.43696942550507
 40
44.7961201276503
 40
47.15527045277779
 40
49.51442061461421
 40
51.87357087262919
 40
54.23272866196469
 40
56.59188644356332
 40
58.95104407079047
 40
61.31020163287369
 40
63.46227064759006
 40
65.61433954414807
 40
67.76640917983786
 40
69.91847885646317
 40
73.99804901321671
 40
78.07761917025161
 40
78.07761917025161
 40
78.07761917025161
 40
78.07761917025161
 10
-2401.875479000139
 20
11561.6296179922
 30
0.0
 10
-2401.255011304568
 20
11568.6752375182
 30
0.0
 10
-2400.014075913426
 20
11582.76647657021
 30
0.0
 10
-2398.485542477433
 20
11597.62080108807
 30
0.0
 10
-2397.534061524609
 20
11606.21387443932
 30
0.0
 10
-2397.270261463358
 20
11608.55823136143
 30
0.0
 10
-2397.002253233604
 20
11610.9021099372
 30
0.0
 10
-2396.729862227026
 20
11613.24548607618
 30
0.0
 10
-2396.452949792798
 20
11615.58833480874
 30
0.0
 10
-2396.17136780718
 20
11617.93062949954
 30
0.0
 10
-2395.884971476612
 20
11620.27234042443
 30
0.0
 10
-2395.602138959553
 20
11622.54493815905
 30
0.0
 10
-2395.323238119831
 20
11624.74845800223
 30
0.0
 10
-2395.04855884048
 20
11626.88292735032
 30
0.0
 10
-2394.769294968722
 20
11629.01680271207
 30
0.0
 10
-2394.400225189196
 20
11631.78689481813
 30
0.0
 10
-2393.935986689134
 20
11635.19248961336
 30
0.0
 10
-2393.552089571908
 20
11637.88497783322
 30
0.0
 10
-2393.360141013289
 20
11639.2312219432
 30
0.0
 11
-2401.875479000139
 21
11561.6296179922
 31
0.0
 11
-2399.96230114024
 21
11582.76167525082
 31
0.0
 11
-2397.793090190252
 21
11603.86898719147
 31
0.0
 11
-2397.533367093657
 21
11606.21379762059
 31
0.0
 11
-2397.269560093048
 21
11608.55815171564
 31
0.0
 11
-2397.001522822363
 21
11610.90202575399
 31
0.0
 11
-2396.729108997293
 21
11613.2453952613
 31
0.0
 11
-2396.452171581965
 21
11615.58824206444
 31
0.0
 11
-2396.170565408637
 21
11617.93053226883
 31
0.0
 11
-2395.88414457531
 21
11620.27223844518
 31
0.0
 11
-2395.592763258965
 21
11622.61333249097
 31
0.0
 11
-2395.322497052872
 21
11624.74836345607
 31
0.0
 11
-2395.047794778196
 21
11626.8828280718
 31
0.0
 11
-2394.768469477147
 21
11629.01669336583
 31
0.0
 11
-2394.484334563957
 21
11631.14992360286
 31
0.0
 11
-2393.931849038727
 21
11635.19190979881
 31
0.0
 11
-2393.360141013289
 21
11639.2312219432
 31
0.0
  0
SPLINE
  5
1F3
330
1F
100
AcDbEntity
  8
0
  6
Continuous
 62
     7
100
AcDbSpline
210
0.0
220
0.0
230
1.0
 70
     8
 71
     3
 72
    15
 73
    11
 74
     9
 42
0.0000000001
 43
0.0000000001
 44
0.00000001
 40
0.0
 40
0.0
 40
0.0
 40
0.0
 40
27.42850180184923
 40
54.85700360367611
 40
57.74242767075773
 40
60.62785241568415
 40
63.51327446515222
 40
66.39869479710946
 40
68.9411831165322
 40
71.48367143596496
 40
71.48367143596496
 40
71.48367143596496
 40
71.48367143596496
 10
-2386.911596014119
 20
11560.780479699
 30
0.0
 10
-2386.101965740918
 20
11569.88752140532
 30
0.0
 10
-2384.482705194517
 20
11588.10160481796
 30
0.0
 10
-2382.393696485113
 20
11607.23729962337
 30
0.0
 10
-2381.0622959967
 20
11618.22335916074
 30
0.0
 10
-2380.707673659484
 20
11621.08691283862
 30
0.0
 10
-2380.345328242692
 20
11623.94949723783
 30
0.0
 10
-2379.989243761768
 20
11626.69763738621
 30
0.0
 10
-2379.640870978412
 20
11629.3315022886
 30
0.0
 10
-2379.41259832349
 20
11631.0110540556
 30
0.0
 10
-2379.298461996029
 20
11631.8508299391
 30
0.0
 11
-2386.911596014119
 21
11560.780479699
 31
0.0
 11
-2384.391365411231
 21
11588.09295210269
 31
0.0
 11
-2381.408362277692
 21
11615.3587622575
 31
0.0
 11
-2381.061049673877
 21
11618.22320740484
 31
0.0
 11
-2380.706386341969
 21
11621.08675238958
 31
0.0
 11
-2380.343923496704
 21
11623.94931786296
 31
0.0
 11
-2379.973212254131
 21
11626.81082509983
 31
0.0
 11
-2379.639366780676
 21
11629.33130006584
 31
0.0
 11
-2379.298461996029
 21
11631.8508299391
 31
0.0
  0
SPLINE
  5
1F4
330
1F
100
AcDbEntity
  8
1
  6
Continuous
 62
     7
100
AcDbSpline
210
0.0
220
0.0
230
1.0
 70
     8
 71
     3
 72
    31
 73
    27
 74
    25
 42
0.0000000001
 43
0.0000000001
 44
0.00000001
 40
0.0
 40
0.0
 40
0.0
 40
0.0
 40
46.64793084332485
 40
93.29583291974232
 40
123.6012844215471
 40
153.9185391585958
 40
184.337853841556
 40
214.7547399350061
 40
245.350461171253
 40
275.9480915276286
 40
306.4820916436311
 40
337.0054803813763
 40
359.1426617039809
 40
381.285553368098
 40
403.3852138077946
 40
425.4809100209629
 40
449.1244816563383
 40
472.7677926170535
 40
496.6698671958392
 40
520.5900738727838
 40
536.9055240810691
 40
553.1792695440323
 40
569.1819157766017
 40
585.365483962617
 40
602.3526455033785
 40
619.2811884302604
 40
619.2811884302604
 40
619.2811884302604
 40
619.2811884302604
 10
-1627.005157788169
 20
13801.507295584
 30
0.0
 10
-1633.984972487332
 20
13815.40797518166
 30
0.0
 10
-1647.944597581337
 20
13843.20932580468
 30
0.0
 10
-1663.022942907292
 20
13881.62975091844
 30
0.0
 10
-1673.581110069397
 20
13915.8071438092
 30
0.0
 10
-1681.100739972739
 20
13945.21823821268
 30
0.0
 10
-1687.58671580436
 20
13974.90633672099
 30
0.0
 10
-1693.414067729446
 20
14004.82243863226
 30
0.0
 10
-1698.96053949668
 20
14034.85201004255
 30
0.0
 10
-1703.89595261338
 20
14065.03042817642
 30
0.0
 10
-1707.884947338376
 20
14095.32674352129
 30
0.0
 10
-1710.358051399911
 20
14122.95966577653
 30
0.0
 10
-1711.458058721125
 20
14147.87413025793
 30
0.0
 10
-1711.932343625219
 20
14169.99621374889
 30
0.0
 10
-1712.24165082212
 20
14192.10655453689
 30
0.0
 10
-1712.733047207261
 20
14214.71546283367
 30
0.0
 10
-1713.784260326726
 20
14237.82069442252
 30
0.0
 10
-1715.07662891226
 20
14261.51461109868
 30
0.0
 10
-1716.219292634835
 20
14285.31047990578
 30
0.0
 10
-1716.750101288669
 20
14306.68418855489
 30
0.0
 10
-1716.59117218191
 20
14325.53037709018
 30
0.0
 10
-1717.312897510473
 20
14341.69492698525
 30
0.0
 10
-1720.176203767508
 20
14357.80722204643
 30
0.0
 10
-1726.302865904779
 20
14372.63784600189
 30
0.0
 10
-1736.724606132326
 20
14388.16085516855
 30
0.0
 10
-1748.836920534546
 20
14387.11933292163
 30
0.0
 10
-1754.882610503849
 20
14386.5994718619
 30
0.0
 11
-1627.005157788169
 21
13801.507295584
 31
0.0
 11
-1647.300027269299
 21
13843.50905417465
 31
0.0
 11
-1664.350199283385
 21
13886.92930754127
 31
0.0
 11
-1673.340121617545
 21
13915.87065663135
 31
0.0
 11
-1680.919176643629
 21
13945.22527909022
 31
0.0
 11
-1687.474026253863
 21
13974.92996983711
 31
0.0
 11
-1693.354295683174
 21
14004.77304928713
 31
0.0
 11
-1698.857335076477
 21
14034.86980518211
 31
0.0
 11
-1703.741888447265
 21
14065.07503853319
 31
0.0
 11
-1707.674762958582
 21
14095.35469608017
 31
0.0
 11
-1710.341584765099
 21
14125.76136182122
 31
0.0
 11
-1711.374303962963
 21
14147.87444138894
 31
0.0
 11
-1711.905141361624
 21
14170.01096918589
 31
0.0
 11
-1712.270191455747
 21
14192.10761440589
 31
0.0
 11
-1712.806238348113
 21
14214.1968073489
 31
0.0
 11
-1713.819766398993
 21
14237.81864556203
 31
0.0
 11
-1715.046476069087
 21
14261.4301117717
 31
0.0
 11
-1716.126860150224
 21
14285.30775695307
 31
0.0
 11
-1716.655353234378
 21
14309.22212465384
 31
0.0
 11
-1716.735347520574
 21
14325.53737875585
 31
0.0
 11
-1717.679867201201
 21
14341.7836913826
 31
0.0
 11
-1720.68671064803
 21
14357.50131139745
 31
0.0
 11
-1726.861476213957
 21
14372.46059444969
 31
0.0
 11
-1738.005451352646
 21
14385.28149439159
 31
0.0
 11
-1754.882610503849
 21
14386.5994718619
 31
0.0
  0
SPLINE
  5
1F5
330
1F
100
AcDbEntity
  8
1
  6
Continuous
 62
     7
100
AcDbSpline
210
0.0
220
0.0
230
1.0
 70
     8
 71
     3
 72
    23
 73
    19
 74
    17
 42
0.0000000001
 43
0.0000000001
 44
0.00000001
 40
0.0
 40
0.0
 40
0.0
 40
0.0
 40
10.82273824845644
 40
21.64547650547742
 40
62.60269713180871
 40
103.5634987401728
 40
144.5491365351044
 40
185.5299644488382
 40
213.4260445045753
 40
241.3249019024574
 40
269.1643045965902
 40
296.9944806177002
 40
329.194134764237
 40
361.4097856938382
 40
393.6987181966409
 40
425.9797159789927
 40
509.1135469934469
 40
592.247379665907
 40
592.247379665907
 40
592.247379665907
 40
592.247379665907
 10
-1696.803047085409
 20
13801.507295584
 30
0.0
 10
-1697.647765824753
 20
13805.01459302208
 30
0.0
 10
-1699.337203304108
 20
13812.02918790103
 30
0.0
 10
-1704.356926247762
 20
13832.28416476128
 30
0.0
 10
-1712.133647223948
 20
13862.20455349666
 30
0.0
 10
-1722.677568115062
 20
13901.79210387661
 30
0.0
 10
-1732.949051767795
 20
13941.46048617541
 30
0.0
 10
-1741.437656675411
 20
13977.0885022722
 30
0.0
 10
-1748.066151583791
 20
14008.66221061439
 30
0.0
 10
-1752.98266412883
 20
14036.10874317566
 30
0.0
 10
-1756.864955778326
 20
14063.70071598704
 30
0.0
 10
-1759.621373190666
 20
14092.87375026925
 30
0.0
 10
-1760.729286705611
 20
14123.61857173122
 30
0.0
 10
-1760.49162338325
 20
14155.85770256656
 30
0.0
 10
-1759.466915485995
 20
14188.10413571185
 30
0.0
 10
-1757.598620478072
 20
14237.30427860874
 30
0.0
 10
-1756.786758665555
 20
14303.48816790853
 30
0.0
 10
-1755.51732656197
 20
14358.89570369327
 30
0.0
 10
-1754.882610503849
 20
14386.5994718619
 30
0.0
 11
-1696.803047085409
 21
13801.507295584
 31
0.0
 11
-1699.348748142272
 21
13812.0263767855
 31
0.0
 11
-1701.94893181111
 21
13822.53212322582
 31
0.0
 11
-1712.172986223892
 21
13862.19271617144
 31
0.0
 11
-1722.629724216763
 21
13901.7963005919
 31
0.0
 11
-1732.820511002363
 21
13941.4947938901
 31
0.0
 11
-1742.234762131613
 21
13981.37962975752
 31
0.0
 11
-1747.930567167592
 21
14008.68803665847
 31
0.0
 11
-1752.813988014616
 21
14036.15617174148
 31
0.0
 11
-1756.655344532498
 21
14063.72928042492
 31
0.0
 11
-1759.23452976181
 21
14091.43968462476
 31
0.0
 11
-1760.496218163194
 21
14123.61461072467
 31
0.0
 11
-1760.360999312908
 21
14155.82997787577
 31
0.0
 11
-1759.433545074207
 21
14188.10558771983
 31
0.0
 11
-1758.319141060649
 21
14220.36734405018
 31
0.0
 11
-1756.639367001461
 21
14303.48420285902
 31
0.0
 11
-1754.882610503849
 21
14386.5994718619
 31
0.0
  0
SPLINE
  5
1F6
330
1F
100
AcDbEntity
  8
1
  6
Continuous
 62
     3
100
AcDbSpline
210
0.0
220
0.0
230
1.0
 70
     8
 71
     3
 72
    27
 73
    23
 74
    21
 42
0.0000000001
 43
0.0000000001
 44
0.00000001
 40
0.0
 40
0.0
 40
0.0
 40
0.0
 40
34.28460223229196
 40
68.5692111484141
 40
99.16498912224306
 40
129.7625664394503
 40
160.2965544029761
 40
190.8199533347345
 40
212.9571360676141
 40
235.1000265061971
 40
257.1996866320467
 40
279.2953831761047
 40
302.9389549204543
 40
326.5822657664158
 40
350.4843403165749
 40
374.4045470182845
 40
390.7199972299481
 40
406.9937426881378
 40
422.9963889186985
 40
439.1799571078783
 40
456.1671186486589
 40
473.0956615755053
 40
473.0956615755053
 40
473.0956615755053
 40
473.0956615755053
 10
-1780.593541592319
 20
13873.2413501605
 30
0.0
 10
-1786.334861926007
 20
13883.12395770542
 30
0.0
 10
-1797.817503712661
 20
13902.88917472189
 30
0.0
 10
-1813.296250720415
 20
13932.10196491691
 30
0.0
 10
-1827.991827391148
 20
13960.33159657086
 30
0.0
 10
-1841.530272654348
 20
13987.7511094439
 30
0.0
 10
-1854.203899268174
 20
14015.55664168806
 30
0.0
 10
-1864.647793646211
 20
14041.25922110543
 30
0.0
 10
-1872.984083033296
 20
14064.76339917825
 30
0.0
 10
-1879.905489241861
 20
14085.78019740692
 30
0.0
 10
-1886.665721849284
 20
14106.833986526
 30
0.0
 10
-1893.745853976619
 20
14128.31132218352
 30
0.0
 10
-1901.506450587534
 20
14150.09961989262
 30
0.0
 10
-1909.669778587863
 20
14172.38037347997
 30
0.0
 10
-1917.719752017539
 20
14194.80239341765
 30
0.0
 10
-1924.476434719085
 20
14215.08697914733
 30
0.0
 10
-1929.83454234314
 20
14233.15614525267
 30
0.0
 10
-1935.250788677095
 20
14248.40336914323
 30
0.0
 10
-1942.699761241759
 20
14262.97448380953
 30
0.0
 10
-1952.894772197103
 20
14275.36581737249
 30
0.0
 10
-1967.399620593465
 20
14287.16352291148
 30
0.0
 10
-1978.678172827456
 20
14282.62621222314
 30
0.0
 10
-1984.307702234049
 20
14280.3614779366
 30
0.0
 11
-1780.593541592319
 21
13873.2413501605
 31
0.0
 11
-1797.622598722588
 21
13902.99778078449
 31
0.0
 11
-1813.832640068306
 21
13933.20819236894
 31
0.0
 11
-1827.894848213516
 21
13960.3808980109
 31
0.0
 11
-1841.396939825646
 21
13987.83823327454
 31
0.0
 11
-1854.010833926362
 21
14015.64496081614
 31
0.0
 11
-1865.451224595379
 21
14043.94328839371
 31
0.0
 11
-1872.904065772867
 21
14064.78819227289
 31
0.0
 11
-1879.883794343377
 21
14085.80225865846
 31
0.0
 11
-1886.69332512611
 21
14106.82665563428
 31
0.0
 11
-1893.664206505457
 21
14127.79393057792
 31
0.0
 11
-1901.539805949842
 21
14150.08727977049
 31
0.0
 11
-1909.616238226289
 21
14172.30838211584
 31
0.0
 11
-1917.630562321456
 21
14194.82681405723
 31
0.0
 11
-1925.12784738971
 21
14217.54172117256
 31
0.0
 11
-1929.974464986587
 21
14233.12068819476
 31
0.0
 11
-1935.627675741663
 21
14248.38096340187
 31
0.0
 11
-1943.098521781882
 21
14262.53268223118
 31
0.0
 11
-1953.377150553287
 21
14275.03298902395
 31
0.0
 11
-1967.782655350868
 21
14284.03549360542
 31
0.0
 11
-1984.307702234049
 21
14280.3614779366
 31
0.0
  0
SPLINE
  5
1F7
330
1F
100
AcDbEntity
  8
1
  6
Continuous
 62
     3
100
AcDbSpline
210
0.0
220
0.0
230
1.0
 70
     8
 71
     3
 72
    23
 73
    19
 74
    17
 42
0.0000000001
 43
0.0000000001
 44
0.00000001
 40
0.0
 40
0.0
 40
0.0
 40
0.0
 40
8.065296499652487
 40
16.13059300392962
 40
57.08785056061031
 40
98.04861529174663
 40
139.0342436504011
 40
180.0150810430165
 40
207.9111625838176
 40
235.8100184887576
 40
263.6494207746768
 40
291.4795972059791
 40
323.6792514871842
 40
355.8949022820202
 40
388.1838347468533
 40
420.464832567174
 40
503.5986635816834
 40
586.7324962540426
 40
586.7324962540426
 40
586.7324962540426
 40
586.7324962540426
 10
-1760.503025402619
 20
13742.566212707
 30
0.0
 10
-1761.874542024066
 20
13744.87848984672
 30
0.0
 10
-1764.617575267746
 20
13749.50304412748
 30
0.0
 10
-1774.404288817424
 20
13765.82287567956
 30
0.0
 10
-1790.108655380665
 20
13791.37859580948
 30
0.0
 10
-1811.765855364949
 20
13826.15377129606
 30
0.0
 10
-1833.186509245952
 20
13861.08568704272
 30
0.0
 10
-1851.720804175514
 20
13892.67511367722
 30
0.0
 10
-1867.290929390876
 20
13920.93121748144
 30
0.0
 10
-1880.017202681418
 20
13945.74101813107
 30
0.0
 10
-1891.796968776155
 20
13970.99228016181
 30
0.0
 10
-1902.962313529418
 20
13998.08469323009
 30
0.0
 10
-1913.010732432954
 20
14027.16218976527
 30
0.0
 10
-1922.209263494032
 20
14058.06210993486
 30
0.0
 10
-1930.657275075982
 20
14089.19912286555
 30
0.0
 10
-1943.255345329613
 20
14136.79569010748
 30
0.0
 10
-1961.829254557947
 20
14200.32502364781
 30
0.0
 10
-1976.814886292208
 20
14253.68265966299
 30
0.0
 10
-1984.307702234049
 20
14280.3614779366
 30
0.0
 11
-1760.503025402619
 21
13742.566212707
 31
0.0
 11
-1764.623143970303
 21
13749.49972773298
 31
0.0
 11
-1768.769641250418
 21
13756.41749962919
 31
0.0
 11
-1790.142599897109
 21
13791.35592525558
 31
0.0
 11
-1811.721384044994
 21
13826.17173089122
 31
0.0
 11
-1833.073595108082
 21
13861.15608188807
 31
0.0
 11
-1853.737688659452
 21
13896.54568871127
 31
0.0
 11
-1867.168820045691
 21
13920.99555732066
 31
0.0
 11
-1879.869763644446
 21
13945.8356900197
 31
0.0
 11
-1891.604867816372
 21
13971.08088064507
 31
0.0
 11
-1902.173093157907
 21
13996.82639158053
 31
0.0
 11
-1912.786689811031
 21
14027.22654457215
 31
0.0
 11
-1922.07624115245
 21
14058.07378743128
 31
0.0
 11
-1930.625787312497
 21
14089.21026796739
 31
0.0
 11
-1938.992502161535
 21
14120.38815921921
 31
0.0
 11
-1961.687143940941
 21
14200.36432500411
 31
0.0
 11
-1984.307702234049
 21
14280.3614779366
 31
0.0
  0
SPLINE
  5
1F8
330
1F
100
AcDbEntity
  8
1
  6
Continuous
 62
     3
100
AcDbSpline
210
0.0
220
0.0
230
1.0
 70
     8
 71
     3
 72
     9
 73
     5
 74
     3
 42
0.0000000001
 43
0.0000000001
 44
0.00000001
 40
0.0
 40
0.0
 40
0.0
 40
0.0
 40
226.4187144937575
 40
452.8318702319048
 40
452.8318702319048
 40
452.8318702319048
 40
452.8318702319048
 10
-2011.184716181259
 20
14265.1133505137
 30
0.0
 10
-1994.858173779473
 20
14191.30498572361
 30
0.0
 10
-1962.205489805219
 20
14043.69006819621
 30
0.0
 10
-1907.713462684191
 20
13902.6688694421
 30
0.0
 10
-1880.467783583199
 20
13832.1591356207
 30
0.0
 11
-2011.184716181259
 21
14265.1133505137
 31
0.0
 11
-1956.745119143521
 21
14045.33672630773
 31
0.0
 11
-1880.467783583199
 21
13832.1591356207
 31
0.0
  0
SPLINE
  5
1F9
330
1F
100
AcDbEntity
  8
1
  6
Continuous
 62
     3
100
AcDbSpline
210
0.0
220
0.0
230
1.0
 70
     8
 71
     3
 72
    31
 73
    27
 74
    25
 42
0.0000000001
 43
0.0000000001
 44
0.00000001
 40
0.0
 40
0.0
 40
0.0
 40
0.0
 40
38.66651827268711
 40
77.3330161265953
 40
107.6385608466956
 40
137.955720744826
 40
168.3750095911197
 40
198.7919216838075
 40
229.3876499452594
 40
259.9852732418084
 40
290.519271535158
 40
321.0426621089023
 40
343.1798437467219
 40
365.3227350949155
 40
387.4223954494048
 40
409.5180917476781
 40
433.1616634079456
 40
456.8049743437804
 40
480.7070489161243
 40
504.6272555995531
 40
520.9427058088502
 40
537.2164512708165
 40
553.2190975031288
 40
569.4026656893478
 40
586.389827230091
 40
603.3183701569751
 40
603.3183701569751
 40
603.3183701569751
 40
603.3183701569751
 10
-1753.424254188119
 20
13705.8705400501
 30
0.0
 10
-1764.53875719307
 20
13712.40370476387
 30
0.0
 10
-1786.767757333693
 20
13725.47003074143
 30
0.0
 10
-1816.188851000109
 20
13746.08566530831
 30
0.0
 10
-1841.981496894309
 20
13766.84688878052
 30
0.0
 10
-1864.661796132623
 20
13787.02486390198
 30
0.0
 10
-1886.640335315225
 20
13808.01046856888
 30
0.0
 10
-1908.200276438934
 20
13829.55343920492
 30
0.0
 10
-1929.590843818789
 20
13851.34754032595
 30
0.0
 10
-1950.55804409788
 20
13873.60673283099
 30
0.0
 10
-1970.80655393924
 20
13896.49289724963
 30
0.0
 10
-1988.308983813202
 20
13918.01868614826
 30
0.0
 10
-2003.152923335943
 20
13938.05859749432
 30
0.0
 10
-2015.916635451631
 20
13956.13341909375
 30
0.0
 10
-2028.537008344969
 20
13974.29075987082
 30
0.0
 10
-2041.587135480848
 20
13992.75960896561
 30
0.0
 10
-2055.378912206414
 20
14011.32688318307
 30
0.0
 10
-2069.699804384721
 20
14030.24734700224
 30
0.0
 10
-2083.953596507449
 20
14049.33604686358
 30
0.0
 10
-2096.345683022302
 20
14066.75882996696
 30
0.0
 10
-2106.752579709
 20
14082.47190039264
 30
0.0
 10
-2116.390018712651
 20
14095.46933591697
 30
0.0
 10
-2127.773688238133
 20
14107.225893363
 30
0.0
 10
-2141.146101014091
 20
14116.09505185754
 30
0.0
 10
-2158.466471800742
 20
14123.13644651872
 30
0.0
 10
-2167.925623681485
 20
14115.49986518504
 30
0.0
 10
-2172.647025202658
 20
14111.6881739066
 30
0.0
 11
-1753.424254188119
 21
13705.8705400501
 31
0.0
 11
-1786.494915502431
 21
13725.90628300029
 31
0.0
 11
-1818.180244802771
 21
13748.06791568869
 31
0.0
 11
-1841.817075591605
 21
13767.03436688658
 31
0.0
 11
-1864.515243164332
 21
13787.13221187377
 31
0.0
 11
-1886.560098466089
 21
13808.0930679784
 31
0.0
 11
-1908.12311457893
 21
13829.54592040812
 31
0.0
 11
-1929.51523696781
 21
13851.42000753302
 31
0.0
 11
-1950.455263720317
 21
13873.72986703509
 31
0.0
 11
-1970.647933140827
 21
13896.63360370517
 31
0.0
 11
-1989.862021255655
 21
13920.35060583514
 31
0.0
 11
-2003.083661600791
 21
13938.10569066877
 31
0.0
 11
-2015.902334840682
 21
13956.16086315831
 31
0.0
 11
-2028.561262238974
 21
13974.27567877726
 31
0.0
 11
-2041.357785233647
 21
13992.28869613006
 31
0.0
 11
-2055.407202377015
 21
14011.30532986965
 31
0.0
 11
-2069.627555116489
 21
14030.19415513682
 31
0.0
 11
-2083.875443846285
 21
14049.38547701951
 31
0.0
 11
-2097.686329182432
 21
14068.91585679078
 31
0.0
 11
-2106.876021763953
 21
14082.39708321085
 31
0.0
 11
-2116.743886795151
 21
14095.33771809044
 31
0.0
 11
-2128.02585455898
 21
14106.68681011634
 31
0.0
 11
-2141.510092138797
 21
14115.63573274027
 31
0.0
 11
-2157.918222499994
 21
14120.03310869205
 31
0.0
 11
-2172.647025202658
 21
14111.6881739066
 31
0.0
  0
SPLINE
  5
1FA
330
1F
100
AcDbEntity
  8
1
  6
Continuous
 62
     3
100
AcDbSpline
210
0.0
220
0.0
230
1.0
 70
     8
 71
     3
 72
    23
 73
    19
 74
    17
 42
0.0000000001
 43
0.0000000001
 44
0.00000001
 40
0.0
 40
0.0
 40
0.0
 40
0.0
 40
59.22223057806354
 40
118.4444620989822
 40
159.4017791753576
 40
200.362483537151
 40
241.3480967293315
 40
282.3289485609258
 40
310.2250321980193
 40
338.1238861825475
 40
365.9632880072805
 40
393.7934648245233
 40
425.9931192028578
 40
458.2087699244975
 40
490.4977023725161
 40
522.7787002087288
 40
605.9125312232237
 40
689.0463638956373
 40
689.0463638956373
 40
689.0463638956373
 40
689.0463638956373
 10
-1727.888520610339
 20
13591.663419758
 30
0.0
 10
-1741.78103582429
 20
13605.6916352066
 30
0.0
 10
-1769.566066473371
 20
13633.74806632713
 30
0.0
 10
-1808.70583464832
 20
13669.70721735773
 30
0.0
 10
-1843.966061573397
 20
13700.85224966138
 30
0.0
 10
-1874.847714408633
 20
13727.77288857833
 30
0.0
 10
-1905.544485189914
 20
13754.91652160024
 30
0.0
 10
-1932.505057639588
 20
13779.70647831123
 30
0.0
 10
-1955.656088784616
 20
13802.17570194641
 30
0.0
 10
-1975.079971708341
 20
13822.18062732127
 30
0.0
 10
-1993.727768709259
 20
13842.88446140007
 30
0.0
 10
-2012.326298869782
 20
13865.52863159648
 30
0.0
 10
-2030.437086954802
 20
13890.39770668098
 30
0.0
 10
-2048.267947629228
 20
13917.25805751083
 30
0.0
 10
-2065.450402736873
 20
13944.5645715478
 30
0.0
 10
-2091.41388705893
 20
13986.39807569222
 30
0.0
 10
-2127.75038415674
 20
14041.72099411531
 30
0.0
 10
-2157.681478087867
 20
14088.3657804878
 30
0.0
 10
-2172.647025202658
 20
14111.6881739066
 30
0.0
 11
-1727.888520610339
 21
13591.663419758
 31
0.0
 11
-1769.890569319273
 21
13633.41387483209
 31
0.0
 11
-1813.340558276
 21
13673.65528591542
 31
0.0
 11
-1843.994768407282
 21
13700.81815070031
 31
0.0
 11
-1874.809677693063
 21
13727.80371475821
 31
0.0
 11
-1905.457296986647
 21
13755.01665139457
 31
0.0
 11
-1935.565423639803
 21
13782.81828671123
 31
0.0
 11
-1955.55813384316
 21
13802.27292680074
 31
0.0
 11
-1974.966652939463
 21
13822.31427007255
 31
0.0
 11
-1993.569966762778
 21
13843.02535427281
 31
0.0
 11
-2011.203671367328
 21
13864.55605801418
 31
0.0
 11
-2030.241649378726
 21
13890.52475330912
 31
0.0
 11
-2048.144151987872
 21
13917.30811664811
 31
0.0
 11
-2065.423549394445
 21
13944.58443575275
 31
0.0
 11
-2082.540211952332
 21
13971.95381068498
 31
0.0
 11
-2127.625973748588
 21
14041.80012728363
 31
0.0
 11
-2172.647025202658
 21
14111.6881739066
 31
0.0
  0
SPLINE
  5
1FB
330
1F
100
AcDbEntity
  8
1
  6
Continuous
 62
     3
100
AcDbSpline
210
0.0
220
0.0
230
1.0
 70
     8
 71
     3
 72
     9
 73
     5
 74
     3
 42
0.0000000001
 43
0.0000000001
 44
0.00000001
 40
0.0
 40
0.0
 40
0.0
 40
0.0
 40
381.5711205112485
 40
763.1298300062156
 40
763.1298300062156
 40
763.1298300062156
 40
763.1298300062156
 10
-2193.891520457999
 20
14089.248238747
 30
0.0
 10
-2129.124028304385
 20
13979.10895760982
 30
0.0
 10
-1999.591150630381
 20
13758.83397773552
 30
0.0
 10
-1818.455081993057
 20
13578.58544188929
 30
0.0
 10
-1727.888520610329
 20
13488.462639685
 30
0.0
 11
-2193.891520457999
 21
14089.248238747
 31
0.0
 11
-1986.687826633594
 21
13768.83733182632
 31
0.0
 11
-1727.888520610329
 21
13488.462639685
 31
0.0
  0
SPLINE
  5
1FC
330
1F
100
AcDbEntity
  8
1
  6
Continuous
 62
     1
100
AcDbSpline
210
0.0
220
0.0
230
1.0
 70
     8
 71
     3
 72
    23
 73
    19
 74
    17
 42
0.0000000001
 43
0.0000000001
 44
0.00000001
 40
0.0
 40
0.0
 40
0.0
 40
0.0
 40
21.2184847127511
 40
42.43696942550499
 40
44.79612012764841
 40
47.15527045277958
 40
49.51442061461414
 40
51.87357087262928
 40
54.23272866196291
 40
56.59188644356154
 40
58.95104407079039
 40
61.31020163287349
 40
63.46227064759178
 40
65.6143395441481
 40
67.76640917983597
 40
69.91847885645227
 40
73.99804901316418
 40
78.07761917025155
 40
78.07761917025155
 40
78.07761917025155
 40
78.07761917025155
 10
6259.54675152076
 20
11561.6296179922
 30
0.0
 10
6260.167219216331
 20
11568.6752375182
 30
0.0
 10
6261.408154607477
 20
11582.7664765702
 30
0.0
 10
6262.936688043465
 20
11597.62080108807
 30
0.0
 10
6263.888168996288
 20
11606.21387443932
 30
0.0
 10
6264.151969057541
 20
11608.55823136143
 30
0.0
 10
6264.419977287295
 20
11610.90210993721
 30
0.0
 10
6264.692368293874
 20
11613.24548607618
 30
0.0
 10
6264.9692807281
 20
11615.58833480874
 30
0.0
 10
6265.250862713719
 20
11617.93062949953
 30
0.0
 10
6265.537259044287
 20
11620.27234042443
 30
0.0
 10
6265.820091561343
 20
11622.54493815905
 30
0.0
 10
6266.098992401068
 20
11624.74845800223
 30
0.0
 10
6266.37367168042
 20
11626.88292735032
 30
0.0
 10
6266.652935552176
 20
11629.01680271207
 30
0.0
 10
6267.022005331703
 20
11631.78689481811
 30
0.0
 10
6267.486243831769
 20
11635.19248961334
 30
0.0
 10
6267.870140948991
 20
11637.88497783321
 30
0.0
 10
6268.06208950761
 20
11639.2312219432
 30
0.0
 11
6259.54675152076
 21
11561.6296179922
 31
0.0
 11
6261.459929380661
 21
11582.76167525082
 31
0.0
 11
6263.629140330647
 21
11603.86898719147
 31
0.0
 11
6263.888863427242
 21
11606.21379762059
 31
0.0
 11
6264.152670427851
 21
11608.55815171564
 31
0.0
 11
6264.420707698536
 21
11610.90202575399
 31
0.0
 11
6264.693121523607
 21
11613.2453952613
 31
0.0
 11
6264.970058938935
 21
11615.58824206443
 31
0.0
 11
6265.251665112262
 21
11617.93053226883
 31
0.0
 11
6265.538085945589
 21
11620.27223844518
 31
0.0
 11
6265.829467261933
 21
11622.61333249097
 31
0.0
 11
6266.099733468027
 21
11624.74836345607
 31
0.0
 11
6266.374435742703
 21
11626.8828280718
 31
0.0
 11
6266.653761043752
 21
11629.01669336583
 31
0.0
 11
6266.937895956942
 21
11631.14992360284
 31
0.0
 11
6267.49038148217
 21
11635.19190979876
 31
0.0
 11
6268.06208950761
 21
11639.2312219432
 31
0.0
  0
SPLINE
  5
1FD
330
1F
100
AcDbEntity
  8
1
  6
Continuous
 62
     3
100
AcDbSpline
210
0.0
220
0.0
230
1.0
 70
     8
 71
     3
 72
    19
 73
    15
 74
    13
 42
0.0000000001
 43
0.0000000001
 44
0.00000001
 40
0.0
 40
0.0
 40
0.0
 40
0.0
 40
114.7270968784989
 40
229.4542287345616
 40
267.2318691697835
 40
305.0192447276127
 40
342.6634443369173
 40
380.2808222099366
 40
405.6809245915013
 40
431.0890175283376
 40
456.5706040839993
 40
482.0520921404483
 40
602.5692135072998
 40
723.0862588650211
 40
723.0862588650211
 40
723.0862588650211
 40
723.0862588650211
 10
6463.64231385422
 20
14216.1338344673
 30
0.0
 10
6482.958873060705
 20
14183.11643157819
 30
0.0
 10
6521.591997362834
 20
14117.08161573374
 30
0.0
 10
6571.539232551923
 20
14043.27905442767
 30
0.0
 10
6605.805321951548
 20
13989.90230530697
 30
0.0
 10
6626.61239992931
 20
13958.4165439097
 30
0.0
 10
6648.407184415444
 20
13927.66369056948
 30
0.0
 10
6669.270192647531
 20
13901.3499138651
 30
0.0
 10
6689.003891838262
 20
13879.44091295434
 30
0.0
 10
6706.753503024142
 20
13861.22429752839
 30
0.0
 10
6725.017868943602
 20
13843.48667456976
 30
0.0
 10
6766.713871517341
 20
13804.39578628017
 30
0.0
 10
6832.077881155387
 20
13744.05325869554
 30
0.0
 10
6896.658973954576
 20
13696.16294283291
 30
0.0
 10
6928.94951017148
 20
13672.2177924526
 30
0.0
 11
6463.64231385422
 21
14216.1338344673
 31
0.0
 11
6522.655302116244
 21
14117.74799211915
 31
0.0
 11
6585.331638573862
 21
14021.65433139083
 31
0.0
 11
6605.873867631539
 21
13989.94996351833
 31
0.0
 11
6626.809033932807
 21
13958.49198259954
 31
0.0
 11
6648.684770842338
 21
13927.85641668523
 31
0.0
 11
6672.159560092032
 21
13898.46251616618
 31
0.0
 11
6689.122652107841
 21
13879.55699553708
 31
0.0
 11
6706.818762502822
 21
13861.32463793924
 31
0.0
 11
6725.068866259334
 21
13843.54136022476
 31
0.0
 11
6743.614970167037
 21
13826.06714312025
 31
0.0
 11
6833.444530170876
 21
13745.72396237621
 31
0.0
 11
6928.94951017148
 21
13672.2177924526
 31
0.0
  0
SPLINE
  5
1FE
330
1F
100
AcDbEntity
  8
1
  6
Continuous
 62
     3
100
AcDbSpline
210
0.0
220
0.0
230
1.0
 70
     8
 71
     3
 72
    27
 73
    23
 74
    21
 42
0.0000000001
 43
0.0000000001
 44
0.00000001
 40
0.0
 40
0.0
 40
0.0
 40
0.0
 40
7.505197724694856
 40
15.01039544967223
 40
40.79397551772363
 40
66.57758945761881
 40
92.3064620803053
 40
118.0352021403427
 40
140.3948324576061
 40
162.7547848203333
 40
185.2547738898801
 40
207.7536140139069
 40
219.9902803732921
 40
232.2327185594859
 40
244.3455706442917
 40
256.4442624601631
 40
262.4222585226881
 40
268.3862905778506
 40
274.3904200627304
 40
280.4422442933354
 40
291.4156924688045
 40
302.374893381846
 40
302.374893381846
 40
302.374893381846
 40
302.374893381846
 10
6963.91086327744
 20
14182.1905930219
 30
0.0
 10
6965.071275528006
 20
14184.40692164828
 30
0.0
 10
6967.392100029183
 20
14188.83957890112
 30
0.0
 10
6973.723169723344
 20
14200.87382380323
 30
0.0
 10
6982.890077229111
 20
14218.30067827345
 30
0.0
 10
6994.924017944286
 20
14241.08310712215
 30
0.0
 10
7007.018692653569
 20
14263.81268562672
 30
0.0
 10
7018.676516445504
 20
14285.48164770878
 30
0.0
 10
7029.919548076194
 20
14306.09817141849
 30
0.0
 10
7040.773435415593
 20
14325.70056439713
 30
0.0
 10
7051.798573820301
 20
14345.26048997742
 30
0.0
 10
7061.316494091925
 20
14361.79568560359
 30
0.0
 10
7069.238324492808
 20
14375.30340898585
 30
0.0
 10
7075.065707683946
 20
14386.02444504046
 30
0.0
 10
7080.117220363263
 20
14397.09174927627
 30
0.0
 10
7083.292935313538
 20
14406.67263044087
 30
0.0
 10
7084.961779057823
 20
14414.52082705709
 30
0.0
 10
7085.682070019947
 20
14420.46253394537
 30
0.0
 10
7085.775830924442
 20
14426.505178335
 30
0.0
 10
7084.886072915859
 20
14434.04614581694
 30
0.0
 10
7082.410239110924
 20
14443.795921242
 30
0.0
 10
7075.68024530713
 20
14447.39562635275
 30
0.0
 10
7072.31743427862
 20
14449.1943097392
 30
0.0
 11
6963.91086327744
 21
14182.1905930219
 31
0.0
 11
6967.394282960824
 21
14188.83843328744
 31
0.0
 11
6970.88640851086
 21
14195.48170447217
 31
0.0
 11
6982.896587699892
 21
14218.29723858761
 31
0.0
 11
6994.944114395144
 21
14241.09311208105
 31
0.0
 11
7007.036016651502
 21
14263.80347945494
 31
0.0
 11
7019.231505642778
 21
14286.45823863134
 31
0.0
 11
7029.940475947297
 21
14306.08656059073
 31
0.0
 11
7040.775439545772
 21
14325.64598372852
 31
0.0
 11
7051.828194811301
 21
14345.24409866772
 31
0.0
 11
7063.057055562845
 21
14364.74052124082
 31
0.0
 11
7069.180001702414
 21
14375.33512053305
 31
0.0
 11
7074.959079395279
 21
14386.12768991029
 31
0.0
 11
7079.916902324147
 21
14397.17943988187
 31
0.0
 11
7083.647092758183
 21
14408.68874146717
 31
0.0
 11
7084.875124744131
 21
14414.53924352811
 31
0.0
 11
7085.576638724508
 21
14420.46187440385
 31
0.0
 11
7085.64449618919
 21
14426.46562042077
 31
0.0
 11
7084.969016953543
 21
14432.47962942645
 31
0.0
 11
7081.210028705043
 21
14442.7891673505
 31
0.0
 11
7072.31743427862
 21
14449.1943097392
 31
0.0
  0
SPLINE
  5
1FF
330
1F
100
AcDbEntity
  8
1
  6
Continuous
 62
     3
100
AcDbSpline
210
0.0
220
0.0
230
1.0
 70
     8
 71
     3
 72
    19
 73
    15
 74
    13
 42
0.0000000001
 43
0.0000000001
 44
0.00000001
 40
0.0
 40
0.0
 40
0.0
 40
0.0
 40
0.9525648462508312
 40
1.905129692513102
 40
26.24635704524411
 40
50.58782090538683
 40
74.92809381861092
 40
99.26833376615866
 40
115.0597430419227
 40
130.8511150942354
 40
146.6383145477606
 40
162.4257409899033
 40
193.9996026393828
 40
225.573469460755
 40
225.573469460755
 40
225.573469460755
 40
225.573469460755
 10
6952.94565188479
 20
14257.8867381027
 30
0.0
 10
6953.114034036929
 20
14258.15593585794
 30
0.0
 10
6953.45079834121
 20
14258.69433136843
 30
0.0
 10
6958.087063924485
 20
14266.11364993437
 30
0.0
 10
6966.785848934191
 20
14280.18770982884
 30
0.0
 10
6979.423382743068
 20
14300.99118482339
 30
0.0
 10
6991.938294389173
 20
14321.86819939005
 30
0.0
 10
7002.913163895173
 20
14340.34523783354
 30
0.0
 10
7012.403199855276
 20
14356.38977287128
 30
0.0
 10
7020.472878202025
 20
14369.96190922551
 30
0.0
 10
7028.619728441275
 20
14383.48686700286
 30
0.0
 10
7039.66616624478
 20
14401.40397742615
 30
0.0
 10
7053.836230518413
 20
14423.58725932086
 30
0.0
 10
7066.157032688853
 20
14440.65862580036
 30
0.0
 10
7072.31743427862
 20
14449.1943097392
 30
0.0
 11
6952.94565188479
 21
14257.8867381027
 31
0.0
 11
6953.450739771697
 21
14258.69436797635
 31
0.0
 11
6953.955543516321
 21
14259.50217548173
 31
0.0
 11
6966.759133304859
 21
14280.20394925994
 31
0.0
 11
6979.403179130397
 21
14301.00382829844
 31
0.0
 11
6991.92420175499
 21
14321.87660669339
 31
0.0
 11
7004.360598476202
 21
14342.79987883942
 31
0.0
 11
7012.40838630076
 21
14356.3867003237
 31
0.0
 11
7020.486568024809
 21
14369.95542949513
 31
0.0
 11
7028.64281848995
 21
14383.47250184588
 31
0.0
 11
7036.928817791685
 21
14396.91069552054
 31
0.0
 11
7054.082434985288
 21
14423.41847092014
 31
0.0
 11
7072.31743427862
 21
14449.1943097392
 31
0.0
  0
SPLINE
  5
200
330
1F
100
AcDbEntity
  8
1
  6
Continuous
 62
     3
100
AcDbSpline
210
0.0
220
0.0
230
1.0
 70
     8
 71
     3
 72
    11
 73
     7
 74
     5
 42
0.0000000001
 43
0.0000000001
 44
0.00000001
 40
0.0
 40
0.0
 40
0.0
 40
0.0
 40
6.862588880345557
 40
13.72517776067267
 40
91.79969176596053
 40
169.8742057229281
 40
169.8742057229281
 40
169.8742057229281
 40
169.8742057229281
 10
6946.99842591821
 20
14318.836941271
 30
0.0
 10
6948.245640165987
 20
14320.75456209308
 30
0.0
 10
6950.740068661539
 20
14324.58980373724
 30
0.0
 10
6967.525321151976
 20
14350.17500074367
 30
0.0
 10
6998.119478507656
 20
14395.09993866797
 30
0.0
 10
7029.010956631786
 20
14436.99509928405
 30
0.0
 10
7044.45669568907
 20
14457.9426795856
 30
0.0
 11
6946.99842591821
 21
14318.836941271
 31
0.0
 11
6950.743861722114
 21
14324.58731836989
 31
0.0
 11
6954.507150267375
 21
14330.32602776012
 31
0.0
 11
6998.515802822353
 21
14394.81531553303
 31
0.0
 11
7044.45669568907
 21
14457.9426795856
 31
0.0
  0
SPLINE
  5
201
330
1F
100
AcDbEntity
  8
1
  6
Continuous
 62
     3
100
AcDbSpline
210
0.0
220
0.0
230
1.0
 70
     8
 71
     3
 72
    23
 73
    19
 74
    17
 42
0.0000000001
 43
0.0000000001
 44
0.00000001
 40
0.0
 40
0.0
 40
0.0
 40
0.0
 40
129.6787598574242
 40
259.3575203124449
 40
291.9598835718956
 40
324.5615840057191
 40
357.1639364874525
 40
389.7666121701029
 40
430.8072936141324
 40
471.8483720123547
 40
512.8894105850529
 40
553.9298905769359
 40
580.309209905584
 40
606.6883208865868
 40
633.0658823774443
 40
659.4434712301007
 40
737.5179852434042
 40
815.5924991923575
 40
815.5924991923575
 40
815.5924991923575
 40
815.5924991923575
 10
6933.53370991048
 20
13548.4602709487
 30
0.0
 10
6902.091678825609
 20
13578.13983928146
 30
0.0
 10
6839.207616510976
 20
13637.49897608374
 30
0.0
 10
6773.491989724293
 20
13709.40936463083
 30
0.0
 10
6731.258028842396
 20
13758.76523812993
 30
0.0
 10
6710.439062324017
 20
13783.85677216888
 30
0.0
 10
6689.990175819131
 20
13809.25000956253
 30
0.0
 10
6668.187508096028
 20
13837.16010541052
 30
0.0
 10
6645.158557620358
 20
13867.67618388538
 30
0.0
 10
6621.044977705569
 20
13900.88887973731
 30
0.0
 10
6597.54531530343
 20
13934.53860655396
 30
0.0
 10
6577.388549750343
 20
13964.55429395855
 30
0.0
 10
6560.346103011512
 20
13990.76836664483
 30
0.0
 10
6546.228804041953
 20
14013.05214028707
 30
0.0
 10
6532.37451724694
 20
14035.49990764229
 30
0.0
 10
6509.922187690972
 20
14072.88621180705
 30
0.0
 10
6479.738731270203
 20
14125.73323396889
 30
0.0
 10
6455.623568550427
 20
14171.86294560903
 30
0.0
 10
6443.56598719551
 20
14194.9278014196
 30
0.0
 11
6933.53370991048
 21
13548.4602709487
 31
0.0
 11
6840.334296698839
 21
13638.62927967767
 31
0.0
 11
6752.508934138612
 21
13734.04042475159
 31
0.0
 11
6731.320738879265
 21
13758.81893301486
 31
0.0
 11
6710.500890560828
 21
13783.9068740857
 31
0.0
 11
6690.053240114304
 21
13809.29992389386
 31
0.0
 11
6669.982680341142
 21
13834.99247324304
 31
0.0
 11
6645.260272393696
 21
13867.7512900512
 31
0.0
 11
6621.147283495463
 21
13900.96173844448
 31
0.0
 11
6597.648226660031
 21
13934.60934125613
 31
0.0
 11
6574.767603093708
 21
13968.67982794447
 31
0.0
 11
6560.389570229561
 21
13990.79635251775
 31
0.0
 11
6546.272314521058
 21
14013.07999197383
 31
0.0
 11
6532.420131526323
 21
14035.52754810996
 31
0.0
 11
6518.835788685269
 21
14058.13822751719
 31
0.0
 11
6480.165324269877
 21
14125.9631854627
 31
0.0
 11
6443.56598719551
 21
14194.9278014196
 31
0.0
  0
SPLINE
  5
202
330
1F
100
AcDbEntity
  8
1
  6
Continuous
 62
     3
100
AcDbSpline
210
0.0
220
0.0
230
1.0
 70
     8
 71
     3
 72
    35
 73
    31
 74
    29
 42
0.0000000001
 43
0.0000000001
 44
0.00000001
 40
0.0
 40
0.0
 40
0.0
 40
0.0
 40
100.9811772799896
 40
201.9638074021118
 40
223.1276905524517
 40
244.2852925351568
 40
265.3989423218538
 40
286.5114761067272
 40
305.5002917342136
 40
324.4909184260933
 40
343.5114280597658
 40
362.5313624407869
 40
388.3149109547348
 40
414.0985563665487
 40
439.8274372074465
 40
465.5561691097452
 40
487.9157976513889
 40
510.2757517709566
 40
532.7757412743922
 40
555.2745809712678
 40
567.5112472835209
 40
579.7536855194509
 40
591.8665376175495
 40
603.965229418165
 40
609.9432254790711
 40
615.9072575359982
 40
621.9113870214047
 40
627.9632112514633
 40
638.9366594269104
 40
649.8958603399581
 40
649.8958603399581
 40
649.8958603399581
 40
649.8958603399581
 10
6908.1001000499
 20
13765.3579653028
 30
0.0
 10
6879.701549632187
 20
13783.60060708585
 30
0.0
 10
6822.904040219522
 20
13820.08615311353
 30
0.0
 10
6769.938243005055
 20
13872.83639927646
 30
0.0
 10
6736.251715263199
 20
13906.67767303991
 30
0.0
 10
6721.580256963113
 20
13921.90968927246
 30
0.0
 10
6707.25251428774
 20
13937.43919862474
 30
0.0
 10
6693.855693756562
 20
13952.83602006452
 30
0.0
 10
6681.44206280349
 20
13968.13305680594
 30
0.0
 10
6669.8322193813
 20
13983.17489270767
 30
0.0
 10
6658.462583156378
 20
13998.41111076612
 30
0.0
 10
6645.879414117799
 20
14015.56559104826
 30
0.0
 10
6631.966087708577
 20
14034.54017656502
 30
0.0
 10
6616.764306751518
 20
14055.34308091127
 30
0.0
 10
6601.637132800175
 20
14076.17776488522
 30
0.0
 10
6587.271645627708
 20
14096.15478955711
 30
0.0
 10
6573.670265668748
 20
14115.2976510842
 30
0.0
 10
6560.809777314422
 20
14133.64618031977
 30
0.0
 10
6548.0625350583
 20
14152.13001671508
 30
0.0
 10
6537.373182090551
 20
14167.93321996781
 30
0.0
 10
6528.705222739332
 20
14180.97471007401
 30
0.0
 10
6521.62377590522
 20
14190.91212018978
 30
0.0
 10
6513.890986146485
 20
14200.30397656901
 30
0.0
 10
6506.671889018956
 20
14207.35827213901
 30
0.0
 10
6500.349549576061
 20
14212.29864190883
 30
0.0
 10
6495.324933573831
 20
14215.55070799805
 30
0.0
 10
6489.934942847291
 20
14218.28390069175
 30
0.0
 10
6482.767121932749
 20
14220.78993405439
 30
0.0
 10
6472.918747723746
 20
14222.83868960465
 30
0.0
 10
6466.73311910014
 20
14218.36781809971
 30
0.0
 10
6463.64231385422
 20
14216.1338344673
 30
0.0
 11
6908.1001000499
 21
13765.3579653028
 31
0.0
 11
6825.118309618068
 21
13822.90117186604
 31
0.0
 11
6751.183699616084
 21
13891.68463666854
 31
0.0
 11
6736.290322347143
 21
13906.72116763569
 31
0.0
 11
6721.625533403398
 21
13921.97200652718
 31
0.0
 11
6707.328260324995
 21
13937.50822839212
 31
0.0
 11
6693.488464671567
 21
13953.45185216744
 31
0.0
 11
6681.503122951794
 21
13968.18028395073
 31
0.0
 11
6669.879321989553
 21
13983.19797862536
 31
0.0
 11
6658.483433372991
 21
13998.42668537818
 31
0.0
 11
6647.213257853475
 21
14013.74794667149
 31
0.0
 11
6631.971766815706
 21
14034.54430031622
 31
0.0
 11
6616.764200368872
 21
14055.36559454802
 31
0.0
 11
6601.652982917051
 21
14076.18929298151
 31
0.0
 11
6586.637186269624
 21
14097.0817197516
 31
0.0
 11
6573.689874357575
 21
14115.31136875459
 31
0.0
 11
6560.859713299768
 21
14133.62405603582
 31
0.0
 11
6548.090252421501
 21
14152.14945472338
 31
0.0
 11
6535.489393306599
 21
14170.7885570964
 31
0.0
 11
6528.65115355512
 21
14180.93619128072
 31
0.0
 11
6521.484237275843
 21
14190.86154291209
 31
0.0
 11
6513.724356700368
 21
14200.16237295058
 31
0.0
 11
6505.015072839507
 21
14208.56039164056
 31
0.0
 11
6500.29501021143
 21
14212.22883077611
 31
0.0
 11
6495.279308327753
 21
14215.45565785392
 31
0.0
 11
6489.912923906256
 21
14218.14851676561
 31
0.0
 11
6484.211457810999
 21
14220.17776807488
 31
0.0
 11
6473.297474515532
 21
14221.31861577964
 31
0.0
 11
6463.64231385422
 21
14216.1338344673
 31
0.0
  0
SPLINE
  5
203
330
1F
100
AcDbEntity
  8
1
  6
Continuous
 62
     3
100
AcDbSpline
210
0.0
220
0.0
230
1.0
 70
     8
 71
     3
 72
    23
 73
    19
 74
    17
 42
0.0000000001
 43
0.0000000001
 44
0.00000001
 40
0.0
 40
0.0
 40
0.0
 40
0.0
 40
108.1927880892673
 40
216.385583606539
 40
243.1095553462886
 40
269.8400027826002
 40
296.5539870894435
 40
323.262131761521
 40
345.9316205729649
 40
368.6044161288922
 40
391.2891534126128
 40
413.9722952233247
 40
438.3134855035503
 40
462.6549864133157
 40
486.9944963289737
 40
511.3354993851937
 40
574.4805733554012
 40
637.6256330631563
 40
637.6256330631563
 40
637.6256330631563
 40
637.6256330631563
 10
6900.89799931602
 20
13802.6878152348
 30
0.0
 10
6882.020635178767
 20
13833.40522651617
 30
0.0
 10
6844.265905608234
 20
13894.84005118783
 30
0.0
 10
6802.067613455411
 20
13964.15403589734
 30
0.0
 10
6778.331116729983
 20
14012.54629040498
 30
0.0
 10
6767.41801462594
 20
14036.94484362254
 30
0.0
 10
6757.45703943645
 20
14061.7437855702
 30
0.0
 10
6748.976142323068
 20
14085.65656411744
 30
0.0
 10
6741.873741197652
 20
14108.60360264363
 30
0.0
 10
6735.72870992625
 20
14130.43215493661
 30
0.0
 10
6729.893624530665
 20
14152.34910396349
 30
0.0
 10
6723.975800197343
 20
14174.81930409283
 30
0.0
 10
6717.705487598399
 20
14197.76709190004
 30
0.0
 10
6711.111318552859
 20
14221.1976190822
 30
0.0
 10
6704.371964259479
 20
14244.58736266835
 30
0.0
 10
6693.950325594613
 20
14280.37283937387
 30
0.0
 10
6679.322100363116
 20
14328.44129995288
 30
0.0
 10
6670.49046583938
 20
14369.62064814934
 30
0.0
 10
6666.07464907621
 20
14390.2103199223
 30
0.0
 11
6900.89799931602
 21
13802.6878152348
 31
0.0
 11
6844.314684748579
 21
13894.90499317411
 31
0.0
 11
6790.246144933856
 21
13988.61878086913
 31
0.0
 11
6778.475212429785
 21
14012.61077564929
 31
0.0
 11
6767.574227653863
 21
14037.01744176862
 31
0.0
 11
6757.627552781641
 21
14061.81059841582
 31
0.0
 11
6748.712090955637
 21
14086.98676834403
 31
0.0
 11
6741.967494986713
 21
14108.62969208802
 31
0.0
 11
6735.781621207012
 21
14130.44231742066
 31
0.0
 11
6729.903306068121
 21
14152.35219457138
 31
0.0
 11
6724.084078239664
 21
14174.27618850235
 31
0.0
 11
6717.675793626274
 21
14197.75868054583
 31
0.0
 11
6711.086936585112
 21
14221.19147016702
 31
0.0
 11
6704.361108433352
 21
14244.58324176747
 31
0.0
 11
6697.540159374149
 21
14267.94900911448
 31
0.0
 11
6680.180290551896
 21
14328.66091339344
 31
0.0
 11
6666.07464907621
 21
14390.2103199223
 31
0.0
  0
SPLINE
  5
204
330
1F
100
AcDbEntity
  8
1
  6
Continuous
 62
     3
100
AcDbSpline
210
0.0
220
0.0
230
1.0
 70
     8
 71
     3
 72
    35
 73
    31
 74
    29
 42
0.0000000001
 43
0.0000000001
 44
0.00000001
 40
0.0
 40
0.0
 40
0.0
 40
0.0
 40
35.33634509805347
 40
70.67269330228677
 40
91.83329248184222
 40
112.9941809094415
 40
134.1086977219564
 40
155.2203643056707
 40
174.2089787058778
 40
193.199806372036
 40
212.220371928463
 40
231.2402504254525
 40
257.023776521281
 40
282.8074443479351
 40
308.5363310692756
 40
334.2650570937603
 40
356.6246843449555
 40
378.9846397540508
 40
401.4846295797565
 40
423.9834689546958
 40
436.2201352313543
 40
448.4625735030205
 40
460.5754256097788
 40
472.6741174017582
 40
478.6521134618295
 40
484.616145519553
 40
490.6202750051769
 40
496.6720992350402
 40
507.6455474104724
 40
518.604748323524
 40
518.604748323524
 40
518.604748323524
 40
518.604748323524
 10
6880.70994994363
 20
13934.2060383736
 30
0.0
 10
6874.763567422817
 20
13944.37471653157
 30
0.0
 10
6862.870801858484
 20
13964.71207374136
 30
0.0
 10
6848.37952057915
 20
13991.68100580267
 30
0.0
 10
6836.299016565194
 20
14014.57486202038
 30
0.0
 10
6826.718810217998
 20
14033.42703081313
 30
0.0
 10
6817.557880235996
 20
14052.4690813605
 30
0.0
 10
6809.247838065887
 20
14071.10963837141
 30
0.0
 10
6801.849226699582
 20
14089.36747109038
 30
0.0
 10
6795.144443874542
 20
14107.1464313197
 30
0.0
 10
6788.726223574536
 20
14125.04112589363
 30
0.0
 10
6781.708373369697
 20
14145.12499395814
 30
0.0
 10
6773.950632341337
 20
14167.33832646324
 30
0.0
 10
6765.495273712699
 20
14191.67681408384
 30
0.0
 10
6757.120554723731
 20
14216.02388611124
 30
0.0
 10
6749.223488756625
 20
14239.32807165933
 30
0.0
 10
6741.81325616752
 20
14261.61113799197
 30
0.0
 10
6734.879300510418
 20
14282.917966699
 30
0.0
 10
6728.093202723674
 20
14304.32108070595
 30
0.0
 10
6722.491333178448
 20
14322.55902349179
 30
0.0
 10
6718.015085153254
 20
14337.56492845498
 30
0.0
 10
6714.148481396058
 20
14349.13853569426
 30
0.0
 10
6709.499490830322
 20
14360.38086155277
 30
0.0
 10
6704.658310334047
 20
14369.23757768936
 30
0.0
 10
6700.05665138893
 20
14375.81054995459
 30
0.0
 10
6696.202399315727
 20
14380.38957176884
 30
0.0
 10
6691.847033756399
 20
14384.57921771823
 30
0.0
 10
6685.725105772128
 20
14389.07141736129
 30
0.0
 10
6676.906056830443
 20
14393.91003799404
 30
0.0
 10
6669.683554435573
 20
14391.44302509601
 30
0.0
 10
6666.07464907621
 20
14390.2103199223
 30
0.0
 11
6880.70994994363
 21
13934.2060383736
 31
0.0
 11
6863.055958366724
 21
13964.8163939137
 31
0.0
 11
6846.192078760125
 21
13995.86904386543
 31
0.0
 11
6836.347085912556
 21
14014.59995610881
 31
0.0
 11
6826.780633790529
 21
14033.47497115098
 31
0.0
 11
6817.650077083494
 21
14052.513241935
 31
0.0
 11
6809.076837277687
 21
14071.80578000479
 31
0.0
 11
6801.921457862359
 21
14089.39464074852
 31
0.0
 11
6795.196227548051
 21
14107.15478750088
 31
0.0
 11
6788.75070485126
 21
14125.04995867221
 31
0.0
 11
6782.452508852626
 21
14142.99678304877
 31
0.0
 11
6773.957273147941
 21
14167.34059516307
 31
0.0
 11
6765.501753021741
 21
14191.69838048913
 31
0.0
 11
6757.139081674456
 21
14216.03028012432
 31
0.0
 11
6748.887760795863
 21
14240.39999589208
 31
0.0
 11
6741.836018928784
 21
14261.61852240672
 31
0.0
 11
6734.920585952043
 21
14282.8822095903
 31
0.0
 11
6728.125392043972
 21
14304.33156580228
 31
0.0
 11
6721.524676812514
 21
14325.84036241326
 31
0.0
 11
6717.952116735958
 21
14337.54390102625
 31
0.0
 11
6714.000252574111
 21
14349.13096555882
 31
0.0
 11
6709.298741404198
 21
14360.29416307921
 31
0.0
 11
6703.42535487128
 21
14370.87157645453
 31
0.0
 11
6699.984084335678
 21
14375.759735003
 31
0.0
 11
6696.130977703065
 21
14380.31201439505
 31
0.0
 11
6691.786394508957
 21
14384.45618714116
 31
0.0
 11
6686.927351030798
 21
14388.06371718075
 31
0.0
 11
6676.823808487114
 21
14392.34565516802
 31
0.0
 11
6666.07464907621
 21
14390.2103199223
 31
0.0
  0
SPLINE
  5
205
330
1F
100
AcDbEntity
  8
1
  6
Continuous
 62
     3
100
AcDbSpline
210
0.0
220
0.0
230
1.0
 70
     8
 71
     3
 72
    19
 73
    15
 74
    13
 42
0.0000000001
 43
0.0000000001
 44
0.00000001
 40
0.0
 40
0.0
 40
0.0
 40
0.0
 40
39.38085095958792
 40
78.76170195498338
 40
119.8021412015204
 40
160.8434616141816
 40
201.8845614663899
 40
242.9249802656549
 40
269.3042908056572
 40
295.683410564221
 40
322.0609745555647
 40
348.4385609116313
 40
426.5130749249007
 40
504.5875888739157
 40
504.5875888739157
 40
504.5875888739157
 40
504.5875888739157
 10
6780.95102459511
 20
13892.1647333391
 30
0.0
 10
6775.965052288471
 20
13904.30829383074
 30
0.0
 10
6765.993107670663
 20
13928.59541482506
 30
0.0
 10
6751.66334606874
 20
13965.8733132478
 30
0.0
 10
6737.778189798059
 20
14003.90740152644
 30
0.0
 10
6724.43146410908
 20
14042.72017528241
 30
0.0
 10
6711.796076862371
 20
14081.76996536454
 30
0.0
 10
6701.29599816458
 20
14116.36745594487
 30
0.0
 10
6692.662452940825
 20
14146.41879466072
 30
0.0
 10
6685.677163126054
 20
14171.85637556137
 30
0.0
 10
6678.991331910021
 20
14197.37388566534
 30
0.0
 10
6668.450761452708
 20
14239.69101253956
 30
0.0
 10
6655.037151674213
 20
14299.05365863979
 30
0.0
 10
6645.462729475205
 20
14350.21831256262
 30
0.0
 10
6640.67551837767
 20
14375.8006395135
 30
0.0
 11
6780.95102459511
 21
13892.1647333391
 31
0.0
 11
6766.130884646579
 21
13928.65055077831
 31
0.0
 11
6751.963973373327
 21
13965.39493878651
 31
0.0
 11
6737.899658388376
 21
14003.95025875085
 31
0.0
 11
6724.549997636701
 21
14042.75974907255
 31
0.0
 11
6711.915321954313
 21
14081.80762798396
 31
0.0
 11
6699.995741956142
 21
14121.07898634964
 31
0.0
 11
6692.712210027219
 21
14146.43284576406
 31
0.0
 11
6685.726913618816
 21
14171.87029047306
 31
0.0
 11
6679.043034456741
 21
14197.3869838612
 31
0.0
 11
6672.662986612556
 21
14222.98135924873
 31
0.0
 11
6655.51233615412
 21
14299.14883870854
 31
0.0
 11
6640.67551837767
 21
14375.8006395135
 31
0.0
  0
SPLINE
  5
206
330
1F
100
AcDbEntity
  8
1
  6
Continuous
 62
     3
100
AcDbSpline
210
0.0
220
0.0
230
1.0
 70
     8
 71
     3
 72
    23
 73
    19
 74
    17
 42
0.0000000001
 43
0.0000000001
 44
0.00000001
 40
0.0
 40
0.0
 40
0.0
 40
0.0
 40
111.0051281462981
 40
222.0102543112674
 40
248.7341160339517
 40
275.4646732994653
 40
302.1786863174125
 40
328.886802426014
 40
351.5562851721716
 40
374.2290867624366
 40
396.9138256739451
 40
419.5969658578013
 40
443.9381556558707
 40
468.2796570486199
 40
492.6191671002441
 40
516.9601700203849
 40
580.1052439905757
 40
643.250303698367
 40
643.250303698367
 40
643.250303698367
 40
643.250303698367
 10
6903.71967644666
 20
13797.8185922467
 30
0.0
 10
6884.41946886614
 20
13829.37559245398
 30
0.0
 10
6845.819054049593
 20
13892.48959230529
 30
0.0
 10
6802.479177586276
 20
13963.31088633882
 30
0.0
 10
6778.331301949482
 20
14012.54639711896
 30
0.0
 10
6767.417980317538
 20
14036.94478147465
 30
0.0
 10
6757.457042669057
 20
14061.74380246428
 30
0.0
 10
6748.976138121769
 20
14085.65656933571
 30
0.0
 10
6741.873744075529
 20
14108.60360173322
 30
0.0
 10
6735.728709827082
 20
14130.43215328475
 30
0.0
 10
6729.893623949571
 20
14152.34910439807
 30
0.0
 10
6723.975800184778
 20
14174.81930447573
 30
0.0
 10
6717.705487778013
 20
14197.76709178547
 30
0.0
 10
6711.111318559913
 20
14221.19761896342
 30
0.0
 10
6704.371964211382
 20
14244.5873627017
 30
0.0
 10
6693.950325608608
 20
14280.37283942512
 30
0.0
 10
6679.322100353982
 20
14328.44129995022
 30
0.0
 10
6670.490465836339
 20
14369.62064814845
 30
0.0
 10
6666.07464907621
 20
14390.2103199223
 30
0.0
 11
6903.71967644666
 21
13797.8185922467
 31
0.0
 11
6845.79829163776
 21
13892.51416583172
 31
0.0
 11
6790.246144933853
 21
13988.61878086912
 31
0.0
 11
6778.475263785734
 21
14012.61067830076
 31
0.0
 11
6767.574227653856
 21
14037.01744176862
 31
0.0
 11
6757.627539312401
 21
14061.81062394762
 31
0.0
 11
6748.712090955632
 21
14086.98676834402
 31
0.0
 11
6741.967497865027
 21
14108.62968663201
 31
0.0
 11
6735.781621207011
 21
14130.44231742069
 31
0.0
 11
6729.903305289241
 21
14152.35219604779
 31
0.0
 11
6724.084078239663
 21
14174.27618850231
 31
0.0
 11
6717.675793856753
 21
14197.7586801089
 31
0.0
 11
6711.08693658511
 21
14221.191470167
 31
0.0
 11
6704.361108368546
 21
14244.58324189029
 31
0.0
 11
6697.540159374144
 21
14267.94900911446
 31
0.0
 11
6680.180290551908
 21
14328.6609133934
 31
0.0
 11
6666.07464907621
 21
14390.2103199223
 31
0.0
  0
SPLINE
  5
207
330
1F
100
AcDbEntity
  8
1
  6
Continuous
 62
     7
100
AcDbSpline
210
0.0
220
0.0
230
1.0
 70
     8
 71
     3
 72
    35
 73
    31
 74
    29
 42
0.0000000001
 43
0.0000000001
 44
0.00000001
 40
0.0
 40
0.0
 40
0.0
 40
0.0
 40
108.7590924160143
 40
217.5196863387766
 40
238.684359646884
 40
259.8411728463999
 40
280.954615305156
 40
302.0673554441454
 40
321.0562186959411
 40
340.0467980216568
 40
359.0672945122092
 40
378.0872420086039
 40
403.870795782267
 40
429.6544359366821
 40
455.3833153990826
 40
481.1120486782049
 40
503.4716775218244
 40
525.831631339948
 40
548.3316207681099
 40
570.8304605399774
 40
583.0671268605179
 40
595.3095650880875
 40
607.4224171841548
 40
619.521108986868
 40
625.4991050479725
 40
631.4631371047057
 40
637.4672665900681
 40
643.5190908201819
 40
654.4925389956181
 40
665.4517399086667
 40
665.4517399086667
 40
665.4517399086667
 40
665.4517399086667
 10
7034.41707273275
 20
13861.5072955839
 30
0.0
 10
7019.069286076572
 20
13894.49507317249
 30
0.0
 10
6988.373500875676
 20
13960.47108377247
 30
0.0
 10
6973.010364407201
 20
14039.06993309518
 30
0.0
 10
6963.513908311788
 20
14088.50274412788
 30
0.0
 10
6959.868972529778
 20
14109.33538639347
 30
0.0
 10
6956.674669973176
 20
14130.22148837969
 30
0.0
 10
6954.177969326009
 20
14150.47748902575
 30
0.0
 10
6952.440575370993
 20
14170.10097992744
 30
0.0
 10
6951.226887098422
 20
14189.06336853244
 30
0.0
 10
6950.321018616325
 20
14208.05256920245
 30
0.0
 10
6949.481756491639
 20
14229.31069844036
 30
0.0
 10
6948.557538947374
 20
14252.82158042495
 30
0.0
 10
6947.587530074826
 20
14278.56869742366
 30
0.0
 10
6946.697142144837
 20
14304.30043981873
 30
0.0
 10
6945.958623381492
 20
14328.89522242587
 30
0.0
 10
6945.387120622062
 20
14352.37116948705
 30
0.0
 10
6944.98566005026
 20
14374.77428342493
 30
0.0
 10
6944.753747424404
 20
14397.22624558918
 30
0.0
 10
6944.728911266073
 20
14416.30510517739
 30
0.0
 10
6944.835556003562
 20
14431.96405185924
 30
0.0
 10
6944.521699729416
 20
14444.16243303446
 30
0.0
 10
6943.362785916355
 20
14456.27275600329
 30
0.0
 10
6941.322595179205
 20
14466.15789996192
 30
0.0
 10
6938.843757950244
 20
14473.7890594739
 30
0.0
 10
6936.496694775412
 20
14479.29487406138
 30
0.0
 10
6933.556571905539
 20
14484.57483806148
 30
0.0
 10
6929.015535126331
 20
14490.66062846599
 30
0.0
 10
6921.996512443091
 20
14497.8662647625
 30
0.0
 10
6914.368314286367
 20
14497.6187039327
 30
0.0
 10
6910.55669281434
 20
14497.4950039245
 30
0.0
 11
7034.41707273275
 21
13861.5072955839
 31
0.0
 11
6992.547388200638
 21
13961.88393480009
 31
0.0
 11
6967.50961632961
 21
14067.72332619179
 31
0.0
 11
6963.57053588948
 21
14088.51820636757
 31
0.0
 11
6959.941268253222
 21
14109.36141056423
 31
0.0
 11
6956.776097997105
 21
14130.23625546687
 31
0.0
 11
6954.217887377376
 21
14151.19343453757
 31
0.0
 11
6952.517609070054
 21
14170.1060224428
 31
0.0
 11
6951.278843859155
 21
14189.0561560539
 31
0.0
 11
6950.347012733999
 21
14208.05381321212
 31
0.0
 11
6949.571150401053
 21
14227.05792961899
 31
0.0
 11
6948.564553454207
 21
14252.82182699082
 31
0.0
 11
6947.600031049164
 21
14278.58742025281
 31
0.0
 11
6946.716728820095
 21
14304.30113285063
 31
0.0
 11
6945.95096558614
 21
14330.01846791509
 31
0.0
 11
6945.411047810985
 21
14352.37157711315
 31
0.0
 11
6945.014687094982
 21
14374.72801763778
 31
0.0
 11
6944.7875957486
 21
14397.22686102556
 31
0.0
 11
6944.763863846978
 21
14419.72568828115
 31
0.0
 11
6944.76919118321
 21
14431.96235344204
 31
0.0
 11
6944.377734507591
 21
14444.19853158013
 31
0.0
 11
6943.145460106513
 21
14456.24853928559
 31
0.0
 11
6940.621249009857
 21
14468.08098204592
 31
0.0
 11
6938.759504877721
 21
14473.76168144767
 31
0.0
 11
6936.405718366117
 21
14479.24158723441
 31
0.0
 11
6933.462611645398
 21
14484.47491253554
 31
0.0
 11
6929.870624965266
 21
14489.34545749498
 31
0.0
 11
6921.460476687529
 21
14496.3942851142
 31
0.0
 11
6910.55669281434
 21
14497.4950039245
 31
0.0
  0
SPLINE
  5
208
330
1F
100
AcDbEntity
  8
1
  6
Continuous
 62
     7
100
AcDbSpline
210
0.0
220
0.0
230
1.0
 70
     8
 71
     3
 72
    23
 73
    19
 74
    17
 42
0.0000000001
 43
0.0000000001
 44
0.00000001
 40
0.0
 40
0.0
 40
0.0
 40
0.0
 40
143.7302046745393
 40
287.4604112929346
 40
320.0628401258296
 40
352.6644750331005
 40
385.2668094790764
 40
417.8695031766558
 40
458.9101911566589
 40
499.9512630323811
 40
540.9922999556974
 40
582.0327815924757
 40
608.4121011570994
 40
634.7912119025914
 40
661.1687733264138
 40
687.5463622459434
 40
765.6208762592695
 40
843.6953902082458
 40
843.6953902082458
 40
843.6953902082458
 40
843.6953902082458
 10
6933.53370991057
 20
13653.9220472562
 30
0.0
 10
6922.538641502842
 20
13700.56899366441
 30
0.0
 10
6900.548504538687
 20
13793.86288711171
 30
0.0
 10
6884.611855405819
 20
13899.48309887742
 30
0.0
 10
6876.662862671405
 20
13968.67040771288
 30
0.0
 10
6873.434212642033
 20
14001.11411854704
 30
0.0
 10
6870.681027577621
 20
14033.60089732096
 30
0.0
 10
6868.212924746545
 20
14068.93132003373
 30
0.0
 10
6866.185432197052
 20
14107.10792548418
 30
0.0
 10
6864.766673846245
 20
14148.12664102649
 30
0.0
 10
6864.101259324684
 20
14189.16437098924
 30
0.0
 10
6864.175102364489
 20
14225.3200239821
 30
0.0
 10
6864.704997083616
 20
14256.58249098669
 30
0.0
 10
6865.462153967528
 20
14282.95086997152
 30
0.0
 10
6866.529061882394
 20
14309.30813130792
 30
0.0
 10
6868.821393029291
 20
14352.85796551561
 30
0.0
 10
6873.349853373201
 20
14413.54850713908
 30
0.0
 10
6879.152884794771
 20
14465.27679915906
 30
0.0
 10
6882.05440050436
 20
14491.1409451584
 30
0.0
 11
6933.53370991057
 21
13653.9220472562
 31
0.0
 11
6902.467713695642
 21
13794.25477905801
 31
0.0
 11
6880.454760964068
 21
13936.2892896764
 31
0.0
 11
6876.744906840937
 21
13968.67995728589
 31
0.0
 11
6873.513479077477
 21
14001.12104964168
 31
0.0
 11
6870.76122463004
 21
14033.60700517301
 31
0.0
 11
6868.489064950999
 21
14066.13042637576
 31
0.0
 11
6866.311756748822
 21
14107.11331791436
 31
0.0
 11
6864.892231043091
 21
14148.12983321587
 31
0.0
 11
6864.226130975244
 21
14189.16546434834
 31
0.0
 11
6864.309208471929
 21
14230.20586189891
 31
0.0
 11
6864.756682561933
 21
14256.58138592463
 31
0.0
 11
6865.513800242566
 21
14282.949629259
 31
0.0
 11
6866.582334180159
 21
14309.3055390686
 31
0.0
 11
6867.964135023078
 21
14335.64691002074
 31
0.0
 11
6873.832102235918
 21
14413.50059778956
 31
0.0
 11
6882.05440050436
 21
14491.1409451584
 31
0.0
  0
SPLINE
  5
209
330
1F
100
AcDbEntity
  8
1
  6
Continuous
 62
     7
100
AcDbSpline
210
0.0
220
0.0
230
1.0
 70
     8
 71
     3
 72
    23
 73
    19
 74
    17
 42
0.0000000001
 43
0.0000000001
 44
0.00000001
 40
0.0
 40
0.0
 40
0.0
 40
0.0
 40
111.0051281463492
 40
222.0102543113259
 40
248.7341160340166
 40
275.4646732995342
 40
302.1786863174729
 40
328.8868024260551
 40
351.5562851721754
 40
374.2290867624217
 40
396.9138256739498
 40
419.5969658578364
 40
443.9381556559308
 40
468.2796570486803
 40
492.6191671003
 40
516.9601700204349
 40
580.105243990643
 40
643.2503036984492
 40
643.2503036984492
 40
643.2503036984492
 40
643.2503036984492
 10
6964.6191834355
 20
13861.5072955839
 30
0.0
 10
6955.388677081715
 20
13897.32823955789
 30
0.0
 10
6936.927664538904
 20
13968.97012686648
 30
0.0
 10
6916.187677021431
 20
14049.36822073827
 30
0.0
 10
6907.490018923252
 20
14103.51252942497
 30
0.0
 10
6904.186954769819
 20
14130.03556687185
 30
0.0
 10
6901.911794764924
 20
14156.66328490837
 30
0.0
 10
6900.792881826324
 20
14182.01075411582
 30
0.0
 10
6900.709891601548
 20
14206.03164938767
 30
0.0
 10
6901.215416952952
 20
14228.70303119097
 30
0.0
 10
6902.043192936171
 20
14251.36832978207
 30
0.0
 10
6902.953600627125
 20
14274.58689320617
 30
0.0
 10
6903.666554746525
 20
14298.36523327683
 30
0.0
 10
6904.210942535197
 20
14322.69990634736
 30
0.0
 10
6904.604565169362
 20
14347.03802604464
 30
0.0
 10
6905.100963442543
 20
14384.30683987395
 30
0.0
 10
6905.165779807372
 20
14434.5518164407
 30
0.0
 10
6908.75972194731
 20
14476.51394300955
 30
0.0
 10
6910.55669281434
 20
14497.4950039245
 30
0.0
 11
6964.6191834355
 21
13861.5072955839
 31
0.0
 11
6936.914993949533
 21
13968.99969698843
 31
0.0
 11
6911.88848198284
 21
14077.14687325154
 31
0.0
 11
6907.646484310639
 21
14103.53191145736
 31
0.0
 11
6904.357618654663
 21
14130.05936995647
 31
0.0
 11
6902.094378226827
 21
14156.67733821643
 31
0.0
 11
6900.929284817224
 21
14183.36002967394
 31
0.0
 11
6900.807175282665
 21
14206.02918354518
 31
0.0
 11
6901.268988062977
 21
14228.69728141215
 31
0.0
 11
6902.05335515824
 21
14251.36845579162
 31
0.0
 11
6902.898355702966
 21
14274.03585137826
 31
0.0
 11
6903.635698972183
 21
14298.3658708129
 31
0.0
 11
6904.185828202642
 21
14322.70115482364
 31
0.0
 11
6904.592978866571
 21
14347.03725923436
 31
0.0
 11
6904.901562098528
 21
14371.37630604288
 31
0.0
 11
6906.05067993193
 21
14434.51092328974
 31
0.0
 11
6910.55669281434
 21
14497.4950039245
 31
0.0
  0
SPLINE
  5
20A
330
1F
100
AcDbEntity
  8
0
  6
Continuous
 62
     7
100
AcDbSpline
210
0.0
220
0.0
230
1.0
 70
     8
 71
     3
 72
    15
 73
    11
 74
     9
 42
0.0000000001
 43
0.0000000001
 44
0.00000001
 40
0.0
 40
0.0
 40
0.0
 40
0.0
 40
27.42850180184923
 40
54.8570036036746
 40
57.74242767075781
 40
60.62785241568422
 40
63.51327446515224
 40
66.39869479710755
 40
68.94118311653222
 40
71.48367143596492
 40
71.48367143596492
 40
71.48367143596492
 40
71.48367143596492
 10
6274.51063450678
 20
11560.780479699
 30
0.0
 10
6275.320264779979
 20
11569.88752140532
 30
0.0
 10
6276.939525326376
 20
11588.10160481797
 30
0.0
 10
6279.028534035806
 20
11607.23729962336
 30
0.0
 10
6280.359934524196
 20
11618.22335916074
 30
0.0
 10
6280.714556861417
 20
11621.08691283863
 30
0.0
 10
6281.076902278206
 20
11623.94949723783
 30
0.0
 10
6281.43298675913
 20
11626.69763738621
 30
0.0
 10
6281.781359542487
 20
11629.33150228859
 30
0.0
 10
6282.009632197409
 20
11631.0110540556
 30
0.0
 10
6282.12376852487
 20
11631.8508299391
 30
0.0
 11
6274.51063450678
 21
11560.780479699
 31
0.0
 11
6277.030865109668
 21
11588.09295210269
 31
0.0
 11
6280.01386824321
 21
11615.3587622575
 31
0.0
 11
6280.361180847022
 21
11618.22320740484
 31
0.0
 11
6280.715844178931
 21
11621.08675238958
 31
0.0
 11
6281.078307024195
 21
11623.94931786296
 31
0.0
 11
6281.449018266767
 21
11626.81082509983
 31
0.0
 11
6281.782863740224
 21
11629.33130006584
 31
0.0
 11
6282.12376852487
 21
11631.8508299391
 31
0.0
  0
SPLINE
  5
20B
330
1F
100
AcDbEntity
  8
1
  6
Continuous
 62
     1
100
AcDbSpline
210
0.0
220
0.0
230
1.0
 70
     8
 71
     3
 72
    23
 73
    19
 74
    17
 42
0.0000000001
 43
0.0000000001
 44
0.00000001
 40
0.0
 40
0.0
 40
0.0
 40
0.0
 40
21.21848471274913
 40
42.43696942550483
 40
44.79612012765016
 40
47.1552704527776
 40
49.51442061461376
 40
51.87357087262848
 40
54.23272866196073
 40
56.5918864435632
 40
58.95104407079226
 40
61.31020163287752
 40
63.46227064758835
 40
65.61433954414072
 40
67.76640917983582
 40
69.91847885646484
 40
73.99804901333229
 40
78.07761917025181
 40
78.07761917025181
 40
78.07761917025181
 40
78.07761917025181
 10
5784.7007855291
 20
11561.6296179922
 30
0.0
 10
5784.080317833527
 20
11568.6752375182
 30
0.0
 10
5782.839382442381
 20
11582.76647657021
 30
0.0
 10
5781.310849006404
 20
11597.62080108807
 30
0.0
 10
5780.359368053572
 20
11606.21387443932
 30
0.0
 10
5780.09556799232
 20
11608.55823136143
 30
0.0
 10
5779.827559762569
 20
11610.9021099372
 30
0.0
 10
5779.555168755997
 20
11613.24548607618
 30
0.0
 10
5779.27825632176
 20
11615.58833480874
 30
0.0
 10
5778.996674336145
 20
11617.93062949954
 30
0.0
 10
5778.710278005573
 20
11620.27234042443
 30
0.0
 10
5778.427445488512
 20
11622.54493815905
 30
0.0
 10
5778.148544648792
 20
11624.74845800222
 30
0.0
 10
5777.873865369443
 20
11626.88292735032
 30
0.0
 10
5777.594601497686
 20
11629.01680271207
 30
0.0
 10
5777.225531718153
 20
11631.78689481817
 30
0.0
 10
5776.761293218092
 20
11635.1924896134
 30
0.0
 10
5776.377396100865
 20
11637.88497783326
 30
0.0
 10
5776.18544754225
 20
11639.2312219432
 30
0.0
 11
5784.7007855291
 21
11561.6296179922
 31
0.0
 11
5782.787607669201
 21
11582.76167525082
 31
0.0
 11
5780.618396719216
 21
11603.86898719147
 31
0.0
 11
5780.35867362262
 21
11606.21379762059
 31
0.0
 11
5780.094866622011
 21
11608.55815171564
 31
0.0
 11
5779.826829351328
 21
11610.90202575399
 31
0.0
 11
5779.554415526261
 21
11613.2453952613
 31
0.0
 11
5779.277478110929
 21
11615.58824206443
 31
0.0
 11
5778.9958719376
 21
11617.93053226883
 31
0.0
 11
5778.709451104271
 21
11620.27223844518
 31
0.0
 11
5778.418069787925
 21
11622.61333249097
 31
0.0
 11
5778.147803581833
 21
11624.74836345607
 31
0.0
 11
5777.873101307159
 21
11626.8828280718
 31
0.0
 11
5777.593776006111
 21
11629.01669336583
 31
0.0
 11
5777.309641092919
 21
11631.14992360286
 31
0.0
 11
5776.757155567674
 21
11635.19190979892
 31
0.0
 11
5776.18544754225
 21
11639.2312219432
 31
0.0
  0
SPLINE
  5
20C
330
1F
100
AcDbEntity
  8
0
  6
Continuous
 62
     7
100
AcDbSpline
210
0.0
220
0.0
230
1.0
 70
     8
 71
     3
 72
    11
 73
     7
 74
     5
 42
0.0000000001
 43
0.0000000001
 44
0.00000001
 40
0.0
 40
0.0
 40
0.0
 40
0.0
 40
27.42850180184405
 40
54.85700360367484
 40
59.3638386580545
 40
63.87067371238511
 40
63.87067371238511
 40
63.87067371238511
 40
63.87067371238511
 10
5769.73690254309
 20
11560.780479699
 30
0.0
 10
5768.927453499105
 20
11569.88754695467
 30
0.0
 10
5767.308555411133
 20
11588.10168146601
 30
0.0
 10
5765.158926023325
 20
11607.77443129679
 30
0.0
 10
5763.691987373234
 20
11619.83293695631
 30
0.0
 10
5763.313174807512
 20
11622.81352426678
 30
0.0
 10
5763.12376852465
 20
11624.303817922
 30
0.0
 11
5769.73690254309
 21
11560.780479699
 31
0.0
 11
5767.216671940199
 21
11588.09295210268
 31
0.0
 11
5764.233668806657
 21
11615.3587622575
 31
0.0
 11
5763.687993020331
 21
11619.8324408494
 31
0.0
 11
5763.12376852465
 21
11624.303817922
 31
0.0
  0
SPLINE
  5
20D
330
1F
100
AcDbEntity
  8
0
  6
Continuous
 62
     1
100
AcDbSpline
210
0.0
220
0.0
230
1.0
 70
     8
 71
     3
 72
    37
 73
    33
 74
    31
 42
0.0000000001
 43
0.0000000001
 44
0.00000001
 40
0.0
 40
0.0
 40
0.0
 40
0.0
 40
2.484539103892661
 40
4.96907775900131
 40
6.017895196312653
 40
7.066712487072783
 40
8.058077312577904
 40
9.049441375751288
 40
9.97196628293516
 40
10.89449279341068
 40
11.73682768062587
 40
12.57915619044534
 40
12.94252692319574
 40
13.30589772025118
 40
13.68528298498488
 40
14.06466745456444
 40
14.38051842144593
 40
14.69637093141492
 40
15.01596636146099
 40
15.33555611320227
 40
15.69399885439682
 40
16.05247176714123
 40
16.35820035529945
 40
16.66383778189889
 40
16.914949866104
 40
17.16631130373985
 40
17.34245825444048
 40
17.51805065591278
 40
17.63648939413841
 40
17.75599988041756
 40
17.90203621478494
 40
18.04552546309476
 40
18.04552546309476
 40
18.04552546309476
 40
18.04552546309476
 10
6299.40344782211
 20
13256.691221385
 30
0.0
 10
6300.22976773717
 20
13256.63565517799
 30
0.0
 10
6301.88240741803
 20
13256.524522774
 30
0.0
 10
6303.885477949358
 20
13256.41567419499
 30
0.0
 10
6305.411175312279
 20
13256.34372707575
 30
0.0
 10
6306.439938113148
 20
13256.30046651486
 30
0.0
 10
6307.449770619069
 20
13256.26320456007
 30
0.0
 10
6308.417718404647
 20
13256.23285558522
 30
0.0
 10
6309.362887852595
 20
13256.2087298063
 30
0.0
 10
6310.25852623127
 20
13256.19158781632
 30
0.0
 10
6311.127530596478
 20
13256.18089871668
 30
0.0
 10
6311.810210876723
 20
13256.17782047807
 30
0.0
 10
6312.333234442961
 20
13256.17885183574
 30
0.0
 10
6312.701937357526
 20
13256.1811720336
 30
0.0
 10
6313.075962712137
 20
13256.18533603454
 30
0.0
 10
6313.434121746358
 20
13256.19132090028
 30
0.0
 10
6313.771068191625
 20
13256.19886875342
 30
0.0
 10
6314.088043272709
 20
13256.20782619208
 30
0.0
 10
6314.406198842722
 20
13256.21891226828
 30
0.0
 10
6314.738443891736
 20
13256.23306076119
 30
0.0
 10
6315.083486980243
 20
13256.25099695818
 30
0.0
 10
6315.423671992805
 20
13256.27293955166
 30
0.0
 10
6315.745972241429
 20
13256.29823833781
 30
0.0
 10
6316.032161682035
 20
13256.32576807567
 30
0.0
 10
6316.299738853388
 20
13256.35701166838
 30
0.0
 10
6316.523690684454
 20
13256.38899731802
 30
0.0
 10
6316.721914944713
 20
13256.42287231044
 30
0.0
 10
6316.87514408693
 20
13256.45559025131
 30
0.0
 10
6317.00879198717
 20
13256.49066473016
 30
0.0
 10
6317.129487506882
 20
13256.53048158183
 30
0.0
 10
6317.262431975273
 20
13256.57633191087
 30
0.0
 10
6317.32403433704
 20
13256.65315014541
 30
0.0
 10
6317.35456454616
 20
13256.6912213605
 30
0.0
 11
6299.40344782211
 21
13256.691221385
 31
0.0
 11
6301.882739943951
 21
13256.52983633815
 31
0.0
 11
6304.363555649952
 21
13256.39387398457
 31
0.0
 11
6305.411215783795
 21
13256.34461689611
 31
0.0
 11
6306.459108412853
 21
13256.30058568714
 31
0.0
 11
6307.44980231619
 21
13256.26411916634
 31
0.0
 11
6308.440682006181
 21
13256.23313294819
 31
0.0
 11
6309.362909534566
 21
13256.20971094434
 31
0.0
 11
6310.285269366872
 21
13256.19217520145
 31
0.0
 11
6311.12754270297
 21
13256.1819923964
 31
0.0
 11
6311.969863431861
 21
13256.17837188064
 31
0.0
 11
6312.33323340778
 21
13256.17911351394
 31
0.0
 11
6312.696596851453
 21
13256.18142521351
 31
0.0
 11
6313.07595816045
 21
13256.18568858466
 31
0.0
 11
6313.455289003903
 21
13256.19206721799
 31
0.0
 11
6313.77105994386
 21
13256.19917684237
 31
0.0
 11
6314.086785391026
 21
13256.20813508246
 31
0.0
 11
6314.406184912344
 21
13256.21932367881
 31
0.0
 11
6314.725482754302
 21
13256.23298008898
 31
0.0
 11
6315.08343420762
 21
13256.25174057359
 31
0.0
 11
6315.441153889899
 21
13256.27496681051
 31
0.0
 11
6315.745925907827
 21
13256.29913262739
 31
0.0
 11
6316.05013563483
 21
13256.3286398898
 31
0.0
 11
6316.299517747098
 21
13256.35806506464
 31
0.0
 11
6316.548314909785
 21
13256.39387769048
 31
0.0
 11
6316.721852050251
 21
13256.42408711153
 31
0.0
 11
6316.893485311357
 21
13256.46116426267
 31
0.0
 11
6317.007923550264
 21
13256.49168678203
 31
0.0
 11
6317.121725111001
 21
13256.52818282435
 31
0.0
 11
6317.254991509977
 21
13256.58790449428
 31
0.0
 11
6317.35456454616
 21
13256.6912213605
 31
0.0
  0
SPLINE
  5
20E
330
1F
100
AcDbEntity
  8
0
  6
Continuous
 62
     1
100
AcDbSpline
210
0.0
220
0.0
230
1.0
 70
     8
 71
     3
 72
    19
 73
    15
 74
    13
 42
0.0000000001
 43
0.0000000001
 44
0.00000001
 40
0.0
 40
0.0
 40
0.0
 40
0.0
 40
4.202299690025498
 40
8.404583268953562
 40
9.023862965039347
 40
9.643139951529056
 40
10.22551229793578
 40
10.80788414355006
 40
10.97905133892035
 40
11.15021842632698
 40
11.29257390237727
 40
11.43492938126063
 40
11.54072725405437
 40
11.6465251268935
 40
11.6465251268935
 40
11.6465251268935
 40
11.6465251268935
 10
6317.35456454616
 20
13256.6912213605
 30
0.0
 10
6317.798146456525
 20
13258.02002565416
 30
0.0
 10
6318.685308576617
 20
13260.67762914703
 30
0.0
 10
6319.514305162042
 20
13263.57015993678
 30
0.0
 10
6319.983295714903
 20
13265.32206820824
 30
0.0
 10
6320.137156126761
 20
13265.90922520072
 30
0.0
 10
6320.285051814812
 20
13266.48521618497
 30
0.0
 10
6320.393702474666
 20
13266.91706384117
 30
0.0
 10
6320.467969896247
 20
13267.21621836045
 30
0.0
 10
6320.506673096839
 20
13267.37307743002
 30
0.0
 10
6320.542883100547
 20
13267.52065957452
 30
0.0
 10
6320.57374796363
 20
13267.6471170564
 30
0.0
 10
6320.601611821055
 20
13267.76176335557
 30
0.0
 10
6320.618192152331
 20
13267.83031876639
 30
0.0
 10
6320.62648231797
 20
13267.8645964718
 30
0.0
 11
6317.35456454616
 21
13256.6912213605
 31
0.0
 11
6318.656545917906
 21
13260.68673974895
 31
0.0
 11
6319.822702682048
 21
13264.72397465407
 31
0.0
 11
6319.982768745862
 21
13265.32221055838
 31
0.0
 11
6320.139765245613
 21
13265.92125653747
 31
0.0
 11
6320.284594854666
 21
13266.48533271512
 31
0.0
 11
6320.426688712508
 21
13267.05010373255
 31
0.0
 11
6320.467930268755
 21
13267.21622821241
 31
0.0
 11
6320.508934279448
 21
13267.38241137317
 31
0.0
 11
6320.542855227766
 21
13267.52066639415
 31
0.0
 11
6320.576611643255
 21
13267.65896168251
 31
0.0
 11
6320.60159257749
 21
13267.76176801895
 31
0.0
 11
6320.62648231797
 21
13267.8645964718
 31
0.0
  0
SPLINE
  5
20F
330
1F
100
AcDbEntity
  8
0
  6
Continuous
 62
     1
100
AcDbSpline
210
0.0
220
0.0
230
1.0
 70
     8
 71
     3
 72
    43
 73
    39
 74
    37
 42
0.0000000001
 43
0.0000000001
 44
0.00000001
 40
0.0
 40
0.0
 40
0.0
 40
0.0
 40
34.62455098978301
 40
69.24909815134865
 40
86.99963908116327
 40
104.7501806487679
 40
121.6290948145333
 40
138.508007881633
 40
156.1425516100943
 40
173.7771020139933
 40
190.7755832906487
 40
207.7740349452714
 40
216.4327505552122
 40
225.0914609635156
 40
233.7501209566964
 40
242.4087822131756
 40
250.982887084942
 40
259.5569916556725
 40
268.3005169471324
 40
277.0440425819198
 40
285.7873772798536
 40
294.5307116343351
 40
303.1050071412162
 40
311.6793029497646
 40
320.3382175665905
 40
328.9971309195838
 40
337.6555879675595
 40
346.3140502165975
 40
363.3125045138808
 40
380.3109884342615
 40
397.945536191173
 40
415.5800772723123
 40
432.4589761432662
 40
449.3378761129376
 40
467.0884318678019
 40
484.8389869850118
 40
519.4635341350988
 40
554.0880851125692
 40
554.0880851125692
 40
554.0880851125692
 40
554.0880851125692
 10
5745.88256814656
 20
13256.691221385
 30
0.0
 10
5757.39693862487
 20
13257.4827016751
 30
0.0
 10
5780.425678308417
 20
13259.06566216779
 30
0.0
 10
5809.370552521097
 20
13260.85534115073
 30
0.0
 10
5832.707702565084
 20
13262.18920588094
 30
0.0
 10
5850.142903576767
 20
13263.12033336145
 30
0.0
 10
5867.29137918178
 20
13263.96972428078
 30
0.0
 10
5884.404549351563
 20
13264.74761582463
 30
0.0
 10
5901.772684385662
 20
13265.45984950217
 30
0.0
 10
5919.183900692831
 20
13266.08951998282
 30
0.0
 10
5936.386139931489
 20
13266.62480903687
 30
0.0
 10
5950.599984749479
 20
13266.99338320902
 30
0.0
 10
5962.035895853463
 20
13267.24315204541
 30
0.0
 10
5970.69303496953
 20
13267.40794063013
 30
0.0
 10
5979.35059022625
 20
13267.54805339218
 30
0.0
 10
5987.980314907089
 20
13267.66280357638
 30
0.0
 10
5996.582153048921
 20
13267.75216658229
 30
0.0
 10
6005.212502570615
 20
13267.81666519931
 30
0.0
 10
6013.899479219361
 20
13267.85582301302
 30
0.0
 10
6022.64294436437
 20
13267.86898310521
 30
0.0
 10
6031.38634586348
 20
13267.85582339698
 30
0.0
 10
6040.073258870088
 20
13267.81666672335
 30
0.0
 10
6048.703672042358
 20
13267.75216847304
 30
0.0
 10
6057.305721920879
 20
13267.6628035452
 30
0.0
 10
6065.935679129588
 20
13267.54804989896
 30
0.0
 10
6074.593318811749
 20
13267.40793467769
 30
0.0
 10
6083.250373467978
 20
13267.24314662895
 30
0.0
 10
6094.686116574712
 20
13266.993380999
 30
0.0
 10
6108.899878728584
 20
13266.62480896408
 30
0.0
 10
6126.102118845956
 20
13266.08951986232
 30
0.0
 10
6143.51333426945
 20
13265.45984939404
 30
0.0
 10
6160.881462811888
 20
13264.74761597641
 30
0.0
 10
6177.994622647119
 20
13263.96972493351
 30
0.0
 10
6195.143093527106
 20
13263.12033433427
 30
0.0
 10
6212.578299262574
 20
13262.18920668067
 30
0.0
 10
6235.915458747381
 20
13260.85534144171
 30
0.0
 10
6264.860337672364
 20
13259.06566216858
 30
0.0
 10
6287.889077347929
 20
13257.48270167536
 30
0.0
 10
6299.40344782211
 20
13256.691221385
 30
0.0
 11
5745.88256814656
 21
13256.691221385
 31
0.0
 11
5780.428307162706
 21
13259.02605479927
 31
0.0
 11
5814.986601590863
 21
13261.16697804878
 31
0.0
 11
5832.708317545225
 21
13262.17815900881
 31
0.0
 11
5850.433634793234
 21
13263.12412645048
 31
0.0
 11
5867.291923638737
 21
13263.95829706664
 31
0.0
 11
5884.153461058288
 21
13264.72397465922
 31
0.0
 11
5901.77323185919
 21
13265.44564593807
 31
0.0
 11
5919.396293232396
 21
13266.08210157979
 31
0.0
 11
5936.386571297832
 21
13266.6101328023
 31
0.0
 11
5953.379328114594
 21
13267.05010373425
 31
0.0
 11
5962.035980718968
 21
13267.23910558876
 31
0.0
 11
5970.693124147908
 21
13267.40382834258
 31
0.0
 11
5979.35065127451
 21
13267.5438887926
 31
0.0
 11
5988.008547842634
 21
13267.65896168309
 31
0.0
 11
5996.582190379853
 21
13267.74800097792
 31
0.0
 11
6005.156055747545
 21
13267.81204663756
 31
0.0
 11
6013.899492262026
 21
13267.85144764822
 31
0.0
 11
6022.643008009974
 21
13267.86459647175
 31
0.0
 11
6031.386332821718
 21
13267.85144822283
 31
0.0
 11
6040.129578405025
 21
13267.81204893061
 31
0.0
 11
6048.703634709799
 21
13267.74800268257
 31
0.0
 11
6057.27746817639
 21
13267.65896168273
 31
0.0
 11
6065.935618077597
 21
13267.54388505729
 31
0.0
 11
6074.593398513241
 21
13267.40381941978
 31
0.0
 11
6083.250288607251
 21
13267.2391004109
 31
0.0
 11
6091.906687903363
 21
13267.05010373296
 31
0.0
 11
6108.899447361707
 21
13266.61013272515
 31
0.0
 11
6125.889728068971
 21
13266.08210140049
 31
0.0
 11
6143.512786796191
 21
13265.4456458343
 31
0.0
 11
6161.132554951719
 21
13264.72397465721
 31
0.0
 11
6177.99407819107
 21
13263.95829773794
 31
0.0
 11
6194.852352861934
 21
13263.12412790639
 31
0.0
 11
6212.577684281396
 21
13262.17815979022
 31
0.0
 11
6230.299414401561
 21
13261.16697804735
 31
0.0
 11
6264.857708818324
 21
13259.02605479955
 31
0.0
 11
6299.40344782211
 21
13256.691221385
 31
0.0
  0
SPLINE
  5
210
330
1F
100
AcDbEntity
  8
0
  6
Continuous
 62
     1
100
AcDbSpline
210
0.0
220
0.0
230
1.0
 70
     8
 71
     3
 72
    47
 73
    43
 74
    41
 42
0.0000000001
 43
0.0000000001
 44
0.00000001
 40
0.0
 40
0.0
 40
0.0
 40
0.0
 40
0.143488944103364
 40
0.2895246845387436
 40
0.4090334071402835
 40
0.527473318411899
 40
0.7030747757480164
 40
0.8792110745380811
 40
1.0717944992159
 40
1.264200646466282
 40
1.467856273267966
 40
1.671564572383714
 40
1.902578300284541
 40
2.133575083740776
 40
2.421772872168071
 40
2.709978107652044
 40
3.029575753214703
 40
3.349171281925627
 40
3.665019346789418
 40
3.980867855529919
 40
4.320516764079521
 40
4.660165715908548
 40
5.06327327070632
 40
5.466381048159801
 40
5.852170060950636
 40
6.237958998332632
 40
6.691272081317988
 40
7.14458534973653
 40
7.571749390982045
 40
7.998913309067596
 40
8.494939151782738
 40
8.99096541529033
 40
9.985154237976554
 40
10.97934575254971
 40
12.02791112610575
 40
13.07647512428101
 40
13.72342838088684
 40
14.37038118109184
 40
14.95190386139546
 40
15.53342663668971
 40
16.78949379782117
 40
18.04556067574447
 40
18.04556067574447
 40
18.04556067574447
 40
18.04556067574447
 10
5727.9314514211
 20
13256.6912213605
 30
0.0
 10
5727.961981564315
 20
13256.65315022564
 30
0.0
 10
5728.023583732611
 20
13256.57633222844
 30
0.0
 10
5728.156527286888
 20
13256.53048212301
 30
0.0
 10
5728.277222251735
 20
13256.49066484039
 30
0.0
 10
5728.410873064121
 20
13256.45558992007
 30
0.0
 10
5728.564101759843
 20
13256.42287288955
 30
0.0
 10
5728.743008681858
 20
13256.39229963707
 30
0.0
 10
5728.928073751587
 20
13256.36514895564
 30
0.0
 10
5729.122776920763
 20
13256.34072104365
 30
0.0
 10
5729.321546443724
 20
13256.31920409062
 30
0.0
 10
5729.533414955376
 20
13256.29933310733
 30
0.0
 10
5729.754588087363
 20
13256.28124769896
 30
0.0
 10
5730.004036189403
 20
13256.26357451463
 30
0.0
 10
5730.27268079327
 20
13256.24727952386
 30
0.0
 10
5730.570963557489
 20
13256.23206464043
 30
0.0
 10
5730.879820015824
 20
13256.21891226657
 30
0.0
 10
5731.197976688774
 20
13256.20782619903
 30
0.0
 10
5731.514949496299
 20
13256.19886809826
 30
0.0
 10
5731.83865173805
 20
13256.19161709714
 30
0.0
 10
5732.170320698733
 20
13256.18597012971
 30
0.0
 10
5732.53109792604
 20
13256.1816469116
 30
0.0
 10
5732.91304492465
 20
13256.17895634987
 30
0.0
 10
5733.31038015637
 20
13256.17809076403
 30
0.0
 10
5733.701942250852
 20
13256.17891266926
 30
0.0
 10
5734.110232900076
 20
13256.18135034842
 30
0.0
 10
5734.54101833136
 20
13256.18558982574
 30
0.0
 10
5734.985574341894
 20
13256.19168646031
 30
0.0
 10
5735.42139124623
 20
13256.19917136455
 30
0.0
 10
5735.871416809439
 20
13256.2083234184
 30
0.0
 10
5736.344358700674
 20
13256.21945783761
 30
0.0
 10
5737.006202619715
 20
13256.23718280656
 30
0.0
 10
5737.833937065181
 20
13256.26311977303
 30
0.0
 10
5738.845568576553
 20
13256.30044144214
 30
0.0
 10
5739.875102747854
 20
13256.34375378361
 30
0.0
 10
5740.788788973262
 20
13256.38676350772
 30
0.0
 10
5741.568605191973
 20
13256.42642729123
 30
0.0
 10
5742.192849800585
 20
13256.45994347359
 30
0.0
 10
5742.795229737116
 20
13256.49385047609
 30
0.0
 10
5743.60021126968
 20
13256.54116884424
 30
0.0
 10
5744.629448276182
 20
13256.6051913879
 30
0.0
 10
5745.464861554494
 20
13256.66254472146
 30
0.0
 10
5745.88256814656
 20
13256.691221385
 30
0.0
 11
5727.9314514211
 21
13256.6912213605
 31
0.0
 11
5728.031024242557
 21
13256.58790470982
 31
0.0
 11
5728.164290030581
 21
13256.52818312891
 31
0.0
 11
5728.278089804812
 21
13256.4916872913
 31
0.0
 11
5728.392529214154
 21
13256.4611646084
 31
0.0
 11
5728.564171492947
 21
13256.42408631354
 31
0.0
 11
5728.737698044575
 21
13256.39387817505
 31
0.0
 11
5728.928224185497
 21
13256.36580389703
 31
0.0
 11
5729.119116242691
 21
13256.341713484
 31
0.0
 11
5729.321577483359
 21
13256.3196893982
 31
0.0
 11
5729.524385717712
 21
13256.30056111529
 31
0.0
 11
5729.754625258476
 21
13256.28166412221
 31
0.0
 11
5729.985039478574
 21
13256.2652689661
 31
0.0
 11
5730.272703751723
 21
13256.24774095402
 31
0.0
 11
5730.560530744982
 21
13256.23298020499
 31
0.0
 11
5730.879836478376
 21
13256.2193235703
 31
0.0
 11
5731.199236096123
 21
13256.2081349084
 31
0.0
 11
5731.514957087335
 21
13256.19917634902
 31
0.0
 11
5731.830725580253
 21
13256.1920672454
 31
0.0
 11
5732.170324762788
 21
13256.18625550727
 31
0.0
 11
5732.5099489738
 21
13256.18215602271
 31
0.0
 11
5732.913046291972
 21
13256.17928325103
 31
0.0
 11
5733.316153039184
 21
13256.1783718806
 31
0.0
 11
5733.701941243711
 21
13256.17916158779
 31
0.0
 11
5734.087723424646
 21
13256.18144480465
 31
0.0
 11
5734.541014787178
 21
13256.18588235576
 31
0.0
 11
5734.994285753899
 21
13256.19207509765
 31
0.0
 11
5735.421387049721
 21
13256.19939638442
 31
0.0
 11
5735.848462944278
 21
13256.20806778585
 31
0.0
 11
5736.3443517818
 21
13256.21972529254
 31
0.0
 11
5736.840200716566
 21
13256.23298756916
 31
0.0
 11
5737.833904506581
 21
13256.26403902425
 31
0.0
 11
5738.827423303946
 21
13256.30060631747
 31
0.0
 11
5739.875064298183
 21
13256.34462551571
 31
0.0
 11
5740.922471093145
 21
13256.39387451709
 31
0.0
 11
5741.568589480301
 21
13256.4267309626
 31
0.0
 11
5742.214612340113
 21
13256.46140646251
 31
0.0
 11
5742.795215778023
 21
13256.49409094804
 31
0.0
 11
5743.37573833816
 21
13256.52818340113
 31
0.0
 11
5744.629359532391
 21
13256.60653271285
 31
0.0
 11
5745.88256814656
 21
13256.691221385
 31
0.0
  0
SPLINE
  5
211
330
1F
100
AcDbEntity
  8
0
  6
Continuous
 62
     1
100
AcDbSpline
210
0.0
220
0.0
230
1.0
 70
     8
 71
     3
 72
    19
 73
    15
 74
    13
 42
0.0000000001
 43
0.0000000001
 44
0.00000001
 40
0.0
 40
0.0
 40
0.0
 40
0.0
 40
0.1057978726776743
 40
0.211595745342755
 40
0.3539535247914104
 40
0.4963113013936544
 40
0.6674760883648465
 40
0.8386409832946559
 40
1.420983650793219
 40
2.003326819098509
 40
2.622632983301399
 40
3.24194185746519
 40
7.444225435669507
 40
11.64652512686432
 40
11.64652512686432
 40
11.64652512686432
 40
11.64652512686432
 10
5724.65953364933
 20
13267.8645964718
 30
0.0
 10
5724.667823814932
 20
13267.83031876643
 30
0.0
 10
5724.684404146137
 20
13267.7617633557
 30
0.0
 10
5724.712268184821
 20
13267.64711631151
 30
0.0
 10
5724.743133412791
 20
13267.52065734
 30
0.0
 10
5724.779343603463
 20
13267.37307445173
 30
0.0
 10
5724.818046624829
 20
13267.21621612772
 30
0.0
 10
5724.892311336212
 20
13266.91707253705
 30
0.0
 10
5725.000957010192
 20
13266.48524447573
 30
0.0
 10
5725.148850069707
 20
13265.90926285852
 30
0.0
 10
5725.302712733051
 20
13265.32209640123
 30
0.0
 10
5725.77170811418
 20
13263.5701692862
 30
0.0
 10
5726.600707394434
 20
13260.6776291491
 30
0.0
 10
5727.487869511933
 20
13258.02002565506
 30
0.0
 10
5727.9314514211
 20
13256.6912213605
 30
0.0
 11
5724.65953364933
 21
13267.8645964718
 31
0.0
 11
5724.68442338974
 21
13267.7617680191
 31
0.0
 11
5724.709404324051
 21
13267.65896168281
 31
0.0
 11
5724.743161286458
 21
13267.52066415984
 31
0.0
 11
5724.777082786917
 21
13267.38240690554
 31
0.0
 11
5724.818086251256
 21
13267.21622597941
 31
0.0
 11
5724.859327254759
 21
13267.05010373259
 31
0.0
 11
5725.001413924695
 21
13266.48536099416
 31
0.0
 11
5725.146236072383
 21
13265.92131302527
 31
0.0
 11
5725.303239751787
 21
13265.3222387647
 31
0.0
 11
5725.463313285085
 21
13264.7239746545
 31
0.0
 11
5726.629470048974
 21
13260.68673975005
 31
0.0
 11
5727.9314514211
 21
13256.6912213605
 31
0.0
  0
SPLINE
  5
212
330
1F
100
AcDbEntity
  8
0
  6
Continuous
 62
     1
100
AcDbSpline
210
0.0
220
0.0
230
1.0
 70
     8
 71
     3
 72
    19
 73
    15
 74
    13
 42
0.0000000001
 43
0.0000000001
 44
0.00000001
 40
0.0
 40
0.0
 40
0.0
 40
0.0
 40
0.1057978726776743
 40
0.2115957453445226
 40
0.3539535247951607
 40
0.4963113013940882
 40
0.6674760883666105
 40
0.8386409832931082
 40
1.420983650791672
 40
2.003326819100259
 40
2.62263298330162
 40
3.241941857465881
 40
7.44422543567146
 40
11.64652512686402
 40
11.64652512686402
 40
11.64652512686402
 40
11.64652512686402
 10
6930.53099600051
 20
13267.8645964718
 30
0.0
 10
6930.539286166112
 20
13267.83031876643
 30
0.0
 10
6930.55586649732
 20
13267.76176335571
 30
0.0
 10
6930.583730535999
 20
13267.6471163115
 30
0.0
 10
6930.614595763974
 20
13267.52065734
 30
0.0
 10
6930.650805954645
 20
13267.37307445173
 30
0.0
 10
6930.689508976009
 20
13267.21621612772
 30
0.0
 10
6930.763773687388
 20
13266.91707253704
 30
0.0
 10
6930.872419361377
 20
13266.48524447574
 30
0.0
 10
6931.020312420885
 20
13265.90926285852
 30
0.0
 10
6931.174175084233
 20
13265.32209640123
 30
0.0
 10
6931.643170465364
 20
13263.57016928619
 30
0.0
 10
6932.472169745621
 20
13260.6776291491
 30
0.0
 10
6933.359331863114
 20
13258.02002565505
 30
0.0
 10
6933.80291377228
 20
13256.6912213605
 30
0.0
 11
6930.53099600051
 21
13267.8645964718
 31
0.0
 11
6930.55588574092
 21
13267.7617680191
 31
0.0
 11
6930.580866675231
 21
13267.6589616828
 31
0.0
 11
6930.614623637639
 21
13267.52066415984
 31
0.0
 11
6930.648545138099
 21
13267.38240690554
 31
0.0
 11
6930.689548602436
 21
13267.21622597941
 31
0.0
 11
6930.730789605939
 21
13267.0501037326
 31
0.0
 11
6930.872876275876
 21
13266.48536099416
 31
0.0
 11
6931.017698423562
 21
13265.92131302526
 31
0.0
 11
6931.174702102968
 21
13265.3222387647
 31
0.0
 11
6931.334775636267
 21
13264.7239746545
 31
0.0
 11
6932.500932400161
 21
13260.68673975005
 31
0.0
 11
6933.80291377228
 21
13256.6912213605
 31
0.0
  0
SPLINE
  5
213
330
1F
100
AcDbEntity
  8
0
  6
Continuous
 62
     1
100
AcDbSpline
210
0.0
220
0.0
230
1.0
 70
     8
 71
     3
 72
    47
 73
    43
 74
    41
 42
0.0000000001
 43
0.0000000001
 44
0.00000001
 40
0.0
 40
0.0
 40
0.0
 40
0.0
 40
0.1434889441020068
 40
0.289524684539618
 40
0.4090334071432005
 40
0.5274733184178624
 40
0.7030747757569099
 40
0.8792110745451427
 40
1.071794499218094
 40
1.264200646467573
 40
1.467856273266152
 40
1.671564572384052
 40
1.902578300287301
 40
2.133575083746386
 40
2.421772872171866
 40
2.709978107653114
 40
3.029575753218499
 40
3.349171281930395
 40
3.665019346794135
 40
3.980867855531908
 40
4.320516764083298
 40
4.660165715913235
 40
5.063273270709214
 40
5.466381048160875
 40
5.852170060954443
 40
6.23795899833735
 40
6.691272081323632
 40
7.144585349738536
 40
7.571749390986749
 40
7.998913309075101
 40
8.494939151788296
 40
8.990965415294118
 40
9.985154237976763
 40
10.97934575254803
 40
12.02791112610513
 40
13.07647512428213
 40
13.72342838088868
 40
14.37038118109922
 40
14.95190386140033
 40
15.53342663669308
 40
16.78949379782897
 40
18.04556067574338
 40
18.04556067574338
 40
18.04556067574338
 40
18.04556067574338
 10
6933.80291377228
 20
13256.6912213605
 30
0.0
 10
6933.833443915495
 20
13256.65315022565
 30
0.0
 10
6933.895046083793
 20
13256.57633222844
 30
0.0
 10
6934.027989638071
 20
13256.530482123
 30
0.0
 10
6934.148684602918
 20
13256.49066484038
 30
0.0
 10
6934.282335415311
 20
13256.45558992008
 30
0.0
 10
6934.43556411103
 20
13256.42287288954
 30
0.0
 10
6934.614471033045
 20
13256.39229963707
 30
0.0
 10
6934.799536102773
 20
13256.36514895564
 30
0.0
 10
6934.994239271946
 20
13256.34072104365
 30
0.0
 10
6935.193008794905
 20
13256.31920409062
 30
0.0
 10
6935.404877306556
 20
13256.29933310732
 30
0.0
 10
6935.626050438549
 20
13256.28124769897
 30
0.0
 10
6935.875498540589
 20
13256.26357451463
 30
0.0
 10
6936.144143144455
 20
13256.24727952386
 30
0.0
 10
6936.442425908674
 20
13256.23206464043
 30
0.0
 10
6936.751282367009
 20
13256.21891226657
 30
0.0
 10
6937.06943903996
 20
13256.20782619902
 30
0.0
 10
6937.386411847484
 20
13256.19886809826
 30
0.0
 10
6937.710114089236
 20
13256.19161709713
 30
0.0
 10
6938.041783049915
 20
13256.18597012971
 30
0.0
 10
6938.402560277226
 20
13256.1816469116
 30
0.0
 10
6938.784507275837
 20
13256.17895634988
 30
0.0
 10
6939.181842507553
 20
13256.17809076403
 30
0.0
 10
6939.57340460204
 20
13256.17891266927
 30
0.0
 10
6939.98169525126
 20
13256.18135034842
 30
0.0
 10
6940.412480682546
 20
13256.18558982574
 30
0.0
 10
6940.857036693078
 20
13256.19168646031
 30
0.0
 10
6941.292853597417
 20
13256.19917136455
 30
0.0
 10
6941.742879160627
 20
13256.2083234184
 30
0.0
 10
6942.215821051857
 20
13256.2194578376
 30
0.0
 10
6942.877664970903
 20
13256.23718280657
 30
0.0
 10
6943.705399416362
 20
13256.26311977303
 30
0.0
 10
6944.717030927737
 20
13256.30044144214
 30
0.0
 10
6945.746565099031
 20
13256.34375378361
 30
0.0
 10
6946.660251324445
 20
13256.38676350773
 30
0.0
 10
6947.440067543157
 20
13256.42642729123
 30
0.0
 10
6948.064312151773
 20
13256.45994347359
 30
0.0
 10
6948.666692088301
 20
13256.4938504761
 30
0.0
 10
6949.471673620867
 20
13256.54116884424
 30
0.0
 10
6950.500910627364
 20
13256.60519138798
 30
0.0
 10
6951.336323905676
 20
13256.66254472148
 30
0.0
 10
6951.75403049774
 20
13256.691221385
 30
0.0
 11
6933.80291377228
 21
13256.6912213605
 31
0.0
 11
6933.902486593738
 21
13256.58790470983
 31
0.0
 11
6934.035752381763
 21
13256.52818312891
 31
0.0
 11
6934.149552155996
 21
13256.4916872913
 31
0.0
 11
6934.263991565342
 21
13256.4611646084
 31
0.0
 11
6934.435633844137
 21
13256.42408631354
 31
0.0
 11
6934.609160395764
 21
13256.39387817505
 31
0.0
 11
6934.79968653668
 21
13256.36580389703
 31
0.0
 11
6934.990578593874
 21
13256.341713484
 31
0.0
 11
6935.193039834538
 21
13256.3196893982
 31
0.0
 11
6935.395848068893
 21
13256.30056111529
 31
0.0
 11
6935.62608760966
 21
13256.28166412221
 31
0.0
 11
6935.85650182976
 21
13256.2652689661
 31
0.0
 11
6936.144166102908
 21
13256.24774095402
 31
0.0
 11
6936.431993096165
 21
13256.23298020499
 31
0.0
 11
6936.751298829561
 21
13256.2193235703
 31
0.0
 11
6937.070698447309
 21
13256.20813490839
 31
0.0
 11
6937.386419438521
 21
13256.19917634902
 31
0.0
 11
6937.702187931436
 21
13256.1920672454
 31
0.0
 11
6938.041787113973
 21
13256.18625550727
 31
0.0
 11
6938.381411324985
 21
13256.18215602271
 31
0.0
 11
6938.784508643156
 21
13256.17928325102
 31
0.0
 11
6939.187615390366
 21
13256.1783718806
 31
0.0
 11
6939.573403594896
 21
13256.17916158779
 31
0.0
 11
6939.959185775832
 21
13256.18144480465
 31
0.0
 11
6940.412477138365
 21
13256.18588235576
 31
0.0
 11
6940.865748105082
 21
13256.19207509765
 31
0.0
 11
6941.292849400907
 21
13256.19939638442
 31
0.0
 11
6941.719925295467
 21
13256.20806778585
 31
0.0
 11
6942.215814132987
 21
13256.21972529253
 31
0.0
 11
6942.711663067751
 21
13256.23298756916
 31
0.0
 11
6943.705366857763
 21
13256.26403902425
 31
0.0
 11
6944.698885655125
 21
13256.30060631747
 31
0.0
 11
6945.746526649364
 21
13256.34462551571
 31
0.0
 11
6946.793933444327
 21
13256.39387451709
 31
0.0
 11
6947.440051831484
 21
13256.4267309626
 31
0.0
 11
6948.086074691301
 21
13256.46140646251
 31
0.0
 11
6948.666678129209
 21
13256.49409094804
 31
0.0
 11
6949.247200689344
 21
13256.52818340114
 31
0.0
 11
6950.500821883577
 21
13256.6065327129
 31
0.0
 11
6951.75403049774
 21
13256.691221385
 31
0.0
  0
SPLINE
  5
214
330
1F
100
AcDbEntity
  8
0
  6
Continuous
 62
     1
100
AcDbSpline
210
0.0
220
0.0
230
1.0
 70
     8
 71
     3
 72
    43
 73
    39
 74
    37
 42
0.0000000001
 43
0.0000000001
 44
0.00000001
 40
0.0
 40
0.0
 40
0.0
 40
0.0
 40
34.62455098978676
 40
69.24909815135126
 40
86.99963908116962
 40
104.7501806487743
 40
121.6290948145361
 40
138.5080078816339
 40
156.1425516100944
 40
173.7771020139962
 40
190.7755832906524
 40
207.774034945277
 40
216.4327505552151
 40
225.0914609635185
 40
233.7501209566964
 40
242.4087822131746
 40
250.9828870849396
 40
259.5569916556719
 40
268.3005169471318
 40
277.0440425819202
 40
285.787377279853
 40
294.5307116343319
 40
303.1050071412138
 40
311.6793029497649
 40
320.3382175665955
 40
328.9971309195905
 40
337.6555879675689
 40
346.3140502166069
 40
363.3125045138838
 40
380.3109884342644
 40
397.9455361911714
 40
415.580077272309
 40
432.4589761432655
 40
449.3378761129379
 40
467.088431867804
 40
484.8389869850166
 40
519.4635341351027
 40
554.0880851125676
 40
554.0880851125676
 40
554.0880851125676
 40
554.0880851125676
 10
6951.75403049774
 20
13256.691221385
 30
0.0
 10
6963.268400976051
 20
13257.4827016751
 30
0.0
 10
6986.297140659599
 20
13259.0656621678
 30
0.0
 10
7015.242014872279
 20
13260.85534115072
 30
0.0
 10
7038.579164916271
 20
13262.18920588094
 30
0.0
 10
7056.014365927951
 20
13263.12033336144
 30
0.0
 10
7073.162841532965
 20
13263.96972428078
 30
0.0
 10
7090.276011702746
 20
13264.74761582463
 30
0.0
 10
7107.644146736842
 20
13265.45984950217
 30
0.0
 10
7125.055363044014
 20
13266.08951998282
 30
0.0
 10
7142.257602282672
 20
13266.62480903687
 30
0.0
 10
7156.471447100665
 20
13266.99338320902
 30
0.0
 10
7167.907358204647
 20
13267.24315204541
 30
0.0
 10
7176.564497320712
 20
13267.40794063014
 30
0.0
 10
7185.222052577432
 20
13267.54805339218
 30
0.0
 10
7193.85177725827
 20
13267.66280357637
 30
0.0
 10
7202.453615400099
 20
13267.75216658224
 30
0.0
 10
7211.083964921795
 20
13267.81666519924
 30
0.0
 10
7219.77094157054
 20
13267.85582301297
 30
0.0
 10
7228.514406715551
 20
13267.8689831052
 30
0.0
 10
7237.25780821466
 20
13267.85582339699
 30
0.0
 10
7245.944721221266
 20
13267.81666672335
 30
0.0
 10
7254.575134393538
 20
13267.75216847303
 30
0.0
 10
7263.177184272065
 20
13267.66280354521
 30
0.0
 10
7271.807141480771
 20
13267.54804989895
 30
0.0
 10
7280.464781162937
 20
13267.4079346777
 30
0.0
 10
7289.121835819165
 20
13267.24314662894
 30
0.0
 10
7300.557578925901
 20
13266.99338099901
 30
0.0
 10
7314.771341079768
 20
13266.62480896407
 30
0.0
 10
7331.97358119714
 20
13266.08951986233
 30
0.0
 10
7349.384796620631
 20
13265.45984939404
 30
0.0
 10
7366.752925163066
 20
13264.7476159764
 30
0.0
 10
7383.866084998299
 20
13263.96972493351
 30
0.0
 10
7401.014555878287
 20
13263.12033433427
 30
0.0
 10
7418.449761613757
 20
13262.18920668067
 30
0.0
 10
7441.786921098566
 20
13260.85534144171
 30
0.0
 10
7470.731800023546
 20
13259.06566216858
 30
0.0
 10
7493.760539699112
 20
13257.48270167536
 30
0.0
 10
7505.27491017329
 20
13256.691221385
 30
0.0
 11
6951.75403049774
 21
13256.691221385
 31
0.0
 11
6986.29976951389
 21
13259.02605479927
 31
0.0
 11
7020.858063942046
 21
13261.16697804878
 31
0.0
 11
7038.579779896412
 21
13262.17815900881
 31
0.0
 11
7056.305097144421
 21
13263.12412645048
 31
0.0
 11
7073.16338598992
 21
13263.95829706664
 31
0.0
 11
7090.02492340947
 21
13264.72397465922
 31
0.0
 11
7107.64469421037
 21
13265.44564593807
 31
0.0
 11
7125.267755583579
 21
13266.08210157979
 31
0.0
 11
7142.258033649016
 21
13266.6101328023
 31
0.0
 11
7159.25079046578
 21
13267.05010373425
 31
0.0
 11
7167.907443070151
 21
13267.23910558876
 31
0.0
 11
7176.564586499091
 21
13267.40382834258
 31
0.0
 11
7185.22211362569
 21
13267.5438887926
 31
0.0
 11
7193.880010193813
 21
13267.65896168307
 31
0.0
 11
7202.453652731032
 21
13267.74800097787
 31
0.0
 11
7211.027518098726
 21
13267.8120466375
 31
0.0
 11
7219.770954613206
 21
13267.85144764817
 31
0.0
 11
7228.514470361156
 21
13267.86459647174
 31
0.0
 11
7237.257795172898
 21
13267.85144822283
 31
0.0
 11
7246.001040756203
 21
13267.81204893061
 31
0.0
 11
7254.575097060978
 21
13267.74800268257
 31
0.0
 11
7263.148930527572
 21
13267.65896168273
 31
0.0
 11
7271.807080428783
 21
13267.54388505729
 31
0.0
 11
7280.464860864429
 21
13267.40381941978
 31
0.0
 11
7289.121750958441
 21
13267.2391004109
 31
0.0
 11
7297.778150254554
 21
13267.05010373296
 31
0.0
 11
7314.770909712891
 21
13266.61013272515
 31
0.0
 11
7331.761190420155
 21
13266.0821014005
 31
0.0
 11
7349.384249147371
 21
13265.4456458343
 31
0.0
 11
7367.004017302897
 21
13264.72397465721
 31
0.0
 11
7383.865540542251
 21
13263.95829773794
 31
0.0
 11
7400.723815213116
 21
13263.12412790639
 31
0.0
 11
7418.449146632579
 21
13262.17815979022
 31
0.0
 11
7436.170876752747
 21
13261.16697804735
 31
0.0
 11
7470.729171169509
 21
13259.02605479955
 31
0.0
 11
7505.27491017329
 21
13256.691221385
 31
0.0
  0
SPLINE
  5
215
330
1F
100
AcDbEntity
  8
0
  6
Continuous
 62
     1
100
AcDbSpline
210
0.0
220
0.0
230
1.0
 70
     8
 71
     3
 72
    19
 73
    15
 74
    13
 42
0.0000000001
 43
0.0000000001
 44
0.00000001
 40
0.0
 40
0.0
 40
0.0
 40
0.0
 40
4.202299690026023
 40
8.404583268953834
 40
9.023862965041141
 40
9.64313995152886
 40
10.22551229793956
 40
10.80788414355186
 40
10.97905133891972
 40
11.15021842632988
 40
11.29257390237819
 40
11.43492938125999
 40
11.54072725405637
 40
11.64652512689634
 40
11.64652512689634
 40
11.64652512689634
 40
11.64652512689634
 10
7523.22602689734
 20
13256.6912213605
 30
0.0
 10
7523.669608807706
 20
13258.02002565416
 30
0.0
 10
7524.556770927804
 20
13260.67762914703
 30
0.0
 10
7525.385767513235
 20
13263.5701599368
 30
0.0
 10
7525.854758066086
 20
13265.32206820824
 30
0.0
 10
7526.008618477947
 20
13265.90922520072
 30
0.0
 10
7526.156514165995
 20
13266.48521618497
 30
0.0
 10
7526.265164825856
 20
13266.91706384116
 30
0.0
 10
7526.339432247429
 20
13267.21621836046
 30
0.0
 10
7526.37813544802
 20
13267.37307743002
 30
0.0
 10
7526.414345451729
 20
13267.52065957452
 30
0.0
 10
7526.445210314813
 20
13267.64711705641
 30
0.0
 10
7526.473074172241
 20
13267.76176335557
 30
0.0
 10
7526.489654503519
 20
13267.83031876638
 30
0.0
 10
7526.49794466916
 20
13267.8645964718
 30
0.0
 11
7523.22602689734
 21
13256.6912213605
 31
0.0
 11
7524.528008269092
 21
13260.68673974894
 31
0.0
 11
7525.694165033234
 21
13264.72397465407
 31
0.0
 11
7525.854231097047
 21
13265.32221055838
 31
0.0
 11
7526.011227596797
 21
13265.92125653746
 31
0.0
 11
7526.156057205852
 21
13266.48533271512
 31
0.0
 11
7526.298151063693
 21
13267.05010373255
 31
0.0
 11
7526.339392619937
 21
13267.21622821241
 31
0.0
 11
7526.38039663063
 21
13267.38241137317
 31
0.0
 11
7526.414317578948
 21
13267.52066639415
 31
0.0
 11
7526.448073994437
 21
13267.6589616825
 31
0.0
 11
7526.473054928676
 21
13267.76176801895
 31
0.0
 11
7526.49794466916
 21
13267.8645964718
 31
0.0
  0
SPLINE
  5
216
330
1F
100
AcDbEntity
  8
0
  6
Continuous
 62
     1
100
AcDbSpline
210
0.0
220
0.0
230
1.0
 70
     8
 71
     3
 72
    37
 73
    33
 74
    31
 42
0.0000000001
 43
0.0000000001
 44
0.00000001
 40
0.0
 40
0.0
 40
0.0
 40
0.0
 40
2.484539103897317
 40
4.969077759005867
 40
6.017895196314398
 40
7.06671248707468
 40
8.058077312579801
 40
9.04944137575222
 40
9.971966282936046
 40
10.89449279341251
 40
11.73682768063316
 40
12.5791561904508
 40
12.9425269232003
 40
13.30589772025393
 40
13.68528298498395
 40
14.06466745456622
 40
14.38051842144861
 40
14.69637093142412
 40
15.01596636147019
 40
15.33555611321049
 40
15.69399885440322
 40
16.05247176714672
 40
16.35820035530704
 40
16.66383778190721
 40
16.91494986610849
 40
17.16631130374074
 40
17.34245825444258
 40
17.5180506559145
 40
17.63648939414323
 40
17.75599988042529
 40
17.9020362147935
 40
18.04552546309701
 40
18.04552546309701
 40
18.04552546309701
 40
18.04552546309701
 10
7505.27491017329
 20
13256.691221385
 30
0.0
 10
7506.101230088351
 20
13256.63565517799
 30
0.0
 10
7507.753869769213
 20
13256.524522774
 30
0.0
 10
7509.756940300539
 20
13256.41567419498
 30
0.0
 10
7511.28263766346
 20
13256.34372707575
 30
0.0
 10
7512.311400464328
 20
13256.30046651486
 30
0.0
 10
7513.321232970249
 20
13256.26320456006
 30
0.0
 10
7514.289180755826
 20
13256.23285558522
 30
0.0
 10
7515.234350203777
 20
13256.20872980631
 30
0.0
 10
7516.129988582451
 20
13256.19158781631
 30
0.0
 10
7516.998992947663
 20
13256.18089871668
 30
0.0
 10
7517.681673227909
 20
13256.17782047807
 30
0.0
 10
7518.204696794144
 20
13256.17885183574
 30
0.0
 10
7518.573399708705
 20
13256.1811720336
 30
0.0
 10
7518.94742506332
 20
13256.18533603454
 30
0.0
 10
7519.30558409754
 20
13256.19132090029
 30
0.0
 10
7519.642530542809
 20
13256.19886875342
 30
0.0
 10
7519.959505623892
 20
13256.20782619207
 30
0.0
 10
7520.277661193912
 20
13256.21891226829
 30
0.0
 10
7520.609906242923
 20
13256.23306076119
 30
0.0
 10
7520.954949331432
 20
13256.25099695818
 30
0.0
 10
7521.295134343991
 20
13256.27293955166
 30
0.0
 10
7521.617434592616
 20
13256.29823833781
 30
0.0
 10
7521.903624033221
 20
13256.32576807567
 30
0.0
 10
7522.171201204571
 20
13256.35701166838
 30
0.0
 10
7522.395153035637
 20
13256.38899731802
 30
0.0
 10
7522.593377295894
 20
13256.42287231044
 30
0.0
 10
7522.746606438111
 20
13256.45559025131
 30
0.0
 10
7522.880254338352
 20
13256.49066473017
 30
0.0
 10
7523.000949858068
 20
13256.53048158182
 30
0.0
 10
7523.133894326462
 20
13256.57633191087
 30
0.0
 10
7523.195496688226
 20
13256.65315014541
 30
0.0
 10
7523.22602689734
 20
13256.6912213605
 30
0.0
 11
7505.27491017329
 21
13256.691221385
 31
0.0
 11
7507.754202295136
 21
13256.52983633815
 31
0.0
 11
7510.235018001136
 21
13256.39387398457
 31
0.0
 11
7511.282678134977
 21
13256.34461689611
 31
0.0
 11
7512.330570764035
 21
13256.30058568714
 31
0.0
 11
7513.321264667372
 21
13256.26411916634
 31
0.0
 11
7514.312144357362
 21
13256.23313294819
 31
0.0
 11
7515.234371885746
 21
13256.20971094434
 31
0.0
 11
7516.156731718053
 21
13256.19217520145
 31
0.0
 11
7516.999005054156
 21
13256.1819923964
 31
0.0
 11
7517.841325783046
 21
13256.17837188064
 31
0.0
 11
7518.204695758965
 21
13256.17911351394
 31
0.0
 11
7518.568059202636
 21
13256.18142521352
 31
0.0
 11
7518.947420511628
 21
13256.18568858466
 31
0.0
 11
7519.326751355085
 21
13256.19206721798
 31
0.0
 11
7519.642522295042
 21
13256.19917684237
 31
0.0
 11
7519.958247742215
 21
13256.20813508246
 31
0.0
 11
7520.277647263532
 21
13256.21932367881
 31
0.0
 11
7520.59694510549
 21
13256.23298008898
 31
0.0
 11
7520.954896558806
 21
13256.25174057359
 31
0.0
 11
7521.312616241084
 21
13256.27496681051
 31
0.0
 11
7521.617388259014
 21
13256.29913262739
 31
0.0
 11
7521.921597986018
 21
13256.3286398898
 31
0.0
 11
7522.170980098283
 21
13256.35806506464
 31
0.0
 11
7522.419777260966
 21
13256.39387769048
 31
0.0
 11
7522.593314401433
 21
13256.42408711153
 31
0.0
 11
7522.764947662538
 21
13256.46116426267
 31
0.0
 11
7522.879385901449
 21
13256.49168678203
 31
0.0
 11
7522.993187462189
 21
13256.52818282435
 31
0.0
 11
7523.126453861166
 21
13256.58790449428
 31
0.0
 11
7523.22602689734
 21
13256.6912213605
 31
0.0
  0
SPLINE
  5
217
330
1F
100
AcDbEntity
  8
1
  6
Continuous
 62
     3
100
AcDbSpline
210
0.0
220
0.0
230
1.0
 70
     8
 71
     3
 72
     9
 73
     5
 74
     3
 42
0.0000000001
 43
0.0000000001
 44
0.00000001
 40
0.0
 40
0.0
 40
0.0
 40
0.0
 40
58.0329294901121
 40
116.0658194012579
 40
116.0658194012579
 40
116.0658194012579
 40
116.0658194012579
 10
2013.90772521726
 20
14376.3290433688
 30
0.0
 10
2002.658983628134
 20
14360.58922327825
 30
0.0
 10
1980.161508121621
 20
14329.10959383184
 30
0.0
 10
1958.865918346443
 20
14296.80477483938
 30
0.0
 10
1948.2181270898
 20
14280.6523708512
 30
0.0
 11
2013.90772521726
 21
14376.3290433688
 31
0.0
 11
1980.461972087639
 21
14328.90328556993
 31
0.0
 11
1948.2181270898
 21
14280.6523708512
 31
0.0
  0
SPLINE
  5
218
330
1F
100
AcDbEntity
  8
1
  6
Continuous
 62
     3
100
AcDbSpline
210
0.0
220
0.0
230
1.0
 70
     8
 71
     3
 72
    11
 73
     7
 74
     5
 42
0.0000000001
 43
0.0000000001
 44
0.00000001
 40
0.0
 40
0.0
 40
0.0
 40
0.0
 40
3.39433836232062
 40
6.788676725165081
 40
89.92250832140628
 40
173.0563404120993
 40
173.0563404120993
 40
173.0563404120993
 40
173.0563404120993
 10
1953.71439870198
 20
14219.0625257988
 30
0.0
 10
1954.312332043835
 20
14220.02307008883
 30
0.0
 10
1955.508198727639
 20
14221.94415866904
 30
0.0
 10
1971.314541740947
 20
14247.41206372021
 30
0.0
 10
2000.181603287895
 20
14296.04890911333
 30
0.0
 10
2028.986920458158
 20
14343.39739474184
 30
0.0
 10
2043.38957908612
 20
14367.0716376265
 30
0.0
 11
1953.71439870198
 21
14219.0625257988
 31
0.0
 11
1955.50755601054
 21
14221.94455976541
 31
0.0
 11
1957.297392417203
 21
14224.82865729477
 31
0.0
 11
2000.310549134927
 21
14295.97008197159
 31
0.0
 11
2043.38957908612
 21
14367.0716376265
 31
0.0
  0
SPLINE
  5
219
330
1F
100
AcDbEntity
  8
1
  6
Continuous
 62
     3
100
AcDbSpline
210
0.0
220
0.0
230
1.0
 70
     8
 71
     3
 72
    15
 73
    11
 74
     9
 42
0.0000000001
 43
0.0000000001
 44
0.00000001
 40
0.0
 40
0.0
 40
0.0
 40
0.0
 40
43.91595850697325
 40
87.8322146364324
 40
104.1478204779898
 40
120.4214126872849
 40
136.4240230757181
 40
152.6076229851871
 40
169.5947846513415
 40
186.5233276160932
 40
186.5233276160932
 40
186.5233276160932
 40
186.5233276160932
 10
1997.03080658299
 20
14203.1574728792
 30
0.0
 10
2003.699929190909
 20
14216.18797345864
 30
0.0
 10
2017.038219604003
 20
14242.2490629264
 30
0.0
 10
2033.066364712491
 20
14273.05288334209
 30
0.0
 10
2046.017439570184
 20
14295.0380254866
 30
0.0
 10
2053.473384228368
 20
14309.39848414249
 30
0.0
 10
2059.050119752843
 20
14324.7835722755
 30
0.0
 10
2061.159541032406
 20
14340.69064048568
 30
0.0
 10
2059.895566803804
 20
14359.34483080866
 30
0.0
 10
2048.885231701075
 20
14364.4990047844
 30
0.0
 10
2043.38957908612
 20
14367.0716376265
 30
0.0
 11
1997.03080658299
 21
14203.1574728792
 31
0.0
 11
2017.082902850414
 21
14242.22824004428
 31
0.0
 11
2037.806681394493
 21
14280.94726063216
 31
0.0
 11
2045.895143807375
 21
14295.1167973138
 31
0.0
 11
2053.200209637073
 21
14309.65866158968
 31
0.0
 11
2058.454989145133
 21
14324.77391321067
 31
0.0
 11
2060.58715451794
 21
14340.81644346162
 31
0.0
 11
2057.34663907382
 21
14357.49165623773
 31
0.0
 11
2043.38957908612
 21
14367.0716376265
 31
0.0
  0
SPLINE
  5
21A
330
1F
100
AcDbEntity
  8
0
  6
Continuous
 62
     1
100
AcDbSpline
210
0.0
220
0.0
230
1.0
 70
     8
 71
     3
 72
    37
 73
    33
 74
    31
 42
0.0000000001
 43
0.0000000001
 44
0.00000001
 40
0.0
 40
0.0
 40
0.0
 40
0.0
 40
2.484539103896291
 40
4.969077759009481
 40
6.017895196320824
 40
7.066712487080423
 40
8.058077312583405
 40
9.049441375754006
 40
9.97196628293556
 40
10.89449279341063
 40
11.73682768062675
 40
12.57915619044803
 40
12.94252692320298
 40
13.30589772025935
 40
13.68528298498942
 40
14.06466745456571
 40
14.38051842144996
 40
14.69637093142365
 40
15.01596636147005
 40
15.33555611321133
 40
15.6939988544026
 40
16.05247176714589
 40
16.35820035530637
 40
16.66383778190564
 40
16.91494986610822
 40
17.16631130374467
 40
17.34245825445034
 40
17.51805065592278
 40
17.63648939414366
 40
17.75599988041565
 40
17.90203621477966
 40
18.0455254630847
 40
18.0455254630847
 40
18.0455254630847
 40
18.0455254630847
 10
2505.27491017329
 20
13256.691221385
 30
0.0
 10
2506.101230088351
 20
13256.63565517799
 30
0.0
 10
2507.753869769214
 20
13256.52452277401
 30
0.0
 10
2509.756940300544
 20
13256.41567419498
 30
0.0
 10
2511.282637663466
 20
13256.34372707575
 30
0.0
 10
2512.311400464335
 20
13256.30046651486
 30
0.0
 10
2513.321232970254
 20
13256.26320456006
 30
0.0
 10
2514.289180755829
 20
13256.23285558522
 30
0.0
 10
2515.234350203777
 20
13256.2087298063
 30
0.0
 10
2516.129988582451
 20
13256.19158781632
 30
0.0
 10
2516.998992947658
 20
13256.18089871668
 30
0.0
 10
2517.681673227911
 20
13256.17782047808
 30
0.0
 10
2518.204696794146
 20
13256.17885183573
 30
0.0
 10
2518.573399708711
 20
13256.1811720336
 30
0.0
 10
2518.947425063321
 20
13256.18533603454
 30
0.0
 10
2519.305584097542
 20
13256.19132090029
 30
0.0
 10
2519.642530542811
 20
13256.19886875342
 30
0.0
 10
2519.959505623895
 20
13256.20782619208
 30
0.0
 10
2520.277661193912
 20
13256.21891226829
 30
0.0
 10
2520.609906242923
 20
13256.2330607612
 30
0.0
 10
2520.95494933143
 20
13256.25099695818
 30
0.0
 10
2521.29513434399
 20
13256.27293955166
 30
0.0
 10
2521.617434592617
 20
13256.29823833781
 30
0.0
 10
2521.903624033218
 20
13256.32576807566
 30
0.0
 10
2522.171201204574
 20
13256.35701166839
 30
0.0
 10
2522.395153035639
 20
13256.38899731803
 30
0.0
 10
2522.593377295892
 20
13256.42287231051
 30
0.0
 10
2522.746606438104
 20
13256.45559025138
 30
0.0
 10
2522.880254338348
 20
13256.49066473022
 30
0.0
 10
2523.000949858065
 20
13256.53048158184
 30
0.0
 10
2523.133894326458
 20
13256.57633191087
 30
0.0
 10
2523.195496688224
 20
13256.65315014541
 30
0.0
 10
2523.22602689734
 20
13256.6912213605
 30
0.0
 11
2505.27491017329
 21
13256.691221385
 31
0.0
 11
2507.754202295135
 21
13256.52983633815
 31
0.0
 11
2510.23501800114
 21
13256.39387398457
 31
0.0
 11
2511.282678134984
 21
13256.34461689611
 31
0.0
 11
2512.330570764041
 21
13256.30058568714
 31
0.0
 11
2513.321264667376
 21
13256.26411916634
 31
0.0
 11
2514.312144357364
 21
13256.23313294819
 31
0.0
 11
2515.234371885746
 21
13256.20971094434
 31
0.0
 11
2516.156731718052
 21
13256.19217520146
 31
0.0
 11
2516.999005054151
 21
13256.1819923964
 31
0.0
 11
2517.841325783044
 21
13256.17837188064
 31
0.0
 11
2518.204695758968
 21
13256.17911351394
 31
0.0
 11
2518.568059202642
 21
13256.18142521352
 31
0.0
 11
2518.947420511634
 21
13256.18568858466
 31
0.0
 11
2519.326751355085
 21
13256.19206721798
 31
0.0
 11
2519.642522295044
 21
13256.19917684237
 31
0.0
 11
2519.958247742215
 21
13256.20813508246
 31
0.0
 11
2520.277647263533
 21
13256.21932367881
 31
0.0
 11
2520.596945105491
 21
13256.23298008898
 31
0.0
 11
2520.954896558806
 21
13256.25174057359
 31
0.0
 11
2521.312616241084
 21
13256.27496681051
 31
0.0
 11
2521.617388259014
 21
13256.29913262739
 31
0.0
 11
2521.921597986017
 21
13256.3286398898
 31
0.0
 11
2522.170980098282
 21
13256.35806506465
 31
0.0
 11
2522.419777260967
 21
13256.3938776905
 31
0.0
 11
2522.593314401432
 21
13256.42408711159
 31
0.0
 11
2522.764947662536
 21
13256.46116426274
 31
0.0
 11
2522.879385901444
 21
13256.49168678208
 31
0.0
 11
2522.993187462183
 21
13256.52818282436
 31
0.0
 11
2523.126453861162
 21
13256.58790449428
 31
0.0
 11
2523.22602689734
 21
13256.6912213605
 31
0.0
  0
SPLINE
  5
21B
330
1F
100
AcDbEntity
  8
0
  6
Continuous
 62
     1
100
AcDbSpline
210
0.0
220
0.0
230
1.0
 70
     8
 71
     3
 72
    19
 73
    15
 74
    13
 42
0.0000000001
 43
0.0000000001
 44
0.00000001
 40
0.0
 40
0.0
 40
0.0
 40
0.0
 40
4.202299690026344
 40
8.404583268953544
 40
9.023862965040735
 40
9.643139951530559
 40
10.2255122979374
 40
10.80788414354969
 40
10.97905133892318
 40
11.15021842632772
 40
11.29257390237769
 40
11.43492938125884
 40
11.54072725405468
 40
11.64652512689615
 40
11.64652512689615
 40
11.64652512689615
 40
11.64652512689615
 10
2523.22602689734
 20
13256.6912213605
 30
0.0
 10
2523.669608807705
 20
13258.02002565417
 30
0.0
 10
2524.556770927795
 20
13260.67762914703
 30
0.0
 10
2525.385767513236
 20
13263.5701599368
 30
0.0
 10
2525.854758066087
 20
13265.32206820824
 30
0.0
 10
2526.008618477945
 20
13265.90922520072
 30
0.0
 10
2526.156514165996
 20
13266.48521618498
 30
0.0
 10
2526.265164825853
 20
13266.91706384116
 30
0.0
 10
2526.33943224743
 20
13267.21621836046
 30
0.0
 10
2526.378135448022
 20
13267.37307743003
 30
0.0
 10
2526.414345451728
 20
13267.52065957451
 30
0.0
 10
2526.445210314809
 20
13267.64711705641
 30
0.0
 10
2526.473074172235
 20
13267.76176335557
 30
0.0
 10
2526.489654503517
 20
13267.83031876639
 30
0.0
 10
2526.49794466916
 20
13267.8645964718
 30
0.0
 11
2523.22602689734
 21
13256.6912213605
 31
0.0
 11
2524.528008269088
 21
13260.68673974895
 31
0.0
 11
2525.694165033234
 21
13264.72397465407
 31
0.0
 11
2525.854231097047
 21
13265.32221055838
 31
0.0
 11
2526.011227596798
 21
13265.92125653747
 31
0.0
 11
2526.156057205851
 21
13266.48533271512
 31
0.0
 11
2526.298151063692
 21
13267.05010373255
 31
0.0
 11
2526.339392619938
 21
13267.21622821242
 31
0.0
 11
2526.38039663063
 21
13267.38241137317
 31
0.0
 11
2526.414317578947
 21
13267.52066639415
 31
0.0
 11
2526.448073994434
 21
13267.6589616825
 31
0.0
 11
2526.47305492867
 21
13267.76176801895
 31
0.0
 11
2526.49794466916
 21
13267.8645964718
 31
0.0
  0
SPLINE
  5
21C
330
1F
100
AcDbEntity
  8
0
  6
Continuous
 62
     1
100
AcDbSpline
210
0.0
220
0.0
230
1.0
 70
     8
 71
     3
 72
    43
 73
    39
 74
    37
 42
0.0000000001
 43
0.0000000001
 44
0.00000001
 40
0.0
 40
0.0
 40
0.0
 40
0.0
 40
34.62455098978571
 40
69.24909815135126
 40
86.99963908116318
 40
104.7501806487663
 40
121.629094814534
 40
138.5080078816374
 40
156.142551610098
 40
173.7771020139963
 40
190.775583290653
 40
207.7740349452757
 40
216.4327505552147
 40
225.0914609635158
 40
233.7501209566957
 40
242.4087822131758
 40
250.9828870849444
 40
259.5569916556781
 40
268.3005169471362
 40
277.0440425819218
 40
285.7873772798524
 40
294.5307116343317
 40
303.1050071412141
 40
311.6793029497666
 40
320.3382175665958
 40
328.9971309195908
 40
337.6555879675684
 40
346.3140502166054
 40
363.3125045138846
 40
380.3109884342631
 40
397.9455361911723
 40
415.5800772723126
 40
432.4589761432694
 40
449.3378761129452
 40
467.0884318678097
 40
484.8389869850197
 40
519.4635341351022
 40
554.088085112568
 40
554.088085112568
 40
554.088085112568
 40
554.088085112568
 10
1951.75403049774
 20
13256.691221385
 30
0.0
 10
1963.26840097605
 20
13257.4827016751
 30
0.0
 10
1986.297140659599
 20
13259.0656621678
 30
0.0
 10
2015.242014872278
 20
13260.8553411507
 30
0.0
 10
2038.57916491627
 20
13262.18920588088
 30
0.0
 10
2056.014365927949
 20
13263.12033336136
 30
0.0
 10
2073.162841532966
 20
13263.96972428073
 30
0.0
 10
2090.276011702746
 20
13264.74761582462
 30
0.0
 10
2107.644146736847
 20
13265.45984950217
 30
0.0
 10
2125.055363044015
 20
13266.08951998282
 30
0.0
 10
2142.257602282676
 20
13266.62480903688
 30
0.0
 10
2156.471447100666
 20
13266.99338320901
 30
0.0
 10
2167.907358204646
 20
13267.24315204541
 30
0.0
 10
2176.564497320711
 20
13267.40794063013
 30
0.0
 10
2185.222052577432
 20
13267.54805339218
 30
0.0
 10
2193.851777258271
 20
13267.66280357638
 30
0.0
 10
2202.453615400103
 20
13267.75216658229
 30
0.0
 10
2211.0839649218
 20
13267.81666519931
 30
0.0
 10
2219.770941570546
 20
13267.85582301303
 30
0.0
 10
2228.51440671555
 20
13267.86898310521
 30
0.0
 10
2237.257808214663
 20
13267.85582339699
 30
0.0
 10
2245.944721221267
 20
13267.81666672335
 30
0.0
 10
2254.575134393538
 20
13267.75216847304
 30
0.0
 10
2263.177184272065
 20
13267.66280354521
 30
0.0
 10
2271.807141480772
 20
13267.54804989896
 30
0.0
 10
2280.464781162937
 20
13267.4079346777
 30
0.0
 10
2289.121835819165
 20
13267.24314662895
 30
0.0
 10
2300.557578925901
 20
13266.993380999
 30
0.0
 10
2314.771341079769
 20
13266.62480896408
 30
0.0
 10
2331.97358119714
 20
13266.08951986232
 30
0.0
 10
2349.384796620632
 20
13265.45984939404
 30
0.0
 10
2366.752925163069
 20
13264.7476159764
 30
0.0
 10
2383.866084998304
 20
13263.96972493351
 30
0.0
 10
2401.014555878293
 20
13263.12033433427
 30
0.0
 10
2418.449761613762
 20
13262.18920668068
 30
0.0
 10
2441.78692109857
 20
13260.8553414417
 30
0.0
 10
2470.731800023548
 20
13259.06566216859
 30
0.0
 10
2493.760539699112
 20
13257.48270167536
 30
0.0
 10
2505.27491017329
 20
13256.691221385
 30
0.0
 11
1951.75403049774
 21
13256.691221385
 31
0.0
 11
1986.299769513889
 21
13259.02605479926
 31
0.0
 11
2020.858063942048
 21
13261.16697804875
 31
0.0
 11
2038.579779896409
 21
13262.17815900875
 31
0.0
 11
2056.305097144417
 21
13263.12412645041
 31
0.0
 11
2073.163385989921
 21
13263.95829706659
 31
0.0
 11
2090.024923409475
 21
13264.7239746592
 31
0.0
 11
2107.644694210375
 21
13265.44564593807
 31
0.0
 11
2125.26775558358
 21
13266.08210157979
 31
0.0
 11
2142.258033649018
 21
13266.6101328023
 31
0.0
 11
2159.250790465779
 21
13267.05010373424
 31
0.0
 11
2167.907443070152
 21
13267.23910558876
 31
0.0
 11
2176.564586499089
 21
13267.40382834258
 31
0.0
 11
2185.22211362569
 21
13267.5438887926
 31
0.0
 11
2193.880010193815
 21
13267.65896168309
 31
0.0
 11
2202.453652731037
 21
13267.74800097792
 31
0.0
 11
2211.027518098732
 21
13267.81204663756
 31
0.0
 11
2219.770954613211
 21
13267.85144764822
 31
0.0
 11
2228.514470361158
 21
13267.86459647175
 31
0.0
 11
2237.257795172898
 21
13267.85144822283
 31
0.0
 11
2246.001040756203
 21
13267.81204893061
 31
0.0
 11
2254.575097060978
 21
13267.74800268257
 31
0.0
 11
2263.148930527574
 21
13267.65896168273
 31
0.0
 11
2271.807080428783
 21
13267.54388505729
 31
0.0
 11
2280.46486086443
 21
13267.40381941978
 31
0.0
 11
2289.121750958441
 21
13267.2391004109
 31
0.0
 11
2297.778150254553
 21
13267.05010373296
 31
0.0
 11
2314.770909712892
 21
13266.61013272515
 31
0.0
 11
2331.761190420154
 21
13266.08210140049
 31
0.0
 11
2349.384249147372
 21
13265.4456458343
 31
0.0
 11
2367.0040173029
 21
13264.72397465721
 31
0.0
 11
2383.865540542254
 21
13263.95829773794
 31
0.0
 11
2400.723815213123
 21
13263.12412790639
 31
0.0
 11
2418.449146632585
 21
13262.17815979023
 31
0.0
 11
2436.17087675275
 21
13261.16697804735
 31
0.0
 11
2470.729171169508
 21
13259.02605479955
 31
0.0
 11
2505.27491017329
 21
13256.691221385
 31
0.0
  0
SPLINE
  5
21D
330
1F
100
AcDbEntity
  8
0
  6
Continuous
 62
     1
100
AcDbSpline
210
0.0
220
0.0
230
1.0
 70
     8
 71
     3
 72
    47
 73
    43
 74
    41
 42
0.0000000001
 43
0.0000000001
 44
0.00000001
 40
0.0
 40
0.0
 40
0.0
 40
0.0
 40
0.1434889441020068
 40
0.2895246845385452
 40
0.4090334071428057
 40
0.5274733184168379
 40
0.7030747757520057
 40
0.8792110745387585
 40
1.071794499212874
 40
1.264200646464833
 40
1.467856273265387
 40
1.671564572381361
 40
1.902578300282946
 40
2.133575083739861
 40
2.421772872165906
 40
2.709978107649559
 40
3.029575753211685
 40
3.349171281926145
 40
3.6650193467938
 40
3.980867855534797
 40
4.320516764084275
 40
4.660165715907962
 40
5.063273270703682
 40
5.466381048156887
 40
5.852170060947457
 40
6.237958998330873
 40
6.69127208131766
 40
7.1445853497359
 40
7.571749390984372
 40
7.998913309073406
 40
8.49493915178596
 40
8.990965415292917
 40
9.985154237975278
 40
10.97934575254609
 40
12.02791112610327
 40
13.07647512427782
 40
13.72342838088352
 40
14.3703811810916
 40
14.95190386139747
 40
15.53342663669285
 40
16.78949379782102
 40
18.0455606757423
 40
18.0455606757423
 40
18.0455606757423
 40
18.0455606757423
 10
1933.80291377228
 20
13256.6912213605
 30
0.0
 10
1933.833443915496
 20
13256.65315022565
 30
0.0
 10
1933.895046083793
 20
13256.57633222844
 30
0.0
 10
1934.027989638072
 20
13256.53048212301
 30
0.0
 10
1934.148684602919
 20
13256.49066484038
 30
0.0
 10
1934.282335415309
 20
13256.45558992008
 30
0.0
 10
1934.435564111026
 20
13256.42287288955
 30
0.0
 10
1934.614471033041
 20
13256.39229963707
 30
0.0
 10
1934.799536102768
 20
13256.36514895564
 30
0.0
 10
1934.994239271944
 20
13256.34072104365
 30
0.0
 10
1935.193008794903
 20
13256.31920409061
 30
0.0
 10
1935.404877306555
 20
13256.29933310732
 30
0.0
 10
1935.626050438543
 20
13256.28124769896
 30
0.0
 10
1935.875498540584
 20
13256.26357451463
 30
0.0
 10
1936.14414314445
 20
13256.24727952386
 30
0.0
 10
1936.442425908666
 20
13256.23206464043
 30
0.0
 10
1936.751282367006
 20
13256.21891226657
 30
0.0
 10
1937.069439039957
 20
13256.20782619902
 30
0.0
 10
1937.386411847484
 20
13256.19886809827
 30
0.0
 10
1937.710114089236
 20
13256.19161709713
 30
0.0
 10
1938.041783049918
 20
13256.18597012971
 30
0.0
 10
1938.402560277222
 20
13256.1816469116
 30
0.0
 10
1938.784507275832
 20
13256.17895634993
 30
0.0
 10
1939.181842507549
 20
13256.17809076411
 30
0.0
 10
1939.573404602032
 20
13256.17891266931
 30
0.0
 10
1939.981695251256
 20
13256.18135034843
 30
0.0
 10
1940.412480682541
 20
13256.18558982574
 30
0.0
 10
1940.857036693076
 20
13256.1916864603
 30
0.0
 10
1941.292853597416
 20
13256.19917136455
 30
0.0
 10
1941.742879160625
 20
13256.2083234184
 30
0.0
 10
1942.21582105186
 20
13256.21945783761
 30
0.0
 10
1942.877664970899
 20
13256.23718280657
 30
0.0
 10
1943.705399416362
 20
13256.26311977303
 30
0.0
 10
1944.717030927734
 20
13256.30044144214
 30
0.0
 10
1945.746565099032
 20
13256.34375378361
 30
0.0
 10
1946.660251324443
 20
13256.38676350771
 30
0.0
 10
1947.440067543152
 20
13256.42642729123
 30
0.0
 10
1948.06431215177
 20
13256.45994347358
 30
0.0
 10
1948.6666920883
 20
13256.49385047609
 30
0.0
 10
1949.471673620864
 20
13256.54116884424
 30
0.0
 10
1950.500910627366
 20
13256.6051913879
 30
0.0
 10
1951.336323905675
 20
13256.66254472145
 30
0.0
 10
1951.75403049774
 20
13256.691221385
 30
0.0
 11
1933.80291377228
 21
13256.6912213605
 31
0.0
 11
1933.902486593738
 21
13256.58790470983
 31
0.0
 11
1934.035752381764
 21
13256.52818312891
 31
0.0
 11
1934.149552155997
 21
13256.4916872913
 31
0.0
 11
1934.263991565341
 21
13256.4611646084
 31
0.0
 11
1934.435633844133
 21
13256.42408631354
 31
0.0
 11
1934.609160395758
 21
13256.39387817505
 31
0.0
 11
1934.799686536675
 21
13256.36580389703
 31
0.0
 11
1934.990578593871
 21
13256.341713484
 31
0.0
 11
1935.193039834538
 21
13256.3196893982
 31
0.0
 11
1935.395848068891
 21
13256.30056111529
 31
0.0
 11
1935.626087609656
 21
13256.28166412221
 31
0.0
 11
1935.856501829754
 21
13256.2652689661
 31
0.0
 11
1936.144166102903
 21
13256.24774095401
 31
0.0
 11
1936.431993096161
 21
13256.23298020499
 31
0.0
 11
1936.751298829555
 21
13256.2193235703
 31
0.0
 11
1937.070698447305
 21
13256.20813490839
 31
0.0
 11
1937.386419438521
 21
13256.19917634902
 31
0.0
 11
1937.702187931439
 21
13256.1920672454
 31
0.0
 11
1938.041787113975
 21
13256.18625550727
 31
0.0
 11
1938.381411324981
 21
13256.18215602273
 31
0.0
 11
1938.784508643151
 21
13256.17928325107
 31
0.0
 11
1939.187615390363
 21
13256.17837188067
 31
0.0
 11
1939.57340359489
 21
13256.17916158784
 31
0.0
 11
1939.959185775827
 21
13256.18144480467
 31
0.0
 11
1940.41247713836
 21
13256.18588235576
 31
0.0
 11
1940.865748105081
 21
13256.19207509765
 31
0.0
 11
1941.292849400906
 21
13256.19939638442
 31
0.0
 11
1941.719925295467
 21
13256.20806778585
 31
0.0
 11
1942.215814132986
 21
13256.21972529253
 31
0.0
 11
1942.711663067751
 21
13256.23298756916
 31
0.0
 11
1943.705366857763
 21
13256.26403902425
 31
0.0
 11
1944.698885655125
 21
13256.30060631747
 31
0.0
 11
1945.746526649363
 21
13256.34462551571
 31
0.0
 11
1946.793933444324
 21
13256.39387451709
 31
0.0
 11
1947.44005183148
 21
13256.4267309626
 31
0.0
 11
1948.086074691295
 21
13256.46140646251
 31
0.0
 11
1948.666678129207
 21
13256.49409094804
 31
0.0
 11
1949.247200689345
 21
13256.52818340113
 31
0.0
 11
1950.500821883574
 21
13256.60653271285
 31
0.0
 11
1951.75403049774
 21
13256.691221385
 31
0.0
  0
SPLINE
  5
21E
330
1F
100
AcDbEntity
  8
0
  6
Continuous
 62
     1
100
AcDbSpline
210
0.0
220
0.0
230
1.0
 70
     8
 71
     3
 72
    19
 73
    15
 74
    13
 42
0.0000000001
 43
0.0000000001
 44
0.00000001
 40
0.0
 40
0.0
 40
0.0
 40
0.0
 40
0.1057978726772998
 40
0.2115957453429134
 40
0.3539535247929044
 40
0.4963113013968609
 40
0.667476088388864
 40
0.8386409833364917
 40
1.420983650848457
 40
2.003326819120781
 40
2.622632983304489
 40
3.241941857464766
 40
7.444225435666704
 40
11.64652512686169
 40
11.64652512686169
 40
11.64652512686169
 40
11.64652512686169
 10
1930.53099600052
 20
13267.8645964718
 30
0.0
 10
1930.539286166123
 20
13267.83031876644
 30
0.0
 10
1930.555866497328
 20
13267.7617633557
 30
0.0
 10
1930.583730536002
 20
13267.64711631151
 30
0.0
 10
1930.614595763973
 20
13267.52065733999
 30
0.0
 10
1930.650805954646
 20
13267.37307445172
 30
0.0
 10
1930.689508976007
 20
13267.21621612769
 30
0.0
 10
1930.763773687387
 20
13266.91707253701
 30
0.0
 10
1930.872419361372
 20
13266.48524447569
 30
0.0
 10
1931.020312420895
 20
13265.90926285849
 30
0.0
 10
1931.174175084241
 20
13265.32209640122
 30
0.0
 10
1931.643170465362
 20
13263.57016928618
 30
0.0
 10
1932.472169745622
 20
13260.67762914911
 30
0.0
 10
1933.359331863115
 20
13258.02002565506
 30
0.0
 10
1933.80291377228
 20
13256.6912213605
 30
0.0
 11
1930.53099600052
 21
13267.8645964718
 31
0.0
 11
1930.555885740928
 21
13267.7617680191
 31
0.0
 11
1930.580866675234
 21
13267.6589616828
 31
0.0
 11
1930.61462363764
 21
13267.52066415984
 31
0.0
 11
1930.648545138098
 21
13267.38240690554
 31
0.0
 11
1930.689548602436
 21
13267.21622597938
 31
0.0
 11
1930.730789605939
 21
13267.05010373255
 31
0.0
 11
1930.872876275879
 21
13266.4853609941
 31
0.0
 11
1931.017698423569
 21
13265.92131302524
 31
0.0
 11
1931.174702102974
 21
13265.3222387647
 31
0.0
 11
1931.334775636272
 21
13264.7239746545
 31
0.0
 11
1932.500932400159
 21
13260.68673975005
 31
0.0
 11
1933.80291377228
 21
13256.6912213605
 31
0.0
  0
SPLINE
  5
21F
330
1F
100
AcDbEntity
  8
0
  6
Continuous
 62
     1
100
AcDbSpline
210
0.0
220
0.0
230
1.0
 70
     8
 71
     3
 72
    19
 73
    15
 74
    13
 42
0.0000000001
 43
0.0000000001
 44
0.00000001
 40
0.0
 40
0.0
 40
0.0
 40
0.0
 40
0.1057978726794422
 40
0.2115957453437982
 40
0.353953524793951
 40
0.4963113013980158
 40
0.6674760883935238
 40
0.8386409833375111
 40
1.420983650849144
 40
2.003326819121185
 40
2.622632983301373
 40
3.241941857463407
 40
7.444225435669976
 40
11.64652512686359
 40
11.64652512686359
 40
11.64652512686359
 40
11.64652512686359
 10
724.659533649331
 20
13267.8645964718
 30
0.0
 10
724.6678238149343
 20
13267.83031876643
 30
0.0
 10
724.6844041461399
 20
13267.7617633557
 30
0.0
 10
724.7122681848188
 20
13267.64711631151
 30
0.0
 10
724.7431334127875
 20
13267.52065733999
 30
0.0
 10
724.7793436034631
 20
13267.37307445172
 30
0.0
 10
724.8180466248217
 20
13267.21621612768
 30
0.0
 10
724.892311336204
 20
13266.91707253701
 30
0.0
 10
725.0009570101848
 20
13266.48524447569
 30
0.0
 10
725.1488500697076
 20
13265.90926285849
 30
0.0
 10
725.302712733055
 20
13265.32209640122
 30
0.0
 10
725.7717081141739
 20
13263.57016928619
 30
0.0
 10
726.6007073944404
 20
13260.67762914911
 30
0.0
 10
727.4878695119328
 20
13258.02002565506
 30
0.0
 10
727.931451421098
 20
13256.6912213605
 30
0.0
 11
724.659533649331
 21
13267.8645964718
 31
0.0
 11
724.6844233897409
 21
13267.76176801909
 31
0.0
 11
724.7094043240492
 21
13267.6589616828
 31
0.0
 11
724.7431612864551
 21
13267.52066415984
 31
0.0
 11
724.7770827869141
 21
13267.38240690554
 31
0.0
 11
724.8180862512515
 21
13267.21622597938
 31
0.0
 11
724.8593272547541
 21
13267.05010373255
 31
0.0
 11
725.0014139246935
 21
13266.4853609941
 31
0.0
 11
725.146236072382
 21
13265.92131302524
 31
0.0
 11
725.3032397517873
 21
13265.3222387647
 31
0.0
 11
725.463313285085
 21
13264.7239746545
 31
0.0
 11
726.6294700489761
 21
13260.68673975005
 31
0.0
 11
727.931451421098
 21
13256.6912213605
 31
0.0
  0
SPLINE
  5
220
330
1F
100
AcDbEntity
  8
0
  6
Continuous
 62
     1
100
AcDbSpline
210
0.0
220
0.0
230
1.0
 70
     8
 71
     3
 72
    47
 73
    43
 74
    41
 42
0.0000000001
 43
0.0000000001
 44
0.00000001
 40
0.0
 40
0.0
 40
0.0
 40
0.0
 40
0.1434889441030799
 40
0.2895246845382695
 40
0.4090334071414616
 40
0.5274733184143366
 40
0.7030747757512825
 40
0.8792110745392673
 40
1.071794499213905
 40
1.264200646465643
 40
1.467856273266339
 40
1.671564572382313
 40
1.902578300284167
 40
2.133575083740984
 40
2.421772872167139
 40
2.709978107650679
 40
3.029575753212428
 40
3.349171281925625
 40
3.665019346791802
 40
3.980867855532158
 40
4.320516764083972
 40
4.660165715911157
 40
5.063273270707819
 40
5.466381048160276
 40
5.852170060951115
 40
6.237958998334249
 40
6.691272081320059
 40
7.14458534973692
 40
7.571749390983966
 40
7.998913309072204
 40
8.49493915178537
 40
8.990965415292669
 40
9.985154237976051
 40
10.97934575254773
 40
12.02791112610437
 40
13.07647512428001
 40
13.72342838088729
 40
14.37038118109546
 40
14.95190386139831
 40
15.53342663669209
 40
16.78949379782242
 40
18.04556067574426
 40
18.04556067574426
 40
18.04556067574426
 40
18.04556067574426
 10
727.931451421098
 20
13256.6912213605
 30
0.0
 10
727.9619815643136
 20
13256.65315022565
 30
0.0
 10
728.0235837326103
 20
13256.57633222844
 30
0.0
 10
728.1565272868876
 20
13256.530482123
 30
0.0
 10
728.2772222517331
 20
13256.49066484038
 30
0.0
 10
728.4108730641254
 20
13256.45558992008
 30
0.0
 10
728.5641017598408
 20
13256.42287288955
 30
0.0
 10
728.7430086818582
 20
13256.39229963707
 30
0.0
 10
728.9280737515855
 20
13256.36514895564
 30
0.0
 10
729.1227769207615
 20
13256.34072104365
 30
0.0
 10
729.3215464437205
 20
13256.31920409061
 30
0.0
 10
729.5334149553729
 20
13256.29933310732
 30
0.0
 10
729.7545880873615
 20
13256.28124769897
 30
0.0
 10
730.0040361894023
 20
13256.26357451463
 30
0.0
 10
730.272680793268
 20
13256.24727952386
 30
0.0
 10
730.5709635574847
 20
13256.23206464043
 30
0.0
 10
730.8798200158226
 20
13256.21891226657
 30
0.0
 10
731.1979766887738
 20
13256.20782619903
 30
0.0
 10
731.5149494962986
 20
13256.19886809826
 30
0.0
 10
731.8386517380512
 20
13256.19161709713
 30
0.0
 10
732.1703206987346
 20
13256.18597012971
 30
0.0
 10
732.5310979260416
 20
13256.18164691161
 30
0.0
 10
732.9130449246513
 20
13256.17895634987
 30
0.0
 10
733.3103801563694
 20
13256.17809076404
 30
0.0
 10
733.7019422508523
 20
13256.17891266926
 30
0.0
 10
734.1102329000756
 20
13256.18135034842
 30
0.0
 10
734.5410183313588
 20
13256.18558982573
 30
0.0
 10
734.9855743418933
 20
13256.19168646032
 30
0.0
 10
735.421391246232
 20
13256.19917136455
 30
0.0
 10
735.8714168094402
 20
13256.2083234184
 30
0.0
 10
736.3443587006757
 20
13256.21945783761
 30
0.0
 10
737.0062026197154
 20
13256.23718280657
 30
0.0
 10
737.8339370651788
 20
13256.26311977303
 30
0.0
 10
738.8455685765509
 20
13256.30044144215
 30
0.0
 10
739.8751027478498
 20
13256.34375378361
 30
0.0
 10
740.7887889732611
 20
13256.38676350771
 30
0.0
 10
741.5686051919715
 20
13256.42642729123
 30
0.0
 10
742.1928498005883
 20
13256.45994347359
 30
0.0
 10
742.7952297371171
 20
13256.49385047609
 30
0.0
 10
743.6002112696805
 20
13256.54116884424
 30
0.0
 10
744.6294482761829
 20
13256.6051913879
 30
0.0
 10
745.4648615544934
 20
13256.66254472145
 30
0.0
 10
745.882568146558
 20
13256.691221385
 30
0.0
 11
727.931451421098
 21
13256.6912213605
 31
0.0
 11
728.0310242425561
 21
13256.58790470982
 31
0.0
 11
728.1642900305799
 21
13256.52818312891
 31
0.0
 11
728.2780898048112
 21
13256.4916872913
 31
0.0
 11
728.3925292141552
 21
13256.4611646084
 31
0.0
 11
728.5641714929487
 21
13256.42408631354
 31
0.0
 11
728.7376980445754
 21
13256.39387817505
 31
0.0
 11
728.9282241854936
 21
13256.36580389703
 31
0.0
 11
729.1191162426888
 21
13256.341713484
 31
0.0
 11
729.3215774833557
 21
13256.3196893982
 31
0.0
 11
729.524385717709
 21
13256.30056111529
 31
0.0
 11
729.7546252584747
 21
13256.28166412222
 31
0.0
 11
729.9850394785725
 21
13256.2652689661
 31
0.0
 11
730.272703751721
 21
13256.24774095401
 31
0.0
 11
730.5605307449796
 21
13256.23298020499
 31
0.0
 11
730.8798364783725
 21
13256.2193235703
 31
0.0
 11
731.1992360961217
 21
13256.2081349084
 31
0.0
 11
731.5149570873365
 21
13256.19917634902
 31
0.0
 11
731.8307255802537
 21
13256.1920672454
 31
0.0
 11
732.1703247627914
 21
13256.18625550727
 31
0.0
 11
732.5099489738008
 21
13256.18215602271
 31
0.0
 11
732.9130462919721
 21
13256.17928325102
 31
0.0
 11
733.3161530391826
 21
13256.1783718806
 31
0.0
 11
733.7019412437103
 21
13256.17916158779
 31
0.0
 11
734.0877234246466
 21
13256.18144480465
 31
0.0
 11
734.5410147871787
 21
13256.18588235576
 31
0.0
 11
734.994285753898
 21
13256.19207509765
 31
0.0
 11
735.4213870497221
 21
13256.19939638442
 31
0.0
 11
735.8484629442814
 21
13256.20806778585
 31
0.0
 11
736.3443517818017
 21
13256.21972529254
 31
0.0
 11
736.8402007165669
 21
13256.23298756916
 31
0.0
 11
737.8339045065794
 21
13256.26403902425
 31
0.0
 11
738.8274233039422
 21
13256.30060631747
 31
0.0
 11
739.8750642981804
 21
13256.34462551571
 31
0.0
 11
740.9224710931426
 21
13256.39387451709
 31
0.0
 11
741.5685894803
 21
13256.4267309626
 31
0.0
 11
742.2146123401149
 21
13256.46140646251
 31
0.0
 11
742.7952157780244
 21
13256.49409094804
 31
0.0
 11
743.3757383381609
 21
13256.52818340113
 31
0.0
 11
744.6293595323915
 21
13256.60653271285
 31
0.0
 11
745.882568146558
 21
13256.691221385
 31
0.0
  0
SPLINE
  5
221
330
1F
100
AcDbEntity
  8
0
  6
Continuous
 62
     1
100
AcDbSpline
210
0.0
220
0.0
230
1.0
 70
     8
 71
     3
 72
    43
 73
    39
 74
    37
 42
0.0000000001
 43
0.0000000001
 44
0.00000001
 40
0.0
 40
0.0
 40
0.0
 40
0.0
 40
34.6245509897854
 40
69.24909815135081
 40
86.999639081166
 40
104.7501806487709
 40
121.6290948145344
 40
138.5080078816346
 40
156.1425516100968
 40
173.7771020139973
 40
190.775583290653
 40
207.7740349452749
 40
216.4327505552141
 40
225.0914609635163
 40
233.750120956697
 40
242.4087822131771
 40
250.982887084942
 40
259.5569916556732
 40
268.3005169471341
 40
277.0440425819226
 40
285.7873772798554
 40
294.5307116343351
 40
303.1050071412174
 40
311.6793029497669
 40
320.3382175665934
 40
328.9971309195859
 40
337.6555879675621
 40
346.3140502165998
 40
363.3125045138823
 40
380.3109884342638
 40
397.9455361911752
 40
415.5800772723142
 40
432.4589761432671
 40
449.3378761129397
 40
467.0884318678033
 40
484.8389869850129
 40
519.4635341350967
 40
554.0880851125706
 40
554.0880851125706
 40
554.0880851125706
 40
554.0880851125706
 10
745.882568146558
 20
13256.691221385
 30
0.0
 10
757.3969386248682
 20
13257.4827016751
 30
0.0
 10
780.4256783084168
 20
13259.06566216779
 30
0.0
 10
809.3705525210954
 20
13260.85534115073
 30
0.0
 10
832.7077025650862
 20
13262.18920588094
 30
0.0
 10
850.1429035767659
 20
13263.12033336144
 30
0.0
 10
867.291379181782
 20
13263.96972428078
 30
0.0
 10
884.404549351562
 20
13264.74761582464
 30
0.0
 10
901.7726843856628
 20
13265.45984950218
 30
0.0
 10
919.1839006928323
 20
13266.08951998282
 30
0.0
 10
936.3861399314928
 20
13266.62480903687
 30
0.0
 10
950.5999847494815
 20
13266.99338320902
 30
0.0
 10
962.0358958534624
 20
13267.24315204541
 30
0.0
 10
970.6930349695292
 20
13267.40794063013
 30
0.0
 10
979.3505902262496
 20
13267.54805339218
 30
0.0
 10
987.9803149070885
 20
13267.66280357638
 30
0.0
 10
996.5821530489192
 20
13267.75216658228
 30
0.0
 10
1005.212502570614
 20
13267.81666519931
 30
0.0
 10
1013.899479219361
 20
13267.85582301302
 30
0.0
 10
1022.642944364368
 20
13267.86898310521
 30
0.0
 10
1031.386345863482
 20
13267.85582339698
 30
0.0
 10
1040.073258870087
 20
13267.81666672336
 30
0.0
 10
1048.703672042358
 20
13267.75216847303
 30
0.0
 10
1057.305721920882
 20
13267.6628035452
 30
0.0
 10
1065.935679129588
 20
13267.54804989896
 30
0.0
 10
1074.593318811749
 20
13267.40793467769
 30
0.0
 10
1083.250373467977
 20
13267.24314662895
 30
0.0
 10
1094.686116574714
 20
13266.993380999
 30
0.0
 10
1108.899878728583
 20
13266.62480896408
 30
0.0
 10
1126.102118845958
 20
13266.08951986233
 30
0.0
 10
1143.51333426945
 20
13265.45984939404
 30
0.0
 10
1160.881462811888
 20
13264.7476159764
 30
0.0
 10
1177.994622647119
 20
13263.96972493351
 30
0.0
 10
1195.143093527105
 20
13263.12033433427
 30
0.0
 10
1212.578299262573
 20
13262.18920668067
 30
0.0
 10
1235.915458747381
 20
13260.8553414417
 30
0.0
 10
1264.860337672362
 20
13259.06566216859
 30
0.0
 10
1287.889077347928
 20
13257.48270167536
 30
0.0
 10
1299.40344782211
 20
13256.691221385
 30
0.0
 11
745.882568146558
 21
13256.691221385
 31
0.0
 11
780.4283071627068
 21
13259.02605479927
 31
0.0
 11
814.9866015908633
 21
13261.16697804878
 31
0.0
 11
832.7083175452264
 21
13262.17815900881
 31
0.0
 11
850.4336347932353
 21
13263.12412645048
 31
0.0
 11
867.2919236387365
 21
13263.95829706664
 31
0.0
 11
884.1534610582884
 21
13264.72397465922
 31
0.0
 11
901.7732318591906
 21
13265.44564593807
 31
0.0
 11
919.396293232398
 21
13266.08210157979
 31
0.0
 11
936.3865712978348
 21
13266.6101328023
 31
0.0
 11
953.3793281145954
 21
13267.05010373425
 31
0.0
 11
962.0359807189682
 21
13267.23910558876
 31
0.0
 11
970.6931241479069
 21
13267.40382834258
 31
0.0
 11
979.3506512745088
 21
13267.5438887926
 31
0.0
 11
988.0085478426334
 21
13267.65896168309
 31
0.0
 11
996.5821903798518
 21
13267.74800097791
 31
0.0
 11
1005.156055747544
 21
13267.81204663756
 31
0.0
 11
1013.899492262026
 21
13267.85144764822
 31
0.0
 11
1022.643008009976
 21
13267.86459647175
 31
0.0
 11
1031.386332821718
 21
13267.85144822282
 31
0.0
 11
1040.129578405024
 21
13267.81204893061
 31
0.0
 11
1048.703634709799
 21
13267.74800268257
 31
0.0
 11
1057.277468176391
 21
13267.65896168273
 31
0.0
 11
1065.935618077598
 21
13267.54388505729
 31
0.0
 11
1074.593398513242
 21
13267.40381941978
 31
0.0
 11
1083.250288607252
 21
13267.2391004109
 31
0.0
 11
1091.906687903364
 21
13267.05010373296
 31
0.0
 11
1108.899447361707
 21
13266.61013272515
 31
0.0
 11
1125.889728068971
 21
13266.0821014005
 31
0.0
 11
1143.512786796191
 21
13265.4456458343
 31
0.0
 11
1161.132554951719
 21
13264.72397465721
 31
0.0
 11
1177.994078191069
 21
13263.95829773794
 31
0.0
 11
1194.852352861935
 21
13263.12412790639
 31
0.0
 11
1212.577684281395
 21
13262.17815979023
 31
0.0
 11
1230.29941440156
 21
13261.16697804735
 31
0.0
 11
1264.85770881832
 21
13259.02605479955
 31
0.0
 11
1299.40344782211
 21
13256.691221385
 31
0.0
  0
SPLINE
  5
222
330
1F
100
AcDbEntity
  8
0
  6
Continuous
 62
     1
100
AcDbSpline
210
0.0
220
0.0
230
1.0
 70
     8
 71
     3
 72
    19
 73
    15
 74
    13
 42
0.0000000001
 43
0.0000000001
 44
0.00000001
 40
0.0
 40
0.0
 40
0.0
 40
0.0
 40
4.202299690025145
 40
8.404583268952598
 40
9.023862965043595
 40
9.64313995153013
 40
10.22551229793896
 40
10.80788414354949
 40
10.97905133891934
 40
11.15021842632757
 40
11.29257390237759
 40
11.43492938126228
 40
11.54072725405592
 40
11.6465251268936
 40
11.6465251268936
 40
11.6465251268936
 40
11.6465251268936
 10
1317.35456454616
 20
13256.6912213605
 30
0.0
 10
1317.798146456522
 20
13258.02002565416
 30
0.0
 10
1318.685308576609
 20
13260.67762914703
 30
0.0
 10
1319.514305162055
 20
13263.5701599368
 30
0.0
 10
1319.983295714903
 20
13265.32206820824
 30
0.0
 10
1320.137156126766
 20
13265.90922520072
 30
0.0
 10
1320.285051814815
 20
13266.48521618497
 30
0.0
 10
1320.393702474672
 20
13266.91706384116
 30
0.0
 10
1320.46796989625
 20
13267.21621836046
 30
0.0
 10
1320.50667309684
 20
13267.37307743002
 30
0.0
 10
1320.54288310055
 20
13267.52065957452
 30
0.0
 10
1320.573747963628
 20
13267.6471170564
 30
0.0
 10
1320.601611821055
 20
13267.76176335558
 30
0.0
 10
1320.61819215233
 20
13267.83031876639
 30
0.0
 10
1320.62648231797
 20
13267.8645964718
 30
0.0
 11
1317.35456454616
 21
13256.6912213605
 31
0.0
 11
1318.656545917904
 21
13260.68673974895
 31
0.0
 11
1319.822702682051
 21
13264.72397465407
 31
0.0
 11
1319.982768745865
 21
13265.32221055838
 31
0.0
 11
1320.139765245617
 21
13265.92125653747
 31
0.0
 11
1320.284594854671
 21
13266.48533271512
 31
0.0
 11
1320.426688712512
 21
13267.05010373255
 31
0.0
 11
1320.467930268757
 21
13267.21622821241
 31
0.0
 11
1320.50893427945
 21
13267.38241137317
 31
0.0
 11
1320.542855227767
 21
13267.52066639415
 31
0.0
 11
1320.576611643254
 21
13267.65896168251
 31
0.0
 11
1320.601592577489
 21
13267.76176801895
 31
0.0
 11
1320.62648231797
 21
13267.8645964718
 31
0.0
  0
SPLINE
  5
223
330
1F
100
AcDbEntity
  8
0
  6
Continuous
 62
     1
100
AcDbSpline
210
0.0
220
0.0
230
1.0
 70
     8
 71
     3
 72
    37
 73
    33
 74
    31
 42
0.0000000001
 43
0.0000000001
 44
0.00000001
 40
0.0
 40
0.0
 40
0.0
 40
0.0
 40
2.484539103892434
 40
4.96907775900131
 40
6.017895196311517
 40
7.066712487072328
 40
8.05807731257872
 40
9.049441375752046
 40
9.97196628293542
 40
10.89449279341162
 40
11.73682768062704
 40
12.57915619044423
 40
12.94252692319714
 40
13.3058977202535
 40
13.68528298498559
 40
14.06466745456305
 40
14.38051842144358
 40
14.69637093141664
 40
15.01596636146554
 40
15.33555611321001
 40
15.69399885440351
 40
16.0524717671461
 40
16.35820035530636
 40
16.66383778190563
 40
16.91494986610802
 40
17.16631130374114
 40
17.34245825444088
 40
17.51805065591223
 40
17.6364893941392
 40
17.75599988041737
 40
17.90203621478517
 40
18.04552546309499
 40
18.04552546309499
 40
18.04552546309499
 40
18.04552546309499
 10
1299.40344782211
 20
13256.691221385
 30
0.0
 10
1300.229767737169
 20
13256.63565517799
 30
0.0
 10
1301.882407418029
 20
13256.524522774
 30
0.0
 10
1303.885477949357
 20
13256.41567419499
 30
0.0
 10
1305.411175312278
 20
13256.34372707575
 30
0.0
 10
1306.439938113148
 20
13256.30046651486
 30
0.0
 10
1307.449770619068
 20
13256.26320456006
 30
0.0
 10
1308.417718404646
 20
13256.23285558522
 30
0.0
 10
1309.362887852595
 20
13256.2087298063
 30
0.0
 10
1310.258526231271
 20
13256.19158781631
 30
0.0
 10
1311.127530596477
 20
13256.18089871668
 30
0.0
 10
1311.810210876727
 20
13256.17782047807
 30
0.0
 10
1312.33323444296
 20
13256.17885183574
 30
0.0
 10
1312.701937357525
 20
13256.1811720336
 30
0.0
 10
1313.075962712138
 20
13256.18533603455
 30
0.0
 10
1313.434121746357
 20
13256.19132090029
 30
0.0
 10
1313.771068191625
 20
13256.19886875342
 30
0.0
 10
1314.088043272709
 20
13256.20782619208
 30
0.0
 10
1314.406198842727
 20
13256.21891226828
 30
0.0
 10
1314.738443891741
 20
13256.2330607612
 30
0.0
 10
1315.08348698025
 20
13256.25099695819
 30
0.0
 10
1315.42367199281
 20
13256.27293955166
 30
0.0
 10
1315.745972241436
 20
13256.29823833782
 30
0.0
 10
1316.032161682038
 20
13256.32576807566
 30
0.0
 10
1316.299738853393
 20
13256.35701166838
 30
0.0
 10
1316.523690684455
 20
13256.38899731802
 30
0.0
 10
1316.721914944714
 20
13256.42287231044
 30
0.0
 10
1316.875144086929
 20
13256.45559025131
 30
0.0
 10
1317.008791987168
 20
13256.49066473017
 30
0.0
 10
1317.129487506882
 20
13256.53048158182
 30
0.0
 10
1317.262431975272
 20
13256.57633191087
 30
0.0
 10
1317.324034337041
 20
13256.65315014542
 30
0.0
 10
1317.35456454616
 20
13256.6912213605
 30
0.0
 11
1299.40344782211
 21
13256.691221385
 31
0.0
 11
1301.882739943951
 21
13256.52983633815
 31
0.0
 11
1304.363555649952
 21
13256.39387398457
 31
0.0
 11
1305.411215783794
 21
13256.34461689611
 31
0.0
 11
1306.459108412853
 21
13256.30058568714
 31
0.0
 11
1307.449802316191
 21
13256.26411916633
 31
0.0
 11
1308.440682006182
 21
13256.23313294818
 31
0.0
 11
1309.362909534566
 21
13256.20971094434
 31
0.0
 11
1310.285269366873
 21
13256.19217520145
 31
0.0
 11
1311.12754270297
 21
13256.1819923964
 31
0.0
 11
1311.96986343186
 21
13256.17837188064
 31
0.0
 11
1312.333233407782
 21
13256.17911351394
 31
0.0
 11
1312.696596851455
 21
13256.18142521352
 31
0.0
 11
1313.07595816045
 21
13256.18568858466
 31
0.0
 11
1313.455289003901
 21
13256.19206721799
 31
0.0
 11
1313.771059943857
 21
13256.19917684237
 31
0.0
 11
1314.086785391027
 21
13256.20813508246
 31
0.0
 11
1314.406184912348
 21
13256.21932367881
 31
0.0
 11
1314.725482754309
 21
13256.23298008898
 31
0.0
 11
1315.083434207626
 21
13256.2517405736
 31
0.0
 11
1315.441153889904
 21
13256.27496681051
 31
0.0
 11
1315.745925907833
 21
13256.29913262739
 31
0.0
 11
1316.050135634837
 21
13256.3286398898
 31
0.0
 11
1316.299517747102
 21
13256.35806506464
 31
0.0
 11
1316.548314909787
 21
13256.39387769047
 31
0.0
 11
1316.721852050252
 21
13256.42408711152
 31
0.0
 11
1316.893485311356
 21
13256.46116426267
 31
0.0
 11
1317.007923550264
 21
13256.49168678203
 31
0.0
 11
1317.121725111001
 21
13256.52818282435
 31
0.0
 11
1317.254991509977
 21
13256.58790449428
 31
0.0
 11
1317.35456454616
 21
13256.6912213605
 31
0.0
  0
SPLINE
  5
224
330
1F
100
AcDbEntity
  8
1
  6
Continuous
 62
     7
100
AcDbSpline
210
0.0
220
0.0
230
1.0
 70
     8
 71
     3
 72
     9
 73
     5
 74
     3
 42
0.0000000001
 43
0.0000000001
 44
0.00000001
 40
0.0
 40
0.0
 40
0.0
 40
0.0
 40
395.5794905913469
 40
791.1481127770107
 40
791.1481127770107
 40
791.1481127770107
 40
791.1481127770107
 10
1876.37888274479
 20
14399.8756934734
 30
0.0
 10
1868.405342156615
 20
14267.60902998978
 30
0.0
 10
1852.458480050454
 20
14003.07933700205
 30
0.0
 10
1906.508880796518
 20
13743.63995582105
 30
0.0
 10
1933.53370991057
 20
13613.9220472562
 30
0.0
 11
1876.37888274479
 21
14399.8756934734
 31
0.0
 11
1869.958057490698
 21
14004.34831593859
 31
0.0
 11
1933.53370991057
 21
13613.9220472562
 31
0.0
  0
SPLINE
  5
225
330
1F
100
AcDbEntity
  8
0
  6
Continuous
 62
     7
100
AcDbSpline
210
0.0
220
0.0
230
1.0
 70
     8
 71
     3
 72
    11
 73
     7
 74
     5
 42
0.0000000001
 43
0.0000000001
 44
0.00000001
 40
0.0
 40
0.0
 40
0.0
 40
0.0
 40
27.42850180184418
 40
54.85700360367498
 40
59.36383865805455
 40
63.87067371238491
 40
63.87067371238491
 40
63.87067371238491
 40
63.87067371238491
 10
769.736902543087
 20
11560.780479699
 30
0.0
 10
768.9274534991007
 20
11569.88754695467
 30
0.0
 10
767.3085554111283
 20
11588.10168146601
 30
0.0
 10
765.1589260233229
 20
11607.7744312968
 30
0.0
 10
763.6919873732302
 20
11619.83293695631
 30
0.0
 10
763.313174807508
 20
11622.81352426678
 30
0.0
 10
763.123768524648
 20
11624.303817922
 30
0.0
 11
769.736902543087
 21
11560.780479699
 31
0.0
 11
767.216671940195
 21
11588.09295210268
 31
0.0
 11
764.2336688066526
 21
11615.3587622575
 31
0.0
 11
763.6879930203277
 21
11619.8324408494
 31
0.0
 11
763.123768524648
 21
11624.303817922
 31
0.0
  0
SPLINE
  5
226
330
1F
100
AcDbEntity
  8
1
  6
Continuous
 62
     1
100
AcDbSpline
210
0.0
220
0.0
230
1.0
 70
     8
 71
     3
 72
    23
 73
    19
 74
    17
 42
0.0000000001
 43
0.0000000001
 44
0.00000001
 40
0.0
 40
0.0
 40
0.0
 40
0.0
 40
21.21848471275303
 40
42.43696942550507
 40
44.79612012765025
 40
47.15527045277951
 40
49.51442061461226
 40
51.873570872629
 40
54.23272866196293
 40
56.59188644356173
 40
58.95104407079264
 40
61.31020163287788
 40
63.46227064758873
 40
65.61433954414306
 40
67.76640917983647
 40
69.9184788564691
 40
73.99804901333275
 40
78.07761917025194
 40
78.07761917025194
 40
78.07761917025194
 40
78.07761917025194
 10
784.700785529105
 20
11561.6296179922
 30
0.0
 10
784.0803178335321
 20
11568.6752375182
 30
0.0
 10
782.8393824423863
 20
11582.76647657021
 30
0.0
 10
781.3108490063987
 20
11597.62080108807
 30
0.0
 10
780.359368053575
 20
11606.21387443932
 30
0.0
 10
780.095567992324
 20
11608.55823136143
 30
0.0
 10
779.82755976257
 20
11610.9021099372
 30
0.0
 10
779.5551687559948
 20
11613.24548607618
 30
0.0
 10
779.2782563217623
 20
11615.58833480874
 30
0.0
 10
778.996674336143
 20
11617.93062949953
 30
0.0
 10
778.7102780055748
 20
11620.27234042443
 30
0.0
 10
778.4274454885128
 20
11622.54493815906
 30
0.0
 10
778.1485446487928
 20
11624.74845800222
 30
0.0
 10
777.8738653694417
 20
11626.88292735032
 30
0.0
 10
777.5946014976846
 20
11629.01680271207
 30
0.0
 10
777.2255317181526
 20
11631.78689481817
 30
0.0
 10
776.7612932180907
 20
11635.1924896134
 30
0.0
 10
776.3773961008658
 20
11637.88497783326
 30
0.0
 10
776.185447542252
 20
11639.2312219432
 30
0.0
 11
784.700785529105
 21
11561.6296179922
 31
0.0
 11
782.7876076692025
 21
11582.76167525082
 31
0.0
 11
780.6183967192175
 21
11603.86898719147
 31
0.0
 11
780.3586736226231
 21
11606.21379762059
 31
0.0
 11
780.0948666220143
 21
11608.55815171564
 31
0.0
 11
779.8268293513297
 21
11610.90202575398
 31
0.0
 11
779.5544155262601
 21
11613.2453952613
 31
0.0
 11
779.2774781109298
 21
11615.58824206443
 31
0.0
 11
778.995871937601
 21
11617.93053226883
 31
0.0
 11
778.7094511042721
 21
11620.27223844518
 31
0.0
 11
778.4180697879254
 21
11622.61333249097
 31
0.0
 11
778.1478035818334
 21
11624.74836345607
 31
0.0
 11
777.8731013071587
 21
11626.8828280718
 31
0.0
 11
777.5937760061091
 21
11629.01669336583
 31
0.0
 11
777.3096410929179
 21
11631.14992360286
 31
0.0
 11
776.7571555676741
 21
11635.19190979892
 31
0.0
 11
776.185447542252
 21
11639.2312219432
 31
0.0
  0
SPLINE
  5
227
330
1F
100
AcDbEntity
  8
1
  6
Continuous
 62
     1
100
AcDbSpline
210
0.0
220
0.0
230
1.0
 70
     8
 71
     3
 72
    23
 73
    19
 74
    17
 42
0.0000000001
 43
0.0000000001
 44
0.00000001
 40
0.0
 40
0.0
 40
0.0
 40
0.0
 40
21.21848471275084
 40
42.43696942550505
 40
44.79612012765028
 40
47.15527045277783
 40
49.51442061461422
 40
51.87357087262921
 40
54.23272866196481
 40
56.59188644356336
 40
58.95104407079049
 40
61.31020163287373
 40
63.46227064759005
 40
65.61433954414808
 40
67.76640917983782
 40
69.9184788564632
 40
73.99804901321666
 40
78.07761917025167
 40
78.07761917025167
 40
78.07761917025167
 40
78.07761917025167
 10
1259.54675152076
 20
11561.6296179922
 30
0.0
 10
1260.167219216331
 20
11568.6752375182
 30
0.0
 10
1261.408154607473
 20
11582.76647657021
 30
0.0
 10
1262.936688043465
 20
11597.62080108807
 30
0.0
 10
1263.888168996289
 20
11606.21387443932
 30
0.0
 10
1264.151969057542
 20
11608.55823136143
 30
0.0
 10
1264.419977287295
 20
11610.9021099372
 30
0.0
 10
1264.692368293873
 20
11613.24548607618
 30
0.0
 10
1264.969280728102
 20
11615.58833480874
 30
0.0
 10
1265.250862713719
 20
11617.93062949953
 30
0.0
 10
1265.537259044287
 20
11620.27234042443
 30
0.0
 10
1265.820091561348
 20
11622.54493815905
 30
0.0
 10
1266.098992401067
 20
11624.74845800222
 30
0.0
 10
1266.37367168042
 20
11626.88292735033
 30
0.0
 10
1266.652935552175
 20
11629.01680271207
 30
0.0
 10
1267.022005331704
 20
11631.78689481813
 30
0.0
 10
1267.486243831764
 20
11635.19248961336
 30
0.0
 10
1267.87014094899
 20
11637.88497783322
 30
0.0
 10
1268.06208950761
 20
11639.2312219432
 30
0.0
 11
1259.54675152076
 21
11561.6296179922
 31
0.0
 11
1261.459929380658
 21
11582.76167525082
 31
0.0
 11
1263.629140330647
 21
11603.86898719147
 31
0.0
 11
1263.888863427242
 21
11606.21379762059
 31
0.0
 11
1264.152670427851
 21
11608.55815171564
 31
0.0
 11
1264.420707698536
 21
11610.90202575399
 31
0.0
 11
1264.693121523606
 21
11613.2453952613
 31
0.0
 11
1264.970058938935
 21
11615.58824206444
 31
0.0
 11
1265.251665112262
 21
11617.93053226883
 31
0.0
 11
1265.538085945589
 21
11620.27223844518
 31
0.0
 11
1265.829467261934
 21
11622.61333249097
 31
0.0
 11
1266.099733468027
 21
11624.74836345607
 31
0.0
 11
1266.374435742702
 21
11626.8828280718
 31
0.0
 11
1266.653761043752
 21
11629.01669336583
 31
0.0
 11
1266.937895956942
 21
11631.14992360286
 31
0.0
 11
1267.490381482171
 21
11635.19190979881
 31
0.0
 11
1268.06208950761
 21
11639.2312219432
 31
0.0
  0
SPLINE
  5
228
330
1F
100
AcDbEntity
  8
0
  6
Continuous
 62
     7
100
AcDbSpline
210
0.0
220
0.0
230
1.0
 70
     8
 71
     3
 72
    15
 73
    11
 74
     9
 42
0.0000000001
 43
0.0000000001
 44
0.00000001
 40
0.0
 40
0.0
 40
0.0
 40
0.0
 40
27.42850180184925
 40
54.85700360367616
 40
57.74242767075775
 40
60.62785241568414
 40
63.51327446515221
 40
66.39869479710951
 40
68.94118311653223
 40
71.48367143596496
 40
71.48367143596496
 40
71.48367143596496
 40
71.48367143596496
 10
1274.51063450678
 20
11560.780479699
 30
0.0
 10
1275.320264779981
 20
11569.88752140532
 30
0.0
 10
1276.939525326381
 20
11588.10160481796
 30
0.0
 10
1279.02853403579
 20
11607.23729962338
 30
0.0
 10
1280.359934524198
 20
11618.22335916074
 30
0.0
 10
1280.714556861414
 20
11621.08691283862
 30
0.0
 10
1281.076902278207
 20
11623.94949723783
 30
0.0
 10
1281.432986759131
 20
11626.69763738621
 30
0.0
 10
1281.781359542488
 20
11629.3315022886
 30
0.0
 10
1282.009632197409
 20
11631.0110540556
 30
0.0
 10
1282.12376852487
 20
11631.8508299391
 30
0.0
 11
1274.51063450678
 21
11560.780479699
 31
0.0
 11
1277.030865109668
 21
11588.09295210269
 31
0.0
 11
1280.013868243208
 21
11615.3587622575
 31
0.0
 11
1280.361180847022
 21
11618.22320740484
 31
0.0
 11
1280.71584417893
 21
11621.08675238958
 31
0.0
 11
1281.078307024195
 21
11623.94931786296
 31
0.0
 11
1281.449018266768
 21
11626.81082509983
 31
0.0
 11
1281.782863740224
 21
11629.33130006584
 31
0.0
 11
1282.12376852487
 21
11631.8508299391
 31
0.0
  0
SPLINE
  5
229
330
1F
100
AcDbEntity
  8
1
  6
Continuous
 62
     7
100
AcDbSpline
210
0.0
220
0.0
230
1.0
 70
     8
 71
     3
 72
    31
 73
    27
 74
    25
 42
0.0000000001
 43
0.0000000001
 44
0.00000001
 40
0.0
 40
0.0
 40
0.0
 40
0.0
 40
46.64793084332322
 40
93.2958329197423
 40
123.6012844215488
 40
153.9185391585958
 40
184.3378538415579
 40
214.7547399350061
 40
245.3504611712531
 40
275.9480915276268
 40
306.4820916436312
 40
337.0054803813764
 40
359.1426617039809
 40
381.2855533680981
 40
403.3852138077947
 40
425.4809100209629
 40
449.1244816563383
 40
472.7677926170537
 40
496.6698671958375
 40
520.5900738727821
 40
536.9055240810692
 40
553.1792695440325
 40
569.1819157766018
 40
585.3654839626172
 40
602.3526455033784
 40
619.2811884302605
 40
619.2811884302605
 40
619.2811884302605
 40
619.2811884302605
 10
2034.41707273273
 20
13821.507295584
 30
0.0
 10
2027.437258033567
 20
13835.40797518166
 30
0.0
 10
2013.477632939561
 20
13863.20932580468
 30
0.0
 10
1998.399287613607
 20
13901.62975091843
 30
0.0
 10
1987.841120451503
 20
13935.8071438092
 30
0.0
 10
1980.321490548159
 20
13965.21823821268
 30
0.0
 10
1973.835514716539
 20
13994.90633672099
 30
0.0
 10
1968.008162791454
 20
14024.82243863226
 30
0.0
 10
1962.461691024219
 20
14054.85201004255
 30
0.0
 10
1957.526277907518
 20
14085.03042817641
 30
0.0
 10
1953.537283182522
 20
14115.3267435213
 30
0.0
 10
1951.064179120988
 20
14142.95966577653
 30
0.0
 10
1949.964171799774
 20
14167.87413025794
 30
0.0
 10
1949.48988689568
 20
14189.99621374889
 30
0.0
 10
1949.180579698779
 20
14212.10655453689
 30
0.0
 10
1948.689183313638
 20
14234.71546283367
 30
0.0
 10
1947.637970194174
 20
14257.82069442252
 30
0.0
 10
1946.345601608638
 20
14281.51461109869
 30
0.0
 10
1945.202937886064
 20
14305.31047990577
 30
0.0
 10
1944.672129232229
 20
14326.6841885549
 30
0.0
 10
1944.83105833899
 20
14345.53037709017
 30
0.0
 10
1944.109333010425
 20
14361.69492698526
 30
0.0
 10
1941.246026753392
 20
14377.80722204642
 30
0.0
 10
1935.119364616119
 20
14392.63784600189
 30
0.0
 10
1924.697624388573
 20
14408.16085516855
 30
0.0
 10
1912.585309986353
 20
14407.11933292164
 30
0.0
 10
1906.53962001705
 20
14406.5994718619
 30
0.0
 11
2034.41707273273
 21
13821.507295584
 31
0.0
 11
2014.1222032516
 21
13863.50905417465
 31
0.0
 11
1997.072031237514
 21
13906.92930754127
 31
0.0
 11
1988.082108903355
 21
13935.87065663135
 31
0.0
 11
1980.50305387727
 21
13965.22527909022
 31
0.0
 11
1973.948204267035
 21
13994.92996983711
 31
0.0
 11
1968.067934837726
 21
14024.77304928713
 31
0.0
 11
1962.564895444422
 21
14054.86980518211
 31
0.0
 11
1957.680342073633
 21
14085.07503853319
 31
0.0
 11
1953.747467562317
 21
14115.35469608017
 31
0.0
 11
1951.080645755801
 21
14145.76136182122
 31
0.0
 11
1950.047926557936
 21
14167.87444138894
 31
0.0
 11
1949.517089159275
 21
14190.01096918589
 31
0.0
 11
1949.152039065152
 21
14212.10761440589
 31
0.0
 11
1948.615992172786
 21
14234.1968073489
 31
0.0
 11
1947.602464121906
 21
14257.81864556203
 31
0.0
 11
1946.375754451811
 21
14281.4301117717
 31
0.0
 11
1945.295370370675
 21
14305.30775695306
 31
0.0
 11
1944.76687728652
 21
14329.22212465384
 31
0.0
 11
1944.686883000326
 21
14345.53737875585
 31
0.0
 11
1943.742363319697
 21
14361.7836913826
 31
0.0
 11
1940.735519872869
 21
14377.50131139745
 31
0.0
 11
1934.560754306942
 21
14392.46059444969
 31
0.0
 11
1923.416779168254
 21
14405.28149439159
 31
0.0
 11
1906.53962001705
 21
14406.5994718619
 31
0.0
  0
SPLINE
  5
22A
330
1F
100
AcDbEntity
  8
1
  6
Continuous
 62
     7
100
AcDbSpline
210
0.0
220
0.0
230
1.0
 70
     8
 71
     3
 72
    23
 73
    19
 74
    17
 42
0.0000000001
 43
0.0000000001
 44
0.00000001
 40
0.0
 40
0.0
 40
0.0
 40
0.0
 40
10.82273824845649
 40
21.64547650547748
 40
62.60269713181042
 40
103.5634987401728
 40
144.5491365351026
 40
185.5299644488382
 40
213.4260445045771
 40
241.3249019024591
 40
269.1643045965901
 40
296.994480617702
 40
329.1941347642352
 40
361.4097856938382
 40
393.698718196639
 40
425.9797159789927
 40
509.1135469934469
 40
592.247379665907
 40
592.247379665907
 40
592.247379665907
 40
592.247379665907
 10
1964.61918343549
 20
13821.507295584
 30
0.0
 10
1963.774464696146
 20
13825.01459302208
 30
0.0
 10
1962.08502721679
 20
13832.02918790102
 30
0.0
 10
1957.065304273137
 20
13852.28416476128
 30
0.0
 10
1949.288583296951
 20
13882.20455349666
 30
0.0
 10
1938.744662405837
 20
13921.79210387661
 30
0.0
 10
1928.473178753105
 20
13961.46048617541
 30
0.0
 10
1919.984573845487
 20
13997.0885022722
 30
0.0
 10
1913.356078937108
 20
14028.6622106144
 30
0.0
 10
1908.43956639207
 20
14056.10874317566
 30
0.0
 10
1904.557274742573
 20
14083.70071598704
 30
0.0
 10
1901.800857330232
 20
14112.87375026925
 30
0.0
 10
1900.692943815289
 20
14143.61857173122
 30
0.0
 10
1900.930607137648
 20
14175.85770256655
 30
0.0
 10
1901.955315034905
 20
14208.10413571185
 30
0.0
 10
1903.823610042827
 20
14257.30427860874
 30
0.0
 10
1904.635471855344
 20
14323.48816790853
 30
0.0
 10
1905.904903958928
 20
14378.89570369327
 30
0.0
 10
1906.53962001705
 20
14406.5994718619
 30
0.0
 11
1964.61918343549
 21
13821.507295584
 31
0.0
 11
1962.073482378627
 21
13832.0263767855
 31
0.0
 11
1959.473298709789
 21
13842.53212322582
 31
0.0
 11
1949.249244297007
 21
13882.19271617144
 31
0.0
 11
1938.792506304136
 21
13921.7963005919
 31
0.0
 11
1928.601719518536
 21
13961.4947938901
 31
0.0
 11
1919.187468389286
 21
14001.37962975752
 31
0.0
 11
1913.491663353307
 21
14028.68803665848
 31
0.0
 11
1908.608242506284
 21
14056.15617174148
 31
0.0
 11
1904.766885988402
 21
14083.72928042492
 31
0.0
 11
1902.187700759089
 21
14111.43968462476
 31
0.0
 11
1900.926012357706
 21
14143.61461072467
 31
0.0
 11
1901.06123120799
 21
14175.82997787577
 31
0.0
 11
1901.988685446692
 21
14208.10558771983
 31
0.0
 11
1903.10308946025
 21
14240.36734405018
 31
0.0
 11
1904.782863519438
 21
14323.48420285902
 31
0.0
 11
1906.53962001705
 21
14406.5994718619
 31
0.0
  0
SPLINE
  5
22B
330
1F
100
AcDbEntity
  8
1
  6
Continuous
 62
     3
100
AcDbSpline
210
0.0
220
0.0
230
1.0
 70
     8
 71
     3
 72
    27
 73
    23
 74
    21
 42
0.0000000001
 43
0.0000000001
 44
0.00000001
 40
0.0
 40
0.0
 40
0.0
 40
0.0
 40
34.28460223229196
 40
68.56921114841259
 40
99.16498912224489
 40
129.7625664394487
 40
160.2965544029762
 40
190.8199533347345
 40
212.9571360676138
 40
235.1000265061955
 40
257.1996866320468
 40
279.2953831761067
 40
302.9389549204528
 40
326.5822657664141
 40
350.4843403165748
 40
374.4045470182843
 40
390.7199972299463
 40
406.9937426881378
 40
422.9963889186998
 40
439.1799571078799
 40
456.1671186486591
 40
473.0956615755058
 40
473.0956615755058
 40
473.0956615755058
 40
473.0956615755058
 10
1880.82868892858
 20
13893.2413501605
 30
0.0
 10
1875.087368594892
 20
13903.12395770542
 30
0.0
 10
1863.604726808239
 20
13922.88917472189
 30
0.0
 10
1848.125979800483
 20
13952.10196491691
 30
0.0
 10
1833.430403129753
 20
13980.33159657086
 30
0.0
 10
1819.891957866549
 20
14007.7511094439
 30
0.0
 10
1807.218331252726
 20
14035.55664168806
 30
0.0
 10
1796.774436874688
 20
14061.25922110543
 30
0.0
 10
1788.438147487605
 20
14084.76339917825
 30
0.0
 10
1781.516741279036
 20
14105.78019740693
 30
0.0
 10
1774.756508671615
 20
14126.83398652599
 30
0.0
 10
1767.67637654428
 20
14148.31132218352
 30
0.0
 10
1759.915779933363
 20
14170.09961989261
 30
0.0
 10
1751.752451933036
 20
14192.38037347997
 30
0.0
 10
1743.702478503361
 20
14214.80239341765
 30
0.0
 10
1736.945795801814
 20
14235.08697914733
 30
0.0
 10
1731.587688177759
 20
14253.15614525267
 30
0.0
 10
1726.171441843803
 20
14268.40336914322
 30
0.0
 10
1718.72246927914
 20
14282.97448380954
 30
0.0
 10
1708.527458323796
 20
14295.3658173725
 30
0.0
 10
1694.022609927435
 20
14307.16352291148
 30
0.0
 10
1682.744057693443
 20
14302.62621222314
 30
0.0
 10
1677.11452828685
 20
14300.3614779366
 30
0.0
 11
1880.82868892858
 21
13893.2413501605
 31
0.0
 11
1863.799631798311
 21
13922.99778078449
 31
0.0
 11
1847.589590452593
 21
13953.20819236894
 31
0.0
 11
1833.527382307383
 21
13980.3808980109
 31
0.0
 11
1820.025290695253
 21
14007.83823327454
 31
0.0
 11
1807.411396594537
 21
14035.64496081614
 31
0.0
 11
1795.97100592552
 21
14063.94328839371
 31
0.0
 11
1788.518164748033
 21
14084.78819227289
 31
0.0
 11
1781.538436177522
 21
14105.80225865845
 31
0.0
 11
1774.728905394789
 21
14126.82665563428
 31
0.0
 11
1767.758024015442
 21
14147.79393057792
 31
0.0
 11
1759.882424571056
 21
14170.08727977049
 31
0.0
 11
1751.80599229461
 21
14192.30838211584
 31
0.0
 11
1743.791668199443
 21
14214.82681405723
 31
0.0
 11
1736.29438313119
 21
14237.54172117256
 31
0.0
 11
1731.447765534312
 21
14253.12068819476
 31
0.0
 11
1725.794554779236
 21
14268.38096340187
 31
0.0
 11
1718.323708739018
 21
14282.53268223118
 31
0.0
 11
1708.045079967611
 21
14295.03298902395
 31
0.0
 11
1693.639575170031
 21
14304.03549360542
 31
0.0
 11
1677.11452828685
 21
14300.3614779366
 31
0.0
  0
SPLINE
  5
22C
330
1F
100
AcDbEntity
  8
1
  6
Continuous
 62
     3
100
AcDbSpline
210
0.0
220
0.0
230
1.0
 70
     8
 71
     3
 72
    23
 73
    19
 74
    17
 42
0.0000000001
 43
0.0000000001
 44
0.00000001
 40
0.0
 40
0.0
 40
0.0
 40
0.0
 40
8.065296499653934
 40
16.13059300392783
 40
57.08785056061197
 40
98.04861529174508
 40
139.0342436504011
 40
180.0150810430164
 40
207.9111625838163
 40
235.8100184887591
 40
263.6494207746769
 40
291.479597205979
 40
323.6792514871825
 40
355.89490228202
 40
388.183834746855
 40
420.4648325671704
 40
503.5986635816834
 40
586.7324962540428
 40
586.7324962540428
 40
586.7324962540428
 40
586.7324962540428
 10
1900.91920511828
 20
13762.566212707
 30
0.0
 10
1899.547688496833
 20
13764.87848984672
 30
0.0
 10
1896.804655253155
 20
13769.50304412748
 30
0.0
 10
1887.017941703468
 20
13785.82287567957
 30
0.0
 10
1871.313575140238
 20
13811.37859580948
 30
0.0
 10
1849.656375155948
 20
13846.15377129607
 30
0.0
 10
1828.235721274947
 20
13881.08568704272
 30
0.0
 10
1809.701426345386
 20
13912.67511367722
 30
0.0
 10
1794.13130113002
 20
13940.93121748145
 30
0.0
 10
1781.405027839484
 20
13965.74101813107
 30
0.0
 10
1769.625261744743
 20
13990.99228016181
 30
0.0
 10
1758.459916991482
 20
14018.08469323009
 30
0.0
 10
1748.411498087944
 20
14047.16218976528
 30
0.0
 10
1739.212967026868
 20
14078.06210993485
 30
0.0
 10
1730.764955444918
 20
14109.19912286555
 30
0.0
 10
1718.166885191284
 20
14156.79569010748
 30
0.0
 10
1699.592975962953
 20
14220.32502364781
 30
0.0
 10
1684.607344228691
 20
14273.68265966299
 30
0.0
 10
1677.11452828685
 20
14300.3614779366
 30
0.0
 11
1900.91920511828
 21
13762.566212707
 31
0.0
 11
1896.799086550596
 21
13769.49972773299
 31
0.0
 11
1892.652589270482
 21
13776.41749962919
 31
0.0
 11
1871.27963062379
 21
13811.35592525558
 31
0.0
 11
1849.700846475904
 21
13846.17173089122
 31
0.0
 11
1828.348635412817
 21
13881.15608188807
 31
0.0
 11
1807.684541861447
 21
13916.54568871127
 31
0.0
 11
1794.253410475208
 21
13940.99555732066
 31
0.0
 11
1781.552466876454
 21
13965.8356900197
 31
0.0
 11
1769.817362704526
 21
13991.08088064507
 31
0.0
 11
1759.249137362993
 21
14016.82639158053
 31
0.0
 11
1748.635540709869
 21
14047.22654457215
 31
0.0
 11
1739.345989368449
 21
14078.07378743128
 31
0.0
 11
1730.796443208402
 21
14109.21026796739
 31
0.0
 11
1722.429728359364
 21
14140.38815921921
 31
0.0
 11
1699.735086579958
 21
14220.36432500411
 31
0.0
 11
1677.11452828685
 21
14300.3614779366
 31
0.0
  0
SPLINE
  5
22D
330
1F
100
AcDbEntity
  8
1
  6
Continuous
 62
     3
100
AcDbSpline
210
0.0
220
0.0
230
1.0
 70
     8
 71
     3
 72
     9
 73
     5
 74
     3
 42
0.0000000001
 43
0.0000000001
 44
0.00000001
 40
0.0
 40
0.0
 40
0.0
 40
0.0
 40
226.4187144937575
 40
452.8318702319047
 40
452.8318702319047
 40
452.8318702319047
 40
452.8318702319047
 10
1650.23751433964
 20
14285.1133505137
 30
0.0
 10
1666.564056741426
 20
14211.30498572361
 30
0.0
 10
1699.21674071568
 20
14063.69006819621
 30
0.0
 10
1753.708767836707
 20
13922.6688694421
 30
0.0
 10
1780.9544469377
 20
13852.1591356207
 30
0.0
 11
1650.23751433964
 21
14285.1133505137
 31
0.0
 11
1704.677111377378
 21
14065.33672630773
 31
0.0
 11
1780.9544469377
 21
13852.1591356207
 31
0.0
  0
SPLINE
  5
22E
330
1F
100
AcDbEntity
  8
1
  6
Continuous
 62
     3
100
AcDbSpline
210
0.0
220
0.0
230
1.0
 70
     8
 71
     3
 72
    31
 73
    27
 74
    25
 42
0.0000000001
 43
0.0000000001
 44
0.00000001
 40
0.0
 40
0.0
 40
0.0
 40
0.0
 40
38.66651827268711
 40
77.33301612659389
 40
107.6385608466969
 40
137.9557207448262
 40
168.37500959112
 40
198.7919216838064
 40
229.3876499452609
 40
259.9852732418086
 40
290.5192715351595
 40
321.0426621089037
 40
343.1798437467217
 40
365.3227350949156
 40
387.4223954494048
 40
409.5180917476781
 40
433.1616634079442
 40
456.8049743437806
 40
480.7070489161244
 40
504.627255599553
 40
520.9427058088502
 40
537.2164512708166
 40
553.21909750313
 40
569.402665689348
 40
586.3898272300912
 40
603.3183701569761
 40
603.3183701569761
 40
603.3183701569761
 40
603.3183701569761
 10
1907.99797633278
 20
13725.8705400501
 30
0.0
 10
1896.883473327829
 20
13732.40370476388
 30
0.0
 10
1874.654473187206
 20
13745.47003074144
 30
0.0
 10
1845.233379520787
 20
13766.0856653083
 30
0.0
 10
1819.440733626591
 20
13786.84688878052
 30
0.0
 10
1796.760434388276
 20
13807.02486390198
 30
0.0
 10
1774.781895205674
 20
13828.01046856888
 30
0.0
 10
1753.221954081963
 20
13849.55343920491
 30
0.0
 10
1731.831386702112
 20
13871.34754032595
 30
0.0
 10
1710.864186423017
 20
13893.60673283099
 30
0.0
 10
1690.615676581659
 20
13916.49289724964
 30
0.0
 10
1673.113246707698
 20
13938.01868614826
 30
0.0
 10
1658.269307184955
 20
13958.05859749433
 30
0.0
 10
1645.505595069268
 20
13976.13341909374
 30
0.0
 10
1632.885222175929
 20
13994.29075987082
 30
0.0
 10
1619.835095040052
 20
14012.75960896561
 30
0.0
 10
1606.043318314483
 20
14031.32688318306
 30
0.0
 10
1591.722426136178
 20
14050.24734700224
 30
0.0
 10
1577.468634013451
 20
14069.33604686358
 30
0.0
 10
1565.076547498597
 20
14086.75882996695
 30
0.0
 10
1554.669650811899
 20
14102.47190039264
 30
0.0
 10
1545.032211808248
 20
14115.46933591697
 30
0.0
 10
1533.648542282767
 20
14127.22589336301
 30
0.0
 10
1520.276129506806
 20
14136.09505185753
 30
0.0
 10
1502.955758720157
 20
14143.13644651871
 30
0.0
 10
1493.496606839413
 20
14135.49986518505
 30
0.0
 10
1488.77520531824
 20
14131.6881739066
 30
0.0
 11
1907.99797633278
 21
13725.8705400501
 31
0.0
 11
1874.927315018468
 21
13745.90628300029
 31
0.0
 11
1843.241985718128
 21
13768.06791568868
 31
0.0
 11
1819.605154929294
 21
13787.03436688658
 31
0.0
 11
1796.906987356567
 21
13807.13221187377
 31
0.0
 11
1774.86213205481
 21
13828.0930679784
 31
0.0
 11
1753.299115941969
 21
13849.54592040812
 31
0.0
 11
1731.906993553088
 21
13871.42000753303
 31
0.0
 11
1710.966966800582
 21
13893.72986703509
 31
0.0
 11
1690.774297380071
 21
13916.63360370517
 31
0.0
 11
1671.560209265244
 21
13940.35060583514
 31
0.0
 11
1658.338568920108
 21
13958.10569066877
 31
0.0
 11
1645.519895680217
 21
13976.16086315831
 31
0.0
 11
1632.860968281925
 21
13994.27567877726
 31
0.0
 11
1620.064445287252
 21
14012.28869613006
 31
0.0
 11
1606.015028143883
 21
14031.30532986965
 31
0.0
 11
1591.79467540441
 21
14050.19415513682
 31
0.0
 11
1577.546786674614
 21
14069.38547701951
 31
0.0
 11
1563.735901338467
 21
14088.91585679078
 31
0.0
 11
1554.546208756946
 21
14102.39708321085
 31
0.0
 11
1544.678343725748
 21
14115.33771809044
 31
0.0
 11
1533.396375961918
 21
14126.68681011635
 31
0.0
 11
1519.912138382102
 21
14135.63573274027
 31
0.0
 11
1503.504008020904
 21
14140.03310869205
 31
0.0
 11
1488.77520531824
 21
14131.6881739066
 31
0.0
  0
SPLINE
  5
22F
330
1F
100
AcDbEntity
  8
1
  6
Continuous
 62
     3
100
AcDbSpline
210
0.0
220
0.0
230
1.0
 70
     8
 71
     3
 72
    23
 73
    19
 74
    17
 42
0.0000000001
 43
0.0000000001
 44
0.00000001
 40
0.0
 40
0.0
 40
0.0
 40
0.0
 40
59.22223057806354
 40
118.4444620989817
 40
159.4017791753563
 40
200.3624835371521
 40
241.3480967293314
 40
282.3289485609246
 40
310.2250321980193
 40
338.1238861825477
 40
365.9632880072805
 40
393.7934648245231
 40
425.9931192028564
 40
458.2087699244961
 40
490.4977023725161
 40
522.7787002087301
 40
605.9125312232253
 40
689.0463638956378
 40
689.0463638956378
 40
689.0463638956378
 40
689.0463638956378
 10
1933.53370991056
 20
13611.663419758
 30
0.0
 10
1919.641194696609
 20
13625.6916352066
 30
0.0
 10
1891.856164047527
 20
13653.74806632713
 30
0.0
 10
1852.71639587258
 20
13689.70721735773
 30
0.0
 10
1817.456168947499
 20
13720.85224966137
 30
0.0
 10
1786.574516112268
 20
13747.77288857834
 30
0.0
 10
1755.877745330986
 20
13774.91652160024
 30
0.0
 10
1728.917172881309
 20
13799.70647831123
 30
0.0
 10
1705.766141736284
 20
13822.17570194641
 30
0.0
 10
1686.342258812557
 20
13842.18062732126
 30
0.0
 10
1667.69446181164
 20
13862.88446140008
 30
0.0
 10
1649.095931651118
 20
13885.52863159648
 30
0.0
 10
1630.985143566096
 20
13910.39770668098
 30
0.0
 10
1613.154282891671
 20
13937.25805751083
 30
0.0
 10
1595.971827784025
 20
13964.5645715478
 30
0.0
 10
1570.00834346197
 20
14006.39807569223
 30
0.0
 10
1533.67184636416
 20
14061.72099411532
 30
0.0
 10
1503.740752433032
 20
14108.3657804878
 30
0.0
 10
1488.77520531824
 20
14131.6881739066
 30
0.0
 11
1933.53370991056
 21
13611.663419758
 31
0.0
 11
1891.531661201626
 21
13653.41387483209
 31
0.0
 11
1848.0816722449
 21
13693.65528591542
 31
0.0
 11
1817.427462113617
 21
13720.8181507003
 31
0.0
 11
1786.612552827836
 21
13747.80371475821
 31
0.0
 11
1755.964933534252
 21
13775.01665139457
 31
0.0
 11
1725.856806881096
 21
13802.81828671123
 31
0.0
 11
1705.864096677739
 21
13822.27292680074
 31
0.0
 11
1686.455577581436
 21
13842.31427007255
 31
0.0
 11
1667.852263758121
 21
13863.02535427281
 31
0.0
 11
1650.218559153571
 21
13884.55605801418
 31
0.0
 11
1631.180581142172
 21
13910.52475330912
 31
0.0
 11
1613.278078533026
 21
13937.30811664811
 31
0.0
 11
1595.998681126454
 21
13964.58443575275
 31
0.0
 11
1578.882018568567
 21
13991.95381068499
 31
0.0
 11
1533.796256772311
 21
14061.80012728363
 31
0.0
 11
1488.77520531824
 21
14131.6881739066
 31
0.0
  0
SPLINE
  5
230
330
1F
100
AcDbEntity
  8
1
  6
Continuous
 62
     3
100
AcDbSpline
210
0.0
220
0.0
230
1.0
 70
     8
 71
     3
 72
     9
 73
     5
 74
     3
 42
0.0000000001
 43
0.0000000001
 44
0.00000001
 40
0.0
 40
0.0
 40
0.0
 40
0.0
 40
381.5711205112486
 40
763.1298300062156
 40
763.1298300062156
 40
763.1298300062156
 40
763.1298300062156
 10
1467.5307100629
 20
14109.248238747
 30
0.0
 10
1532.298202216514
 20
13999.10895760982
 30
0.0
 10
1661.831079890518
 20
13778.83397773552
 30
0.0
 10
1842.967148527842
 20
13598.58544188929
 30
0.0
 10
1933.53370991057
 20
13508.462639685
 30
0.0
 11
1467.5307100629
 21
14109.248238747
 31
0.0
 11
1674.734403887305
 21
13788.83733182632
 31
0.0
 11
1933.53370991057
 21
13508.462639685
 31
0.0
  0
ENDSEC
  0
SECTION
  2
OBJECTS
  0
DICTIONARY
  5
C
330
0
100
AcDbDictionary
281
     1
  3
ACAD_GROUP
350
D
  3
ACAD_LAYOUT
350
1A
  3
ACAD_MATERIAL
350
3B
  3
ACAD_MLEADERSTYLE
350
232
  3
ACAD_MLINESTYLE
350
17
  3
ACAD_PLOTSETTINGS
350
19
  3
ACAD_PLOTSTYLENAME
350
E
  3
ACAD_TABLESTYLE
350
231
  3
ACAD_VISUALSTYLE
350
2A
  0
DICTIONARY
  5
D
102
{ACAD_REACTORS
330
C
102
}
330
C
100
AcDbDictionary
281
     1
  0
DICTIONARY
  5
1A
102
{ACAD_REACTORS
330
C
102
}
330
C
100
AcDbDictionary
281
     1
  3
Layout1
350
1E
  3
Layout2
350
26
  3
Model
350
22
  0
DICTIONARY
  5
3B
102
{ACAD_REACTORS
330
C
102
}
330
C
100
AcDbDictionary
281
     1
  3
ByBlock
350
3D
  3
ByLayer
350
3C
  3
Global
350
3E
  0
DICTIONARY
  5
232
102
{ACAD_REACTORS
330
C
102
}
330
C
100
AcDbDictionary
281
     1
  0
DICTIONARY
  5
17
102
{ACAD_REACTORS
330
C
102
}
330
C
100
AcDbDictionary
281
     1
  3
Standard
350
18
  0
DICTIONARY
  5
19
102
{ACAD_REACTORS
330
C
102
}
330
C
100
AcDbDictionary
281
     1
  0
ACDBDICTIONARYWDFLT
  5
E
102
{ACAD_REACTORS
330
C
102
}
330
C
100
AcDbDictionary
281
     1
  3
Normal
350
F
100
AcDbDictionaryWithDefault
340
F
  0
DICTIONARY
  5
231
102
{ACAD_REACTORS
330
C
102
}
330
C
100
AcDbDictionary
281
     1
  0
DICTIONARY
  5
2A
102
{ACAD_REACTORS
330
C
102
}
330
C
100
AcDbDictionary
281
     1
  3
2dWireframe
350
2F
  3
3D Hidden
350
31
  3
3dWireframe
350
30
  3
Basic
350
32
  3
Brighten
350
36
  3
ColorChange
350
3A
  3
Conceptual
350
34
  3
Dim
350
35
  3
Facepattern
350
39
  3
Flat
350
2B
  3
FlatWithEdges
350
2C
  3
Gouraud
350
2D
  3
GouraudWithEdges
350
2E
  3
Linepattern
350
38
  3
Realistic
350
33
  3
Thicken
350
37
  0
LAYOUT
  5
1E
102
{ACAD_REACTORS
330
1A
102
}
330
1A
100
AcDbPlotSettings
  1

  2
none_device
  4

  6

 40
0.0
 41
0.0
 42
0.0
 43
0.0
 44
0.0
 45
0.0
 46
0.0
 47
0.0
 48
0.0
 49
0.0
140
0.0
141
0.0
142
1.0
143
1.0
 70
   688
 72
     0
 73
     0
 74
     5
  7

 75
    16
 76
     0
 77
     2
 78
   300
147
1.0
148
0.0
149
0.0
100
AcDbLayout
  1
Layout1
 70
     1
 71
     1
 10
0.0
 20
0.0
 11
12.0
 21
9.0
 12
0.0
 22
0.0
 32
0.0
 14
1.00000000000000E+20
 24
1.00000000000000E+20
 34
1.00000000000000E+20
 15
-1.00000000000000E+20
 25
-1.00000000000000E+20
 35
-1.00000000000000E+20
146
0.0
 13
0.0
 23
0.0
 33
0.0
 16
1.0
 26
0.0
 36
0.0
 17
0.0
 27
1.0
 37
0.0
 76
     0
330
1B
  0
LAYOUT
  5
26
102
{ACAD_REACTORS
330
1A
102
}
330
1A
100
AcDbPlotSettings
  1

  2
none_device
  4

  6

 40
0.0
 41
0.0
 42
0.0
 43
0.0
 44
0.0
 45
0.0
 46
0.0
 47
0.0
 48
0.0
 49
0.0
140
0.0
141
0.0
142
1.0
143
1.0
 70
   688
 72
     0
 73
     0
 74
     5
  7

 75
    16
 76
     0
 77
     2
 78
   300
147
1.0
148
0.0
149
0.0
100
AcDbLayout
  1
Layout2
 70
     1
 71
     2
 10
0.0
 20
0.0
 11
0.0
 21
0.0
 12
0.0
 22
0.0
 32
0.0
 14
0.0
 24
0.0
 34
0.0
 15
0.0
 25
0.0
 35
0.0
146
0.0
 13
0.0
 23
0.0
 33
0.0
 16
1.0
 26
0.0
 36
0.0
 17
0.0
 27
1.0
 37
0.0
 76
     0
330
23
  0
LAYOUT
  5
22
102
{ACAD_REACTORS
330
1A
102
}
330
1A
100
AcDbPlotSettings
  1

  2
none_device
  4

  6

 40
0.0
 41
0.0
 42
0.0
 43
0.0
 44
0.0
 45
0.0
 46
0.0
 47
0.0
 48
0.0
 49
0.0
140
0.0
141
0.0
142
1.0
143
1.0
 70
  1712
 72
     0
 73
     0
 74
     0
  7

 75
     0
 76
     0
 77
     2
 78
   300
147
1.0
148
0.0
149
0.0
100
AcDbLayout
  1
Model
 70
     1
 71
     0
 10
0.0
 20
0.0
 11
12.0
 21
9.0
 12
0.0
 22
0.0
 32
0.0
 14
-2968.29846199623
 24
10699.8433174569
 34
0.0
 15
7949.26414492469
 25
14500.7457638885
 35
0.0
146
0.0
 13
0.0
 23
0.0
 33
0.0
 16
1.0
 26
0.0
 36
0.0
 17
0.0
 27
1.0
 37
0.0
 76
     0
330
1F
331
29
  0
MATERIAL
  5
3D
102
{ACAD_REACTORS
330
3B
102
}
330
3B
100
AcDbMaterial
  1
ByBlock
 72
     1
 94
      127
  0
MATERIAL
  5
3C
102
{ACAD_REACTORS
330
3B
102
}
330
3B
100
AcDbMaterial
  1
ByLayer
 72
     1
 94
      127
  0
MATERIAL
  5
3E
102
{ACAD_REACTORS
330
3B
102
}
330
3B
100
AcDbMaterial
  1
Global
 72
     1
 94
      127
  0
MLINESTYLE
  5
18
102
{ACAD_REACTORS
330
17
102
}
330
17
100
AcDbMlineStyle
  2
Standard
 70
     0
  3

 62
   256
 51
90.0
 52
90.0
 71
     2
 49
0.5
 62
   256
  6
BYLAYER
 49
-0.5
 62
   256
  6
BYLAYER
  0
ACDBPLACEHOLDER
  5
F
102
{ACAD_REACTORS
330
E
102
}
330
E
  0
VISUALSTYLE
  5
2F
102
{ACAD_REACTORS
330
2A
102
}
330
2A
100
AcDbVisualStyle
  2
2dWireframe
 70
     4
177
     2
291
     0
 71
     0
176
     1
 72
     2
176
     1
 73
     0
176
     1
 90
        0
176
     1
 40
-0.6
176
     1
 41
-30.0
176
     1
 62
     5
 63
     7
421
 16777215
176
     1
 74
     1
176
     1
 91
        4
176
     1
 64
     7
176
     1
 65
   257
176
     1
 75
     1
176
     1
175
     1
176
     1
 42
1.0
176
     1
 92
        0
176
     1
 66
   257
176
     1
 43
1.0
176
     1
 76
     1
176
     1
 77
     6
176
     1
 78
     2
176
     1
 67
     7
176
     1
 79
     5
176
     1
170
     0
176
     1
171
     0
176
     1
290
     0
176
     1
 93
        1
176
     1
 44
0.0
176
     1
173
     0
176
     1
  0
VISUALSTYLE
  5
31
102
{ACAD_REACTORS
330
2A
102
}
330
2A
100
AcDbVisualStyle
  2
3D Hidden
 70
     6
177
     2
291
     0
 71
     1
176
     1
 72
     2
176
     1
 73
     2
176
     1
 90
        0
176
     1
 40
-0.6
176
     1
 41
-30.0
176
     1
 62
     5
 63
     7
421
 16777215
176
     1
 74
     2
176
     1
 91
        2
176
     1
 64
     7
176
     1
 65
   257
176
     1
 75
     2
176
     1
175
     1
176
     1
 42
40.0
176
     1
 92
        0
176
     1
 66
   257
176
     1
 43
1.0
176
     1
 76
     1
176
     1
 77
     6
176
     1
 78
     2
176
     1
 67
     7
176
     1
 79
     3
176
     1
170
     0
176
     1
171
     0
176
     1
290
     0
176
     1
 93
        1
176
     1
 44
0.0
176
     1
173
     0
176
     1
  0
VISUALSTYLE
  5
30
102
{ACAD_REACTORS
330
2A
102
}
330
2A
100
AcDbVisualStyle
  2
3dWireframe
 70
     5
177
     2
291
     0
 71
     0
176
     1
 72
     2
176
     1
 73
     0
176
     1
 90
        0
176
     1
 40
-0.6
176
     1
 41
-30.0
176
     1
 62
     5
 63
     7
421
 16777215
176
     1
 74
     1
176
     1
 91
        4
176
     1
 64
     7
176
     1
 65
   257
176
     1
 75
     1
176
     1
175
     1
176
     1
 42
1.0
176
     1
 92
        0
176
     1
 66
   257
176
     1
 43
1.0
176
     1
 76
     1
176
     1
 77
     6
176
     1
 78
     2
176
     1
 67
     7
176
     1
 79
     5
176
     1
170
     0
176
     1
171
     0
176
     1
290
     0
176
     1
 93
        1
176
     1
 44
0.0
176
     1
173
     0
176
     1
  0
VISUALSTYLE
  5
32
102
{ACAD_REACTORS
330
2A
102
}
330
2A
100
AcDbVisualStyle
  2
Basic
 70
     7
177
     2
291
     1
 71
     1
176
     1
 72
     0
176
     1
 73
     1
176
     1
 90
        0
176
     1
 40
-0.6
176
     1
 41
-30.0
176
     1
 62
     5
 63
     7
421
 16777215
176
     1
 74
     0
176
     1
 91
        4
176
     1
 64
     7
176
     1
 65
   257
176
     1
 75
     1
176
     1
175
     1
176
     1
 42
1.0
176
     1
 92
        8
176
     1
 66
     7
176
     1
 43
1.0
176
     1
 76
     1
176
     1
 77
     6
176
     1
 78
     2
176
     1
 67
     7
176
     1
 79
     5
176
     1
170
     0
176
     1
171
     0
176
     1
290
     0
176
     1
 93
        1
176
     1
 44
0.0
176
     1
173
     0
176
     1
  0
VISUALSTYLE
  5
36
102
{ACAD_REACTORS
330
2A
102
}
330
2A
100
AcDbVisualStyle
  2
Brighten
 70
    12
177
     2
291
     1
 71
     2
176
     1
 72
     2
176
     1
 73
     0
176
     1
 90
        0
176
     1
 40
-0.6
176
     1
 41
-30.0
176
     1
 62
     5
 63
     7
421
 16777215
176
     1
 74
     1
176
     1
 91
        4
176
     1
 64
     7
176
     1
 65
   257
176
     1
 75
     1
176
     1
175
     1
176
     1
 42
1.0
176
     1
 92
        8
176
     1
 66
     7
176
     1
 43
1.0
176
     1
 76
     1
176
     1
 77
     6
176
     1
 78
     2
176
     1
 67
     7
176
     1
 79
     5
176
     1
170
     0
176
     1
171
     0
176
     1
290
     0
176
     1
 93
        1
176
     1
 44
50.0
176
     1
173
     0
176
     1
  0
VISUALSTYLE
  5
3A
102
{ACAD_REACTORS
330
2A
102
}
330
2A
100
AcDbVisualStyle
  2
ColorChange
 70
    16
177
     2
291
     1
 71
     2
176
     1
 72
     2
176
     1
 73
     3
176
     1
 90
        0
176
     1
 40
-0.6
176
     1
 41
-30.0
176
     1
 62
     5
 63
     8
421
  8421504
176
     1
 74
     1
176
     1
 91
        4
176
     1
 64
     7
176
     1
 65
   257
176
     1
 75
     1
176
     1
175
     1
176
     1
 42
1.0
176
     1
 92
        8
176
     1
 66
     8
424
  8421504
176
     1
 43
1.0
176
     1
 76
     1
176
     1
 77
     6
176
     1
 78
     2
176
     1
 67
     7
176
     1
 79
     5
176
     1
170
     0
176
     1
171
     0
176
     1
290
     0
176
     1
 93
        1
176
     1
 44
0.0
176
     1
173
     0
176
     1
  0
VISUALSTYLE
  5
34
102
{ACAD_REACTORS
330
2A
102
}
330
2A
100
AcDbVisualStyle
  2
Conceptual
 70
     9
177
     2
291
     0
 71
     3
176
     1
 72
     2
176
     1
 73
     0
176
     1
 90
        0
176
     1
 40
-0.6
176
     1
 41
-30.0
176
     1
 62
     5
 63
     7
421
 16777215
176
     1
 74
     2
176
     1
 91
        2
176
     1
 64
     7
176
     1
 65
   257
176
     1
 75
     1
176
     1
175
     1
176
     1
 42
40.0
176
     1
 92
        8
176
     1
 66
     7
176
     1
 43
1.0
176
     1
 76
     1
176
     1
 77
     6
176
     1
 78
     2
176
     1
 67
     7
176
     1
 79
     3
176
     1
170
     0
176
     1
171
     0
176
     1
290
     0
176
     1
 93
        1
176
     1
 44
0.0
176
     1
173
     0
176
     1
  0
VISUALSTYLE
  5
35
102
{ACAD_REACTORS
330
2A
102
}
330
2A
100
AcDbVisualStyle
  2
Dim
 70
    11
177
     2
291
     1
 71
     2
176
     1
 72
     2
176
     1
 73
     0
176
     1
 90
        0
176
     1
 40
-0.6
176
     1
 41
-30.0
176
     1
 62
     5
 63
     7
421
 16777215
176
     1
 74
     1
176
     1
 91
        4
176
     1
 64
     7
176
     1
 65
   257
176
     1
 75
     1
176
     1
175
     1
176
     1
 42
1.0
176
     1
 92
        8
176
     1
 66
     7
176
     1
 43
1.0
176
     1
 76
     1
176
     1
 77
     6
176
     1
 78
     2
176
     1
 67
     7
176
     1
 79
     5
176
     1
170
     0
176
     1
171
     0
176
     1
290
     0
176
     1
 93
        1
176
     1
 44
-50.0
176
     1
173
     0
176
     1
  0
VISUALSTYLE
  5
39
102
{ACAD_REACTORS
330
2A
102
}
330
2A
100
AcDbVisualStyle
  2
Facepattern
 70
    15
177
     2
291
     1
 71
     2
176
     1
 72
     2
176
     1
 73
     0
176
     1
 90
        0
176
     1
 40
-0.6
176
     1
 41
-30.0
176
     1
 62
     5
 63
     7
421
 16777215
176
     1
 74
     1
176
     1
 91
        4
176
     1
 64
     7
176
     1
 65
   257
176
     1
 75
     1
176
     1
175
     1
176
     1
 42
1.0
176
     1
 92
        8
176
     1
 66
     7
176
     1
 43
1.0
176
     1
 76
     1
176
     1
 77
     6
176
     1
 78
     2
176
     1
 67
     7
176
     1
 79
     5
176
     1
170
     0
176
     1
171
     0
176
     1
290
     0
176
     1
 93
        1
176
     1
 44
0.0
176
     1
173
     0
176
     1
  0
VISUALSTYLE
  5
2B
102
{ACAD_REACTORS
330
2A
102
}
330
2A
100
AcDbVisualStyle
  2
Flat
 70
     0
177
     2
291
     1
 71
     2
176
     1
 72
     1
176
     1
 73
     1
176
     1
 90
        2
176
     1
 40
-0.6
176
     1
 41
30.0
176
     1
 62
     5
 63
     7
421
 16777215
176
     1
 74
     0
176
     1
 91
        4
176
     1
 64
     7
176
     1
 65
   257
176
     1
 75
     1
176
     1
175
     1
176
     1
 42
1.0
176
     1
 92
        8
176
     1
 66
     7
176
     1
 43
1.0
176
     1
 76
     1
176
     1
 77
     6
176
     1
 78
     2
176
     1
 67
     7
176
     1
 79
     5
176
     1
170
     0
176
     1
171
     0
176
     1
290
     0
176
     1
 93
       13
176
     1
 44
0.0
176
     1
173
     0
176
     1
  0
VISUALSTYLE
  5
2C
102
{ACAD_REACTORS
330
2A
102
}
330
2A
100
AcDbVisualStyle
  2
FlatWithEdges
 70
     1
177
     2
291
     1
 71
     2
176
     1
 72
     1
176
     1
 73
     1
176
     1
 90
        2
176
     1
 40
-0.6
176
     1
 41
30.0
176
     1
 62
     5
 63
     7
421
 16777215
176
     1
 74
     1
176
     1
 91
        4
176
     1
 64
     7
176
     1
 65
   257
176
     1
 75
     1
176
     1
175
     1
176
     1
 42
1.0
176
     1
 92
        0
176
     1
 66
   257
176
     1
 43
1.0
176
     1
 76
     1
176
     1
 77
     6
176
     1
 78
     2
176
     1
 67
     7
176
     1
 79
     5
176
     1
170
     0
176
     1
171
     0
176
     1
290
     0
176
     1
 93
       13
176
     1
 44
0.0
176
     1
173
     0
176
     1
  0
VISUALSTYLE
  5
2D
102
{ACAD_REACTORS
330
2A
102
}
330
2A
100
AcDbVisualStyle
  2
Gouraud
 70
     2
177
     2
291
     1
 71
     2
176
     1
 72
     2
176
     1
 73
     1
176
     1
 90
        2
176
     1
 40
-0.6
176
     1
 41
30.0
176
     1
 62
     5
 63
     7
421
 16777215
176
     1
 74
     0
176
     1
 91
        4
176
     1
 64
     7
176
     1
 65
   257
176
     1
 75
     1
176
     1
175
     1
176
     1
 42
1.0
176
     1
 92
        0
176
     1
 66
     7
176
     1
 43
1.0
176
     1
 76
     1
176
     1
 77
     6
176
     1
 78
     2
176
     1
 67
     7
176
     1
 79
     5
176
     1
170
     0
176
     1
171
     0
176
     1
290
     0
176
     1
 93
       13
176
     1
 44
0.0
176
     1
173
     0
176
     1
  0
VISUALSTYLE
  5
2E
102
{ACAD_REACTORS
330
2A
102
}
330
2A
100
AcDbVisualStyle
  2
GouraudWithEdges
 70
     3
177
     2
291
     1
 71
     2
176
     1
 72
     2
176
     1
 73
     1
176
     1
 90
        2
176
     1
 40
-0.6
176
     1
 41
30.0
176
     1
 62
     5
 63
     7
421
 16777215
176
     1
 74
     1
176
     1
 91
        4
176
     1
 64
     7
176
     1
 65
   257
176
     1
 75
     1
176
     1
175
     1
176
     1
 42
1.0
176
     1
 92
        0
176
     1
 66
   257
176
     1
 43
1.0
176
     1
 76
     1
176
     1
 77
     6
176
     1
 78
     2
176
     1
 67
     7
176
     1
 79
     5
176
     1
170
     0
176
     1
171
     0
176
     1
290
     0
176
     1
 93
       13
176
     1
 44
0.0
176
     1
173
     0
176
     1
  0
VISUALSTYLE
  5
38
102
{ACAD_REACTORS
330
2A
102
}
330
2A
100
AcDbVisualStyle
  2
Linepattern
 70
    14
177
     2
291
     1
 71
     2
176
     1
 72
     2
176
     1
 73
     0
176
     1
 90
        0
176
     1
 40
-0.6
176
     1
 41
-30.0
176
     1
 62
     5
 63
     7
421
 16777215
176
     1
 74
     1
176
     1
 91
        4
176
     1
 64
     7
176
     1
 65
   257
176
     1
 75
     7
176
     1
175
     7
176
     1
 42
1.0
176
     1
 92
        8
176
     1
 66
     7
176
     1
 43
1.0
176
     1
 76
     1
176
     1
 77
     6
176
     1
 78
     2
176
     1
 67
     7
176
     1
 79
     5
176
     1
170
     0
176
     1
171
     0
176
     1
290
     0
176
     1
 93
        1
176
     1
 44
0.0
176
     1
173
     0
176
     1
  0
VISUALSTYLE
  5
33
102
{ACAD_REACTORS
330
2A
102
}
330
2A
100
AcDbVisualStyle
  2
Realistic
 70
     8
177
     2
291
     0
 71
     2
176
     1
 72
     2
176
     1
 73
     0
176
     1
 90
        0
176
     1
 40
-0.6
176
     1
 41
-30.0
176
     1
 62
     5
 63
     7
421
 16777215
176
     1
 74
     1
176
     1
 91
        0
176
     1
 64
     7
176
     1
 65
   257
176
     1
 75
     1
176
     1
175
     1
176
     1
 42
1.0
176
     1
 92
        8
176
     1
 66
     8
424
  7895160
176
     1
 43
1.0
176
     1
 76
     1
176
     1
 77
     6
176
     1
 78
     2
176
     1
 67
     7
176
     1
 79
     5
176
     1
170
     0
176
     1
171
     0
176
     1
290
     0
176
     1
 93
       13
176
     1
 44
0.0
176
     1
173
     0
176
     1
  0
VISUALSTYLE
  5
37
102
{ACAD_REACTORS
330
2A
102
}
330
2A
100
AcDbVisualStyle
  2
Thicken
 70
    13
177
     2
291
     1
 71
     2
176
     1
 72
     2
176
     1
 73
     0
176
     1
 90
        0
176
     1
 40
-0.6
176
     1
 41
-30.0
176
     1
 62
     5
 63
     7
421
 16777215
176
     1
 74
     1
176
     1
 91
        4
176
     1
 64
     7
176
     1
 65
   257
176
     1
 75
     1
176
     1
175
     1
176
     1
 42
1.0
176
     1
 92
       12
176
     1
 66
     7
176
     1
 43
1.0
176
     1
 76
     1
176
     1
 77
     6
176
     1
 78
     2
176
     1
 67
     7
176
     1
 79
     5
176
     1
170
     0
176
     1
171
     0
176
     1
290
     0
176
     1
 93
        1
176
     1
 44
0.0
176
     1
173
     0
176
     1
  0
ENDSEC
  0
EOF
