  0
SECTION
  2
HEADER
  9
$ACADVER
  1
AC1015
  9
$ACADMAINTVER
 70
     6
  9
$DWGCODEPAGE
  3
ANSI_932
  9
$INSBASE
 10
0.0
 20
0.0
 30
0.0
  9
$EXTMIN
 10
82.733796
 20
204.216648
 30
1.000000E+20
  9
$EXTMAX
 10
119.453863
 20
215.279194
 30
-1.000000E+20
  9
$LIMMIN
 10
82.733796
 20
204.216648
  9
$LIMMAX
 10
119.453863
 20
215.279194
  9
$ORTHOMODE
 70
     0
  9
$REGENMODE
 70
     1
  9
$FILLMODE
 70
     1
  9
$QTEXTMODE
 70
     0
  9
$MIRRTEXT
 70
     1
  9
$LTSCALE
 40
1.0
  9
$ATTMODE
 70
     1
  9
$TEXTSIZE
 40
0.2
  9
$TRACEWID
 40
0.05
  9
$TEXTSTYLE
  7
Standard
  9
$CLAYER
  8
0
  9
$CELTYPE
  6
Continuous
  9
$CECOLOR
 62
   256
  9
$CELTSCALE
 40
1.0
  9
$DISPSILH
 70
     0
  9
$DIMSCALE
 40
1.0
  9
$DIMASZ
 40
0.18
  9
$DIMEXO
 40
0.0625
  9
$DIMDLI
 40
0.38
  9
$DIMRND
 40
0.0
  9
$DIMDLE
 40
0.0
  9
$DIMEXE
 40
0.18
  9
$DIMTP
 40
0.0
  9
$DIMTM
 40
0.0
  9
$DIMTXT
 40
0.18
  9
$DIMCEN
 40
0.09
  9
$DIMTSZ
 40
0.0
  9
$DIMTOL
 70
     0
  9
$DIMLIM
 70
     0
  9
$DIMTIH
 70
     1
  9
$DIMTOH
 70
     1
  9
$DIMSE1
 70
     0
  9
$DIMSE2
 70
     0
  9
$DIMTAD
 70
     0
  9
$DIMZIN
 70
     0
  9
$DIMBLK
  1

  9
$DIMASO
 70
     1
  9
$DIMSHO
 70
     1
  9
$DIMPOST
  1

  9
$DIMAPOST
  1

  9
$DIMALT
 70
     0
  9
$DIMALTD
 70
     2
  9
$DIMALTF
 40
25.4
  9
$DIMLFAC
 40
1.0
  9
$DIMTOFL
 70
     0
  9
$DIMTVP
 40
0.0
  9
$DIMTIX
 70
     0
  9
$DIMSOXD
 70
     0
  9
$DIMSAH
 70
     0
  9
$DIMBLK1
  1

  9
$DIMBLK2
  1

  9
$DIMSTYLE
  2
Standard
  9
$DIMCLRD
 70
     0
  9
$DIMCLRE
 70
     0
  9
$DIMCLRT
 70
     0
  9
$DIMTFAC
 40
1.0
  9
$DIMGAP
 40
0.09
  9
$DIMJUST
 70
     0
  9
$DIMSD1
 70
     0
  9
$DIMSD2
 70
     0
  9
$DIMTOLJ
 70
     1
  9
$DIMTZIN
 70
     0
  9
$DIMALTZ
 70
     0
  9
$DIMALTTZ
 70
     0
  9
$DIMUPT
 70
     0
  9
$DIMDEC
 70
     4
  9
$DIMTDEC
 70
     4
  9
$DIMALTU
 70
     2
  9
$DIMALTTD
 70
     2
  9
$DIMTXSTY
  7
Standard
  9
$DIMAUNIT
 70
     0
  9
$DIMADEC
 70
     0
  9
$DIMALTRND
 40
0.0
  9
$DIMAZIN
 70
     0
  9
$DIMDSEP
 70
     0
  9
$DIMATFIT
 70
     3
  9
$DIMFRAC
 70
     0
  9
$DIMLDRBLK
  1

  9
$DIMLUNIT
 70
     2
  9
$DIMLWD
 70
     0
  9
$DIMLWE
 70
     0
  9
$DIMTMOVE
 70
     0
  9
$LUNITS
 70
     2
  9
$LUPREC
 70
     4
  9
$SKETCHINC
 40
0.1
  9
$FILLETRAD
 40
0.0
  9
$AUNITS
 70
     0
  9
$AUPREC
 70
     0
  9
$MENU
  1
acad
  9
$ELEVATION
 40
0.0
  9
$PELEVATION
 40
0.0
  9
$THICKNESS
 40
0.0
  9
$LIMCHECK
 70
     0
  9
$CHAMFERA
 40
0.0
  9
$CHAMFERB
 40
0.0
  9
$CHAMFERC
 40
0.0
  9
$CHAMFERD
 40
0.0
  9
$SKPOLY
 70
     0
  9
$TDCREATE
 40
0.000000000
  9
$TDUCREATE
 40
0.000000000
  9
$TDUPDATE
 40
0.000000000
  9
$TDUUPDATE
 40
0.000000000
  9
$TDINDWG
 40
0.0000000000
  9
$TDUSRTIMER
 40
0.0000000000
  9
$USRTIMER
 70
     1
  9
$ANGBASE
 50
0.0
  9
$ANGDIR
 70
     0
  9
$PDMODE
 70
     0
  9
$PDSIZE
 40
0.0
  9
$PLINEWID
 40
0.0
  9
$SPLFRAME
 70
     0
  9
$SPLINETYPE
 70
     6
  9
$SPLINESEGS
 70
     8
  9
$HANDSEED
  5
EE
  9
$SURFTAB1
 70
     6
  9
$SURFTAB2
 70
     6
  9
$SURFTYPE
 70
     6
  9
$SURFU
 70
     6
  9
$SURFV
 70
     6
  9
$UCSBASE
  2

  9
$UCSNAME
  2

  9
$UCSORG
 10
0.0
 20
0.0
 30
0.0
  9
$UCSXDIR
 10
1.0
 20
0.0
 30
0.0
  9
$UCSYDIR
 10
0.0
 20
1.0
 30
0.0
  9
$UCSORTHOREF
  2

  9
$UCSORTHOVIEW
 70
     0
  9
$UCSORGTOP
 10
0.0
 20
0.0
 30
0.0
  9
$UCSORGBOTTOM
 10
0.0
 20
0.0
 30
0.0
  9
$UCSORGLEFT
 10
0.0
 20
0.0
 30
0.0
  9
$UCSORGRIGHT
 10
0.0
 20
0.0
 30
0.0
  9
$UCSORGFRONT
 10
0.0
 20
0.0
 30
0.0
  9
$UCSORGBACK
 10
0.0
 20
0.0
 30
0.0
  9
$PUCSBASE
  2

  9
$PUCSNAME
  2

  9
$PUCSORG
 10
0.0
 20
0.0
 30
0.0
  9
$PUCSXDIR
 10
1.0
 20
0.0
 30
0.0
  9
$PUCSYDIR
 10
0.0
 20
1.0
 30
0.0
  9
$PUCSORTHOREF
  2

  9
$PUCSORTHOVIEW
 70
     0
  9
$PUCSORGTOP
 10
0.0
 20
0.0
 30
0.0
  9
$PUCSORGBOTTOM
 10
0.0
 20
0.0
 30
0.0
  9
$PUCSORGLEFT
 10
0.0
 20
0.0
 30
0.0
  9
$PUCSORGRIGHT
 10
0.0
 20
0.0
 30
0.0
  9
$PUCSORGFRONT
 10
0.0
 20
0.0
 30
0.0
  9
$PUCSORGBACK
 10
0.0
 20
0.0
 30
0.0
  9
$USERI1
 70
     0
  9
$USERI2
 70
     0
  9
$USERI3
 70
     0
  9
$USERI4
 70
     0
  9
$USERI5
 70
     0
  9
$USERR1
 40
0.0
  9
$USERR2
 40
0.0
  9
$USERR3
 40
0.0
  9
$USERR4
 40
0.0
  9
$USERR5
 40
0.0
  9
$WORLDVIEW
 70
     1
  9
$SHADEDGE
 70
     3
  9
$SHADEDIF
 70
    70
  9
$TILEMODE
 70
     1
  9
$MAXACTVP
 70
    16
  9
$PINSBASE
 10
0.0
 20
0.0
 30
0.0
  9
$PLIMCHECK
 70
     0
  9
$PEXTMIN
 10
1.000000E+20
 20
1.000000E+20
 30
1.000000E+20
  9
$PEXTMAX
 10
-1.000000E+20
 20
-1.000000E+20
 30
-1.000000E+20
  9
$PLIMMIN
 10
0.0
 20
0.0
  9
$PLIMMAX
 10
12.0
 20
9.0
  9
$UNITMODE
 70
     0
  9
$VISRETAIN
 70
     0
  9
$PLINEGEN
 70
     1
  9
$PSLTSCALE
 70
     0
  9
$TREEDEPTH
 70
  3020
  9
$CMLSTYLE
  2
Standard
  9
$CMLJUST
 70
     0
  9
$CMLSCALE
 40
1.0
  9
$PROXYGRAPHICS
 70
     0
  9
$MEASUREMENT
 70
     0
  9
$CELWEIGHT
370
     0
  9
$ENDCAPS
280
     0
  9
$JOINSTYLE
280
     0
  9
$LWDISPLAY
290
     0
  9
$INSUNITS
 70
     0
  9
$HYPERLINKBASE
  1

  9
$XEDIT
290
     1
  9
$CEPSNTYPE
380
     0
  9
$PSTYLEMODE
290
     1
  9
$FINGERPRINTGUID
  2

  9
$VERSIONGUID
  2

  9
$EXTNAMES
290
     1
  9
$PSVPSCALE
 40
0.0
  0
ENDSEC
  0
SECTION
  2
CLASSES
  0
CLASS
  1
LWPOLYLINE
  2
AcDbPolyline
  3
"AutoCAD"
 90
        0
280
     0
281
     1
  0
CLASS
  1
IMAGE
  2
AcDbRasterImage
  3
ISM
 90
      127
280
     0
281
     1
  0
CLASS
  1
OLE2FRAME
  2
AcDbOle2Frame
  3
""
 90
        0
280
     0
281
     1
  0
CLASS
  1
HATCH
  2
AcDbHatch
  3
"ACAD_SEDONA"
 90
        0
280
     0
281
     1
  0
CLASS
  1
DICTIONARYVAR
  2
AcDbDictionaryVar
  3
"AutoCAD"
 90
        0
280
     0
281
     0
  0
CLASS
  1
RASTERVARIABLES
  2
AcDbRasterVariables
  3
ISM
 90
        0
280
     0
281
     0
  0
CLASS
  1
IMAGEDEF
  2
AcDbRasterImageDef
  3
ISM
 90
        0
280
     0
281
     0
  0
CLASS
  1
IMAGEDEF_REACTOR
  2
AcDbRasterImageDefReactor
  3
ISM
 90
        1
280
     0
281
     0
  0
CLASS
  1
IDBUFFER
  2
AcDbIdBuffer
  3
"Acad"
 90
        0
280
     0
281
     0
  0
CLASS
  1
SPATIAL_FILTER
  2
AcDbSpatialFilter
  3
"Acad"
 90
        0
280
     0
281
     0
  0
CLASS
  1
XRECORD
  2
AcDbXrecord
  3
"<Built In>"
 90
        0
280
     0
281
     0
  0
CLASS
  1
SORTENTSTABLE
  2
AcDbSortentsTable
  3
"AutoCAD"
 90
        0
280
     0
281
     0
  0
CLASS
  1
LAYER_INDEX
  2
AcDbLayerIndex
  3
"Acad"
 90
        0
280
     0
281
     0
  0
CLASS
  1
SPATIAL_INDEX
  2
AcDbSpatialIndex
  3
"Acad"
 90
        0
280
     0
281
     0
  0
CLASS
  1
OBJECT_PTR
  2
CAseDLPNTableRecord
  3
"ASE-LPNTableRecord"
 90
        1
280
     0
281
     0
  0
CLASS
  1
LAYOUT
  2
AcDbLayout
  3
"AutoCAD 2000"
 90
        1
280
     0
281
     0
  0
CLASS
  1
PLOTSETTINGS
  2
AcDbPlotSettings
  3
"AutoCAD 2000"
 90
        1
280
     0
281
     0
  0
CLASS
  1
ACDBDICTIONARYWDFLT
  2
AcDbDictionaryWithDefault
  3
"AutoCAD 2000"
 90
        1
280
     0
281
     0
  0
CLASS
  1
ACDBPLACEHOLDER
  2
AcDbPlaceHolder
  3
"AutoCAD 2000"
 90
        1
280
     0
281
     0
  0
CLASS
  1
VBA_PROJECT
  2
AcDbVbaProject
  3
"acadvba"
 90
        1
280
     0
281
     0
  0
CLASS
  1
WIPEOUT
  2
AcDbWipeout
  3
WipeOut|AutoCAD Express Tool|expresstools@autodesk.com
 90
      127
280
     0
281
     1
  0
CLASS
  1
WIPEOUTVARIABLES
  2
AcDbWipeoutVariables
  3
WipeOut|AutoCAD Express Tool|expresstools@autodesk.com
 90
        0
280
     0
281
     0
  0
CLASS
  1
RTEXT
  2
RText
  3
RText|AutoCAD Express Tool|expresstools@autodesk.com
 90
        0
280
     0
281
     1
  0
CLASS
  1
ARCALIGNEDTEXT
  2
AcDbArcAlignedText
  3
ATEXT|AutoCAD Express Tool|expresstools@autodesk.com
 90
        0
280
     0
281
     1
  0
ENDSEC
  0
SECTION
  2
TABLES
  0
TABLE
  2
VPORT
  5
7
100
AcDbSymbolTable
 70
     1
  0
VPORT
  5
15
100
AcDbSymbolTableRecord
100
AcDbViewportTableRecord
  2
*ACTIVE
 70
     0
 10
0.0
 20
0.0
 11
1.0
 21
1.0
 12
6.591288
 22
4.579184
 13
0.0
 23
0.0
 14
1.0
 24
1.0
 15
0.0
 25
0.0
 16
0.0
 26
0.0
 36
1.0
 17
0.0
 27
0.0
 37
0.0
 40
9.158369
 41
0.688564
 42
50.0
 43
0.0
 44
0.0
 50
0.0
 51
0.0
 71
     0
 72
   100
 73
     1
 74
     1
 75
     0
 76
     0
 77
     0
 78
     0
281
     0
 65
     0
110
0.0
120
0.0
130
0.0
111
1.0
121
0.0
131
0.0
112
0.0
122
1.0
132
0.0
345
0
346
0
 79
     0
146
0.0
  0
ENDTAB
  0
TABLE
  2
LTYPE
  5
4
100
AcDbSymbolTable
 70
     3
  0
LTYPE
  5
11
100
AcDbSymbolTableRecord
100
AcDbLinetypeTableRecord
  2
ByBlock
 70
    64
  3

 72
    65
 73
     0
 40
0.0
  0
LTYPE
  5
12
100
AcDbSymbolTableRecord
100
AcDbLinetypeTableRecord
  2
ByLayer
 70
    64
  3

 72
    65
 73
     0
 40
0.0
  0
LTYPE
  5
13
100
AcDbSymbolTableRecord
100
AcDbLinetypeTableRecord
  2
Continuous
 70
    64
  3
Solid line
 72
    65
 73
     0
 40
0.0
  0
ENDTAB
  0
TABLE
  2
LAYER
  5
2
100
AcDbSymbolTable
 70
     4
  0
LAYER
  5
14
100
AcDbSymbolTableRecord
100
AcDbLayerTableRecord
  2
0
 70
     0
 62
     7
  6
Continuous
290
     1
370
    -3
390
1D
  0
LAYER
  5
28
100
AcDbSymbolTableRecord
100
AcDbLayerTableRecord
  2
LAYER_1
 70
     0
 62
   160
  6
Continuous
290
     1
370
    -3
390
1F
  0
LAYER
  5
29
100
AcDbSymbolTableRecord
100
AcDbLayerTableRecord
  2
0
 70
     0
 62
     7
  6
Continuous
290
     1
370
    -3
390
1F
  0
LAYER
  5
84
100
AcDbSymbolTableRecord
100
AcDbLayerTableRecord
  2
1
 70
     0
 62
     7
  6
Continuous
290
     1
370
    -3
390
1F
  0
ENDTAB
  0
TABLE
  2
STYLE
  5
3
100
AcDbSymbolTable
 70
     5
  0
STYLE
  5
17
100
AcDbSymbolTableRecord
100
AcDbTextStyleTableRecord
  2
Standard
 70
     0
 40
0.0
 41
1.0
 50
0.0
 71
     0
 42
0.0
  3
txt
  4

  0
STYLE
  5
24
100
AcDbSymbolTableRecord
100
AcDbTextStyleTableRecord
  2
STD
 70
     0
 40
0.0
 41
1.0
 50
0.0
 71
     0
 42
0.0
  3
txt
  4

  0
STYLE
  5
25
100
AcDbSymbolTableRecord
100
AcDbTextStyleTableRecord
  2
TATESTD
 70
     4
 40
0.0
 41
1.0
 50
0.0
 71
     0
 42
0.0
  3
txt
  4

  0
STYLE
  5
26
100
AcDbSymbolTableRecord
100
AcDbTextStyleTableRecord
  2
KANJISTD
 70
     0
 40
0.0
 41
1.0
 50
0.0
 71
     0
 42
0.0
  3
txt
  4
extfont
  0
STYLE
  5
27
100
AcDbSymbolTableRecord
100
AcDbTextStyleTableRecord
  2
KANJITATE
 70
     4
 40
0.0
 41
1.0
 50
0.0
 71
     0
 42
0.0
  3
txt
  4
extfont
  0
ENDTAB
  0
TABLE
  2
VIEW
  5
5
100
AcDbSymbolTable
 70
     0
  0
ENDTAB
  0
TABLE
  2
UCS
  5
6
100
AcDbSymbolTable
 70
     0
  0
ENDTAB
  0
TABLE
  2
APPID
  5
8
100
AcDbSymbolTable
 70
     1
  0
APPID
  5
16
100
AcDbSymbolTableRecord
100
AcDbRegAppTableRecord
  2
ACAD
 70
     0
  0
ENDTAB
  0
TABLE
  2
DIMSTYLE
  5
9
100
AcDbSymbolTable
 70
     1
100
AcDbDimStyleTable
 71
     0
  0
DIMSTYLE
105
18
100
AcDbSymbolTableRecord
100
AcDbDimStyleTableRecord
  2
Standard
 70
     0
  3

  4

 40
1.0
 41
0.18
 42
0.0625
 43
0.38
 44
0.18
 45
0.0
 46
0.0
 47
0.0
 48
0.0
 71
     0
 72
     0
 73
     1
 74
     1
 75
     0
 76
     0
 77
     0
 78
     0
 79
     0
140
0.18
141
0.09
142
0.0
143
25.4
144
1.0
145
0.0
146
1.0
147
0.09
148
0.0
170
     0
171
     2
172
     0
173
     0
174
     0
175
     0
176
     0
177
     0
178
     0
179
     0
271
     4
272
     4
273
     2
274
     2
275
     0
276
     0
277
     2
278
    46
279
     0
280
     0
281
     0
282
     0
283
     1
284
     0
285
     0
286
     0
288
     0
340
17
341
0
342
0
343
0
344
0
371
    -2
372
    -2
  0
ENDTAB
  0
TABLE
  2
BLOCK_RECORD
  5
1
100
AcDbSymbolTable
 70
    18
  0
BLOCK_RECORD
  5
A
100
AcDbSymbolTableRecord
100
AcDbBlockTableRecord
  2
*MODEL_SPACE
340
20
  0
BLOCK_RECORD
  5
B
100
AcDbSymbolTableRecord
100
AcDbBlockTableRecord
  2
*PAPER_SPACE
340
21
  0
BLOCK_RECORD
  5
2B
100
AcDbSymbolTableRecord
100
AcDbBlockTableRecord
  2
AI9-BLK1
340
0
  0
BLOCK_RECORD
  5
30
100
AcDbSymbolTableRecord
100
AcDbBlockTableRecord
  2
AI9-BLK2
340
0
  0
BLOCK_RECORD
  5
35
100
AcDbSymbolTableRecord
100
AcDbBlockTableRecord
  2
AI9-BLK3
340
0
  0
BLOCK_RECORD
  5
3A
100
AcDbSymbolTableRecord
100
AcDbBlockTableRecord
  2
AI9-BLK4
340
0
  0
BLOCK_RECORD
  5
3F
100
AcDbSymbolTableRecord
100
AcDbBlockTableRecord
  2
AI9-BLK5
340
0
  0
BLOCK_RECORD
  5
44
100
AcDbSymbolTableRecord
100
AcDbBlockTableRecord
  2
AI9-BLK6
340
0
  0
BLOCK_RECORD
  5
49
100
AcDbSymbolTableRecord
100
AcDbBlockTableRecord
  2
AI9-BLK7
340
0
  0
BLOCK_RECORD
  5
4E
100
AcDbSymbolTableRecord
100
AcDbBlockTableRecord
  2
AI9-BLK8
340
0
  0
BLOCK_RECORD
  5
53
100
AcDbSymbolTableRecord
100
AcDbBlockTableRecord
  2
AI9-BLK9
340
0
  0
BLOCK_RECORD
  5
58
100
AcDbSymbolTableRecord
100
AcDbBlockTableRecord
  2
AI9-BLK10
340
0
  0
BLOCK_RECORD
  5
5D
100
AcDbSymbolTableRecord
100
AcDbBlockTableRecord
  2
AI9-BLK11
340
0
  0
BLOCK_RECORD
  5
62
100
AcDbSymbolTableRecord
100
AcDbBlockTableRecord
  2
AI9-BLK12
340
0
  0
BLOCK_RECORD
  5
67
100
AcDbSymbolTableRecord
100
AcDbBlockTableRecord
  2
AI9-BLK13
340
0
  0
BLOCK_RECORD
  5
6C
100
AcDbSymbolTableRecord
100
AcDbBlockTableRecord
  2
AI9-BLK14
340
0
  0
BLOCK_RECORD
  5
71
100
AcDbSymbolTableRecord
100
AcDbBlockTableRecord
  2
AI9-BLK15
340
0
  0
BLOCK_RECORD
  5
76
100
AcDbSymbolTableRecord
100
AcDbBlockTableRecord
  2
AI9-BLK16
340
0
  0
BLOCK_RECORD
  5
7B
100
AcDbSymbolTableRecord
100
AcDbBlockTableRecord
  2
AI9-BLK17
340
0
  0
BLOCK_RECORD
  5
AA
100
AcDbSymbolTableRecord
100
AcDbBlockTableRecord
  2
AI9-BLK18
340
0
  0
ENDTAB
  0
ENDSEC
  0
SECTION
  2
BLOCKS
  0
BLOCK
  5
D
100
AcDbEntity
  8
0
100
AcDbBlockBegin
  2
*MODEL_SPACE
 70
     0
 10
0.0
 20
0.0
 30
0.0
  3
*MODEL_SPACE
  1

  0
ENDBLK
  5
E
100
AcDbEntity
  8
0
100
AcDbBlockEnd
  0
BLOCK
  5
F
100
AcDbEntity
 67
     1
  8
0
100
AcDbBlockBegin
  2
*PAPER_SPACE
 70
     0
 10
0.0
 20
0.0
 30
0.0
  3
*PAPER_SPACE
  1

  0
ENDBLK
  5
10
100
AcDbEntity
 67
     1
  8
0
100
AcDbBlockEnd
  0
BLOCK
  5
2D
100
AcDbEntity
  8
0
 62
     7
100
AcDbBlockBegin
  2
AI9-BLK1
 70
     0
 10
0.0
 20
0.0
 30
0.0
  3
AI9-BLK1
  1

  0
SPLINE
  5
2E
100
AcDbEntity
  8
0
 62
     7
100
AcDbSpline
210
0.0
220
0.0
230
1.0
 70
     8
 71
     3
 72
    29
 73
    25
 74
     0
 42
0.00000001
 43
0.00000001
 40
0.0
 40
0.0
 40
0.0
 40
0.0
 40
1.0
 40
1.0
 40
1.0
 40
2.0
 40
2.0
 40
2.0
 40
3.0
 40
3.0
 40
3.0
 40
4.0
 40
4.0
 40
4.0
 40
5.0
 40
5.0
 40
5.0
 40
6.0
 40
6.0
 40
6.0
 40
7.0
 40
7.0
 40
7.0
 40
8.0
 40
8.0
 40
8.0
 40
8.0
 10
-0.5160753038194444
 20
-0.1607998318142361
 30
0.0
 10
-0.5267550998263888
 20
-0.166656494140625
 30
0.0
 10
-0.5329562717013888
 20
-0.1807813856336805
 30
0.0
 10
-0.5295111762152778
 20
-0.1924947102864583
 30
0.0
 10
-0.5295111762152778
 20
-0.1924947102864583
 30
0.0
 10
-0.4774902343749999
 20
-0.3871426052517361
 30
0.0
 10
-0.4774902343749999
 20
-0.3871426052517361
 30
0.0
 10
-0.4743896484375
 20
-0.3990281846788194
 30
0.0
 10
-0.4626763237847222
 20
-0.405401611328125
 30
0.0
 10
-0.4509629991319444
 20
-0.4014397515190972
 30
0.0
 10
-0.4509629991319444
 20
-0.4014397515190972
 30
0.0
 10
0.4737006293402777
 20
-0.0960320366753472
 30
0.0
 10
0.4737006293402777
 20
-0.0960320366753472
 30
0.0
 10
0.4854139539930555
 20
-0.0924146864149305
 30
0.0
 10
0.4950602213541666
 20
-0.0794955783420139
 30
0.0
 10
0.4957492404513889
 20
-0.067437744140625
 30
0.0
 10
0.4957492404513889
 20
-0.067437744140625
 30
0.0
 10
0.5295111762152778
 20
0.3902431911892361
 30
0.0
 10
0.5295111762152778
 20
0.3902431911892361
 30
0.0
 10
0.5302001953125
 20
0.4021287706163194
 30
0.0
 10
0.5222764756944444
 20
0.4072964138454861
 30
0.0
 10
0.5115966796875
 20
0.4014397515190972
 30
0.0
 10
0.5115966796875
 20
0.4014397515190972
 30
0.0
 10
-0.5160753038194444
 20
-0.1607998318142361
 30
0.0
 10
-0.5160753038194444
 20
-0.1607998318142361
 30
0.0
  0
ENDBLK
  5
2F
100
AcDbEntity
  8
0
100
AcDbBlockEnd
  0
BLOCK
  5
32
100
AcDbEntity
  8
0
 62
     7
100
AcDbBlockBegin
  2
AI9-BLK2
 70
     0
 10
0.0
 20
0.0
 30
0.0
  3
AI9-BLK2
  1

  0
SPLINE
  5
33
100
AcDbEntity
  8
0
 62
     7
100
AcDbSpline
210
0.0
220
0.0
230
1.0
 70
     8
 71
     3
 72
    23
 73
    19
 74
     0
 42
0.00000001
 43
0.00000001
 40
0.0
 40
0.0
 40
0.0
 40
0.0
 40
1.0
 40
1.0
 40
1.0
 40
2.0
 40
2.0
 40
2.0
 40
3.0
 40
3.0
 40
3.0
 40
4.0
 40
4.0
 40
4.0
 40
5.0
 40
5.0
 40
5.0
 40
6.0
 40
6.0
 40
6.0
 40
6.0
 10
0.1257459852430556
 20
0.4867919921875
 30
0.0
 10
0.1229899088541667
 20
0.4983330620659722
 30
0.0
 10
0.1147216796875
 20
0.4997111002604166
 30
0.0
 10
0.1081759982638889
 20
0.4897203233506944
 30
0.0
 10
0.1081759982638889
 20
0.4897203233506944
 30
0.0
 10
-0.3965304904513888
 20
-0.2849093967013889
 30
0.0
 10
-0.3965304904513888
 20
-0.2849093967013889
 30
0.0
 10
-0.4034206814236111
 20
-0.2950724283854166
 30
0.0
 10
-0.3989420572916667
 20
-0.3055799696180555
 30
0.0
 10
-0.3872287326388889
 20
-0.3083360460069444
 30
0.0
 10
-0.3872287326388889
 20
-0.3083360460069444
 30
0.0
 10
0.3813720703125
 20
-0.4897203233506944
 30
0.0
 10
0.3813720703125
 20
-0.4897203233506944
 30
0.0
 10
0.3930853949652777
 20
-0.4923041449652778
 30
0.0
 10
0.3999755859375
 20
-0.4850694444444444
 30
0.0
 10
0.3965304904513888
 20
-0.4737006293402777
 30
0.0
 10
0.3965304904513888
 20
-0.4737006293402777
 30
0.0
 10
0.1257459852430556
 20
0.4867919921875
 30
0.0
 10
0.1257459852430556
 20
0.4867919921875
 30
0.0
  0
ENDBLK
  5
34
100
AcDbEntity
  8
0
100
AcDbBlockEnd
  0
BLOCK
  5
37
100
AcDbEntity
  8
0
 62
     7
100
AcDbBlockBegin
  2
AI9-BLK3
 70
     0
 10
0.0
 20
0.0
 30
0.0
  3
AI9-BLK3
  1

  0
SPLINE
  5
38
100
AcDbEntity
  8
0
 62
     7
100
AcDbSpline
210
0.0
220
0.0
230
1.0
 70
     8
 71
     3
 72
    23
 73
    19
 74
     0
 42
0.00000001
 43
0.00000001
 40
0.0
 40
0.0
 40
0.0
 40
0.0
 40
1.0
 40
1.0
 40
1.0
 40
2.0
 40
2.0
 40
2.0
 40
3.0
 40
3.0
 40
3.0
 40
4.0
 40
4.0
 40
4.0
 40
5.0
 40
5.0
 40
5.0
 40
6.0
 40
6.0
 40
6.0
 40
6.0
 10
-0.3551893446180555
 20
0.4216796875
 30
0.0
 10
-0.3558783637152778
 20
0.4335652669270833
 30
0.0
 10
-0.3482991536458333
 20
0.4376993815104167
 30
0.0
 10
-0.3389973958333333
 20
0.4304646809895833
 30
0.0
 10
-0.3389973958333333
 20
0.4304646809895833
 30
0.0
 10
0.3551893446180555
 20
-0.0813042534722222
 30
0.0
 10
0.3551893446180555
 20
-0.0813042534722222
 30
0.0
 10
0.3644911024305556
 20
-0.0885389539930555
 30
0.0
 10
0.3638020833333333
 20
-0.0987019856770833
 30
0.0
 10
0.3531222873263888
 20
-0.1042141384548611
 30
0.0
 10
0.3531222873263888
 20
-0.1042141384548611
 30
0.0
 10
-0.2821533203125
 20
-0.4304646809895833
 30
0.0
 10
-0.2821533203125
 20
-0.4304646809895833
 30
0.0
 10
-0.2931776258680555
 20
-0.4361490885416666
 30
0.0
 10
-0.3021348741319444
 20
-0.4308091905381944
 30
0.0
 10
-0.3028238932291666
 20
-0.4187513563368055
 30
0.0
 10
-0.3028238932291666
 20
-0.4187513563368055
 30
0.0
 10
-0.3551893446180555
 20
0.4216796875
 30
0.0
 10
-0.3551893446180555
 20
0.4216796875
 30
0.0
  0
ENDBLK
  5
39
100
AcDbEntity
  8
0
100
AcDbBlockEnd
  0
BLOCK
  5
3C
100
AcDbEntity
  8
0
 62
     7
100
AcDbBlockBegin
  2
AI9-BLK4
 70
     0
 10
0.0
 20
0.0
 30
0.0
  3
AI9-BLK4
  1

  0
SPLINE
  5
3D
100
AcDbEntity
  8
0
 62
     7
100
AcDbSpline
210
0.0
220
0.0
230
1.0
 70
     8
 71
     3
 72
    23
 73
    19
 74
     0
 42
0.00000001
 43
0.00000001
 40
0.0
 40
0.0
 40
0.0
 40
0.0
 40
1.0
 40
1.0
 40
1.0
 40
2.0
 40
2.0
 40
2.0
 40
3.0
 40
3.0
 40
3.0
 40
4.0
 40
4.0
 40
4.0
 40
5.0
 40
5.0
 40
5.0
 40
6.0
 40
6.0
 40
6.0
 40
6.0
 10
-0.2068779839409722
 20
0.4530300564236111
 30
0.0
 10
-0.2051554361979167
 20
0.4649156358506944
 30
0.0
 10
-0.1944756401909722
 20
0.4709445529513889
 30
0.0
 10
-0.1837958441840278
 20
0.4664659288194444
 30
0.0
 10
-0.1837958441840278
 20
0.4664659288194444
 30
0.0
 10
0.3322794596354167
 20
0.2551093207465278
 30
0.0
 10
0.3322794596354167
 20
0.2551093207465278
 30
0.0
 10
0.3429592556423611
 20
0.2504584418402778
 30
0.0
 10
0.3453708224826388
 20
0.2396063910590278
 30
0.0
 10
0.3371025933159722
 20
0.23099365234375
 30
0.0
 10
0.3371025933159722
 20
0.23099365234375
 30
0.0
 10
-0.3253892686631944
 20
-0.4664659288194444
 30
0.0
 10
-0.3253892686631944
 20
-0.4664659288194444
 30
0.0
 10
-0.3336574978298611
 20
-0.4752509223090277
 30
0.0
 10
-0.3388251410590277
 20
-0.4726671006944444
 30
0.0
 10
-0.3371025933159722
 20
-0.4606092664930555
 30
0.0
 10
-0.3371025933159722
 20
-0.4606092664930555
 30
0.0
 10
-0.2068779839409722
 20
0.4530300564236111
 30
0.0
 10
-0.2068779839409722
 20
0.4530300564236111
 30
0.0
  0
ENDBLK
  5
3E
100
AcDbEntity
  8
0
100
AcDbBlockEnd
  0
BLOCK
  5
41
100
AcDbEntity
  8
0
 62
     7
100
AcDbBlockBegin
  2
AI9-BLK5
 70
     0
 10
0.0
 20
0.0
 30
0.0
  3
AI9-BLK5
  1

  0
SPLINE
  5
42
100
AcDbEntity
  8
0
 62
     7
100
AcDbSpline
210
0.0
220
0.0
230
1.0
 70
     8
 71
     3
 72
    29
 73
    25
 74
     0
 42
0.00000001
 43
0.00000001
 40
0.0
 40
0.0
 40
0.0
 40
0.0
 40
1.0
 40
1.0
 40
1.0
 40
2.0
 40
2.0
 40
2.0
 40
3.0
 40
3.0
 40
3.0
 40
4.0
 40
4.0
 40
4.0
 40
5.0
 40
5.0
 40
5.0
 40
6.0
 40
6.0
 40
6.0
 40
7.0
 40
7.0
 40
7.0
 40
8.0
 40
8.0
 40
8.0
 40
8.0
 10
0.3171210394965278
 20
0.5760199652777778
 30
0.0
 10
0.3109198676215277
 20
0.5865275065104166
 30
0.0
 10
0.2988620334201388
 20
0.5882500542534722
 30
0.0
 10
0.2905938042534722
 20
0.5799818250868055
 30
0.0
 10
0.2905938042534722
 20
0.5799818250868055
 30
0.0
 10
-0.38912353515625
 20
-0.0732082790798611
 30
0.0
 10
-0.38912353515625
 20
-0.0732082790798611
 30
0.0
 10
-0.3973917643229166
 20
-0.0814765082465278
 30
0.0
 10
-0.4004923502604166
 20
-0.0973239474826389
 30
0.0
 10
-0.3960137261284722
 20
-0.1085205078125
 30
0.0
 10
-0.3960137261284722
 20
-0.1085205078125
 30
0.0
 10
-0.1944756401909722
 20
-0.5787760416666666
 30
0.0
 10
-0.1944756401909722
 20
-0.5787760416666666
 30
0.0
 10
-0.1899970160590278
 20
-0.5896280924479166
 30
0.0
 10
-0.1810397677951389
 20
-0.5901448567708333
 30
0.0
 10
-0.1748385959201389
 20
-0.5799818250868055
 30
0.0
 10
-0.1748385959201389
 20
-0.5799818250868055
 30
0.0
 10
0.3953247070312499
 20
0.3939466688368055
 30
0.0
 10
0.3953247070312499
 20
0.3939466688368055
 30
0.0
 10
0.40152587890625
 20
0.4044542100694444
 30
0.0
 10
0.4018703884548611
 20
0.4215074327256944
 30
0.0
 10
0.3960137261284722
 20
0.4321872287326389
 30
0.0
 10
0.3960137261284722
 20
0.4321872287326389
 30
0.0
 10
0.3171210394965278
 20
0.5760199652777778
 30
0.0
 10
0.3171210394965278
 20
0.5760199652777778
 30
0.0
  0
ENDBLK
  5
43
100
AcDbEntity
  8
0
100
AcDbBlockEnd
  0
BLOCK
  5
46
100
AcDbEntity
  8
0
 62
     7
100
AcDbBlockBegin
  2
AI9-BLK6
 70
     0
 10
0.0
 20
0.0
 30
0.0
  3
AI9-BLK6
  1

  0
SPLINE
  5
47
100
AcDbEntity
  8
0
 62
     7
100
AcDbSpline
210
0.0
220
0.0
230
1.0
 70
     8
 71
     3
 72
    29
 73
    25
 74
     0
 42
0.00000001
 43
0.00000001
 40
0.0
 40
0.0
 40
0.0
 40
0.0
 40
1.0
 40
1.0
 40
1.0
 40
2.0
 40
2.0
 40
2.0
 40
3.0
 40
3.0
 40
3.0
 40
4.0
 40
4.0
 40
4.0
 40
5.0
 40
5.0
 40
5.0
 40
6.0
 40
6.0
 40
6.0
 40
7.0
 40
7.0
 40
7.0
 40
8.0
 40
8.0
 40
8.0
 40
8.0
 10
0.0658013237847222
 20
0.4153062608506944
 30
0.0
 10
0.0578776041666667
 20
0.4240912543402777
 30
0.0
 10
0.0451307508680555
 20
0.4235744900173611
 30
0.0
 10
0.03720703125
 20
0.41392822265625
 30
0.0
 10
0.03720703125
 20
0.41392822265625
 30
0.0
 10
-0.4461398654513888
 20
-0.2075670030381944
 30
0.0
 10
-0.4461398654513888
 20
-0.2075670030381944
 30
0.0
 10
-0.4533745659722222
 20
-0.2172132703993056
 30
0.0
 10
-0.4506184895833333
 20
-0.2296156141493055
 30
0.0
 10
-0.440283203125
 20
-0.2353000217013889
 30
0.0
 10
-0.440283203125
 20
-0.2353000217013889
 30
0.0
 10
-0.105419921875
 20
-0.4153062608506944
 30
0.0
 10
-0.105419921875
 20
-0.4153062608506944
 30
0.0
 10
-0.0943956163194444
 20
-0.4208184136284722
 30
0.0
 10
-0.0778591579861111
 20
-0.4194403754340277
 30
0.0
 10
-0.0685574001736111
 20
-0.4122056749131944
 30
0.0
 10
-0.0685574001736111
 20
-0.4122056749131944
 30
0.0
 10
0.4437282986111111
 20
-0.0194647894965278
 30
0.0
 10
0.4437282986111111
 20
-0.0194647894965278
 30
0.0
 10
0.4530300564236111
 20
-0.0122300889756944
 30
0.0
 10
0.4540635850694444
 20
0.0010335286458333
 30
0.0
 10
0.4461398654513888
 20
0.0096462673611111
 30
0.0
 10
0.4461398654513888
 20
0.0096462673611111
 30
0.0
 10
0.0658013237847222
 20
0.4153062608506944
 30
0.0
 10
0.0658013237847222
 20
0.4153062608506944
 30
0.0
  0
ENDBLK
  5
48
100
AcDbEntity
  8
0
100
AcDbBlockEnd
  0
BLOCK
  5
4B
100
AcDbEntity
  8
0
 62
     7
100
AcDbBlockBegin
  2
AI9-BLK7
 70
     0
 10
0.0
 20
0.0
 30
0.0
  3
AI9-BLK7
  1

  0
SPLINE
  5
4C
100
AcDbEntity
  8
0
 62
     7
100
AcDbSpline
210
0.0
220
0.0
230
1.0
 70
     8
 71
     3
 72
    23
 73
    19
 74
     0
 42
0.00000001
 43
0.00000001
 40
0.0
 40
0.0
 40
0.0
 40
0.0
 40
1.0
 40
1.0
 40
1.0
 40
2.0
 40
2.0
 40
2.0
 40
3.0
 40
3.0
 40
3.0
 40
4.0
 40
4.0
 40
4.0
 40
5.0
 40
5.0
 40
5.0
 40
6.0
 40
6.0
 40
6.0
 40
6.0
 10
0.1524454752604167
 20
0.4279669867621527
 30
0.0
 10
0.1496893988715278
 20
0.439508056640625
 30
0.0
 10
0.1414211697048611
 20
0.441058349609375
 30
0.0
 10
0.1345309787326389
 20
0.4312398274739583
 30
0.0
 10
0.1345309787326389
 20
0.4312398274739583
 30
0.0
 10
-0.3694864908854166
 20
-0.2893018934461805
 30
0.0
 10
-0.3694864908854166
 20
-0.2893018934461805
 30
0.0
 10
-0.3760321723090278
 20
-0.2992926703559027
 30
0.0
 10
-0.3722425672743056
 20
-0.3089389377170139
 30
0.0
 10
-0.3601847330729167
 20
-0.310833740234375
 30
0.0
 10
-0.3601847330729167
 20
-0.310833740234375
 30
0.0
 10
0.3532945421006944
 20
-0.4312398274739583
 30
0.0
 10
0.3532945421006944
 20
-0.4312398274739583
 30
0.0
 10
0.3653523763020833
 20
-0.4331346299913194
 30
0.0
 10
0.3722425672743056
 20
-0.4252109103732639
 30
0.0
 10
0.3694864908854166
 20
-0.4138420952690972
 30
0.0
 10
0.3694864908854166
 20
-0.4138420952690972
 30
0.0
 10
0.1524454752604167
 20
0.4279669867621527
 30
0.0
 10
0.1524454752604167
 20
0.4279669867621527
 30
0.0
  0
ENDBLK
  5
4D
100
AcDbEntity
  8
0
100
AcDbBlockEnd
  0
BLOCK
  5
50
100
AcDbEntity
  8
0
 62
     7
100
AcDbBlockBegin
  2
AI9-BLK8
 70
     0
 10
0.0
 20
0.0
 30
0.0
  3
AI9-BLK8
  1

  0
SPLINE
  5
51
100
AcDbEntity
  8
0
 62
     7
100
AcDbSpline
210
0.0
220
0.0
230
1.0
 70
     8
 71
     3
 72
    29
 73
    25
 74
     0
 42
0.00000001
 43
0.00000001
 40
0.0
 40
0.0
 40
0.0
 40
0.0
 40
1.0
 40
1.0
 40
1.0
 40
2.0
 40
2.0
 40
2.0
 40
3.0
 40
3.0
 40
3.0
 40
4.0
 40
4.0
 40
4.0
 40
5.0
 40
5.0
 40
5.0
 40
6.0
 40
6.0
 40
6.0
 40
7.0
 40
7.0
 40
7.0
 40
8.0
 40
8.0
 40
8.0
 40
8.0
 10
0.0063734266493056
 20
0.4218519422743055
 30
0.0
 10
0.0132636176215278
 20
0.4313259548611111
 30
0.0
 10
0.02635498046875
 20
0.4321872287326389
 30
0.0
 10
0.0349677191840278
 20
0.4235744900173611
 30
0.0
 10
0.0349677191840278
 20
0.4235744900173611
 30
0.0
 10
0.4321872287326389
 20
0.0172254774305556
 30
0.0
 10
0.4321872287326389
 20
0.0172254774305556
 30
0.0
 10
0.4407999674479166
 20
0.0087849934895833
 30
0.0
 10
0.4404554578993055
 20
-0.0048231336805556
 30
0.0
 10
0.4311537000868055
 20
-0.0127468532986111
 30
0.0
 10
0.4311537000868055
 20
-0.0127468532986111
 30
0.0
 10
-0.0366902669270833
 20
-0.4215074327256944
 30
0.0
 10
-0.0366902669270833
 20
-0.4215074327256944
 30
0.0
 10
-0.0459920247395833
 20
-0.4292588975694444
 30
0.0
 10
-0.0614949544270833
 20
-0.4302924262152778
 30
0.0
 10
-0.0718302408854167
 20
-0.4235744900173611
 30
0.0
 10
-0.0718302408854167
 20
-0.4235744900173611
 30
0.0
 10
-0.4273640950520833
 20
-0.1837958441840278
 30
0.0
 10
-0.4273640950520833
 20
-0.1837958441840278
 30
0.0
 10
-0.4370103624131944
 20
-0.1770779079861111
 30
0.0
 10
-0.4397664388020833
 20
-0.1636420355902778
 30
0.0
 10
-0.4321872287326389
 20
-0.1541680230034722
 30
0.0
 10
-0.4321872287326389
 20
-0.1541680230034722
 30
0.0
 10
0.0063734266493056
 20
0.4218519422743055
 30
0.0
 10
0.0063734266493056
 20
0.4218519422743055
 30
0.0
  0
ENDBLK
  5
52
100
AcDbEntity
  8
0
100
AcDbBlockEnd
  0
BLOCK
  5
55
100
AcDbEntity
  8
0
 62
     7
100
AcDbBlockBegin
  2
AI9-BLK9
 70
     0
 10
0.0
 20
0.0
 30
0.0
  3
AI9-BLK9
  1

  0
SPLINE
  5
56
100
AcDbEntity
  8
0
 62
     7
100
AcDbSpline
210
0.0
220
0.0
230
1.0
 70
     8
 71
     3
 72
    29
 73
    25
 74
     0
 42
0.00000001
 43
0.00000001
 40
0.0
 40
0.0
 40
0.0
 40
0.0
 40
1.0
 40
1.0
 40
1.0
 40
2.0
 40
2.0
 40
2.0
 40
3.0
 40
3.0
 40
3.0
 40
4.0
 40
4.0
 40
4.0
 40
5.0
 40
5.0
 40
5.0
 40
6.0
 40
6.0
 40
6.0
 40
7.0
 40
7.0
 40
7.0
 40
8.0
 40
8.0
 40
8.0
 40
8.0
 10
0.0273885091145833
 20
0.5749864366319444
 30
0.0
 10
0.0308336046006944
 20
0.5865275065104166
 30
0.0
 10
0.0415134006076389
 20
0.5896280924479166
 30
0.0
 10
0.0504706488715278
 20
0.5818766276041666
 30
0.0
 10
0.0504706488715278
 20
0.5818766276041666
 30
0.0
 10
0.1903415256076389
 20
0.4642266167534722
 30
0.0
 10
0.1903415256076389
 20
0.4642266167534722
 30
0.0
 10
0.1996432834201389
 20
0.4563028971354166
 30
0.0
 10
0.2065334743923611
 20
0.440283203125
 30
0.0
 10
0.2058444552951389
 20
0.4282253689236111
 30
0.0
 10
0.2058444552951389
 20
0.4282253689236111
 30
0.0
 10
0.15347900390625
 20
-0.5761922200520833
 30
0.0
 10
0.15347900390625
 20
-0.5761922200520833
 30
0.0
 10
0.1527899848090278
 20
-0.5882500542534722
 30
0.0
 10
0.1455552842881944
 20
-0.5908338758680555
 30
0.0
 10
0.1372870551215278
 20
-0.5818766276041666
 30
0.0
 10
0.1372870551215278
 20
-0.5818766276041666
 30
0.0
 10
-0.1975762261284722
 20
-0.2130791558159722
 30
0.0
 10
-0.1975762261284722
 20
-0.2130791558159722
 30
0.0
 10
-0.2058444552951389
 20
-0.2042941623263889
 30
0.0
 10
-0.20928955078125
 20
-0.1877577039930555
 30
0.0
 10
-0.2058444552951389
 20
-0.1760443793402778
 30
0.0
 10
-0.2058444552951389
 20
-0.1760443793402778
 30
0.0
 10
0.0273885091145833
 20
0.5749864366319444
 30
0.0
 10
0.0273885091145833
 20
0.5749864366319444
 30
0.0
  0
ENDBLK
  5
57
100
AcDbEntity
  8
0
100
AcDbBlockEnd
  0
BLOCK
  5
5A
100
AcDbEntity
  8
0
 62
     7
100
AcDbBlockBegin
  2
AI9-BLK10
 70
     0
 10
0.0
 20
0.0
 30
0.0
  3
AI9-BLK10
  1

  0
SPLINE
  5
5B
100
AcDbEntity
  8
0
 62
     7
100
AcDbSpline
210
0.0
220
0.0
230
1.0
 70
     8
 71
     3
 72
    29
 73
    25
 74
     0
 42
0.00000001
 43
0.00000001
 40
0.0
 40
0.0
 40
0.0
 40
0.0
 40
1.0
 40
1.0
 40
1.0
 40
2.0
 40
2.0
 40
2.0
 40
3.0
 40
3.0
 40
3.0
 40
4.0
 40
4.0
 40
4.0
 40
5.0
 40
5.0
 40
5.0
 40
6.0
 40
6.0
 40
6.0
 40
7.0
 40
7.0
 40
7.0
 40
8.0
 40
8.0
 40
8.0
 40
8.0
 10
-0.31470947265625
 20
-0.1102430555555556
 30
0.0
 10
-0.3212551540798611
 20
-0.1205783420138889
 30
0.0
 10
-0.3205661349826389
 20
-0.1367702907986111
 30
0.0
 10
-0.3133314344618055
 20
-0.1464165581597222
 30
0.0
 10
-0.3133314344618055
 20
-0.1464165581597222
 30
0.0
 10
0.0160196940104167
 20
-0.5853217230902778
 30
0.0
 10
0.0160196940104167
 20
-0.5853217230902778
 30
0.0
 10
0.02325439453125
 20
-0.5949679904513888
 30
0.0
 10
0.0318671332465278
 20
-0.5934176974826388
 30
0.0
 10
0.0349677191840278
 20
-0.5817043728298611
 30
0.0
 10
0.0349677191840278
 20
-0.5817043728298611
 30
0.0
 10
0.31470947265625
 20
0.4061767578125
 30
0.0
 10
0.31470947265625
 20
0.4061767578125
 30
0.0
 10
0.3181545681423611
 20
0.4175455729166666
 30
0.0
 10
0.3136759440104167
 20
0.4339097764756944
 30
0.0
 10
0.3047186957465278
 20
0.4421780056423611
 30
0.0
 10
0.3047186957465278
 20
0.4421780056423611
 30
0.0
 10
0.1541680230034722
 20
0.5853217230902778
 30
0.0
 10
0.1541680230034722
 20
0.5853217230902778
 30
0.0
 10
0.1455552842881944
 20
0.5934176974826388
 30
0.0
 10
0.1331529405381944
 20
0.5920396592881944
 30
0.0
 10
0.1269517686631944
 20
0.5817043728298611
 30
0.0
 10
0.1269517686631944
 20
0.5817043728298611
 30
0.0
 10
-0.31470947265625
 20
-0.1102430555555556
 30
0.0
 10
-0.31470947265625
 20
-0.1102430555555556
 30
0.0
  0
ENDBLK
  5
5C
100
AcDbEntity
  8
0
100
AcDbBlockEnd
  0
BLOCK
  5
5F
100
AcDbEntity
  8
0
 62
     7
100
AcDbBlockBegin
  2
AI9-BLK11
 70
     0
 10
0.0
 20
0.0
 30
0.0
  3
AI9-BLK11
  1

  0
SPLINE
  5
60
100
AcDbEntity
  8
0
 62
     7
100
AcDbSpline
210
0.0
220
0.0
230
1.0
 70
     8
 71
     3
 72
    29
 73
    25
 74
     0
 42
0.00000001
 43
0.00000001
 40
0.0
 40
0.0
 40
0.0
 40
0.0
 40
1.0
 40
1.0
 40
1.0
 40
2.0
 40
2.0
 40
2.0
 40
3.0
 40
3.0
 40
3.0
 40
4.0
 40
4.0
 40
4.0
 40
5.0
 40
5.0
 40
5.0
 40
6.0
 40
6.0
 40
6.0
 40
7.0
 40
7.0
 40
7.0
 40
8.0
 40
8.0
 40
8.0
 40
8.0
 10
-0.0714857313368056
 20
0.4241773817274305
 30
0.0
 10
-0.0680406358506944
 20
0.4358907063802083
 30
0.0
 10
-0.0583943684895833
 20
0.4396803114149305
 30
0.0
 10
-0.04805908203125
 20
0.4327901204427083
 30
0.0
 10
-0.04805908203125
 20
0.4327901204427083
 30
0.0
 10
0.2437405056423611
 20
0.2300462510850694
 30
0.0
 10
0.2437405056423611
 20
0.2300462510850694
 30
0.0
 10
0.2537312825520833
 20
0.2231560601128472
 30
0.0
 10
0.2578653971354166
 20
0.208514404296875
 30
0.0
 10
0.25269775390625
 20
0.1974900987413194
 30
0.0
 10
0.25269775390625
 20
0.1974900987413194
 30
0.0
 10
-0.0208428276909722
 20
-0.4186652289496528
 30
0.0
 10
-0.0208428276909722
 20
-0.4186652289496528
 30
0.0
 10
-0.0256659613715278
 20
-0.4298617892795139
 30
0.0
 10
-0.0391018337673611
 20
-0.4360629611545139
 30
0.0
 10
-0.0508151584201389
 20
-0.4327901204427083
 30
0.0
 10
-0.0508151584201389
 20
-0.4327901204427083
 30
0.0
 10
-0.2365058051215278
 20
-0.3809414333767361
 30
0.0
 10
-0.2365058051215278
 20
-0.3809414333767361
 30
0.0
 10
-0.2482191297743055
 20
-0.3776685926649305
 30
0.0
 10
-0.2554538302951389
 20
-0.3654385036892361
 30
0.0
 10
-0.25269775390625
 20
-0.3535529242621527
 30
0.0
 10
-0.25269775390625
 20
-0.3535529242621527
 30
0.0
 10
-0.0714857313368056
 20
0.4241773817274305
 30
0.0
 10
-0.0714857313368056
 20
0.4241773817274305
 30
0.0
  0
ENDBLK
  5
61
100
AcDbEntity
  8
0
100
AcDbBlockEnd
  0
BLOCK
  5
64
100
AcDbEntity
  8
0
 62
     7
100
AcDbBlockBegin
  2
AI9-BLK12
 70
     0
 10
0.0
 20
0.0
 30
0.0
  3
AI9-BLK12
  1

  0
SPLINE
  5
65
100
AcDbEntity
  8
0
 62
     7
100
AcDbSpline
210
0.0
220
0.0
230
1.0
 70
     8
 71
     3
 72
    29
 73
    25
 74
     0
 42
0.00000001
 43
0.00000001
 40
0.0
 40
0.0
 40
0.0
 40
0.0
 40
1.0
 40
1.0
 40
1.0
 40
2.0
 40
2.0
 40
2.0
 40
3.0
 40
3.0
 40
3.0
 40
4.0
 40
4.0
 40
4.0
 40
5.0
 40
5.0
 40
5.0
 40
6.0
 40
6.0
 40
6.0
 40
7.0
 40
7.0
 40
7.0
 40
8.0
 40
8.0
 40
8.0
 40
8.0
 10
-0.1979207356770833
 20
0.551904296875
 30
0.0
 10
-0.1989542643229167
 20
0.5639621310763888
 30
0.0
 10
-0.1910305447048611
 20
0.5694742838541667
 30
0.0
 10
-0.1803507486979167
 20
0.5643066406249999
 30
0.0
 10
-0.1803507486979167
 20
0.5643066406249999
 30
0.0
 10
0.18138427734375
 20
0.3917073567708333
 30
0.0
 10
0.18138427734375
 20
0.3917073567708333
 30
0.0
 10
0.1924085828993055
 20
0.3865397135416666
 30
0.0
 10
0.1996432834201389
 20
0.3725870768229166
 30
0.0
 10
0.1979207356770833
 20
0.3608737521701388
 30
0.0
 10
0.1979207356770833
 20
0.3608737521701388
 30
0.0
 10
0.0497816297743056
 20
-0.5439805772569444
 30
0.0
 10
0.0497816297743056
 20
-0.5439805772569444
 30
0.0
 10
0.04805908203125
 20
-0.5556939019097221
 30
0.0
 10
0.0363457573784722
 20
-0.5651679144965277
 30
0.0
 10
0.0242879231770833
 20
-0.5643066406249999
 30
0.0
 10
0.0242879231770833
 20
-0.5643066406249999
 30
0.0
 10
-0.0866441514756944
 20
-0.5577609592013888
 30
0.0
 10
-0.0866441514756944
 20
-0.5577609592013888
 30
0.0
 10
-0.0987019856770833
 20
-0.5572441948784722
 30
0.0
 10
-0.1097262912326389
 20
-0.5465643988715278
 30
0.0
 10
-0.1104153103298611
 20
-0.5346788194444444
 30
0.0
 10
-0.1104153103298611
 20
-0.5346788194444444
 30
0.0
 10
-0.1979207356770833
 20
0.551904296875
 30
0.0
 10
-0.1979207356770833
 20
0.551904296875
 30
0.0
  0
ENDBLK
  5
66
100
AcDbEntity
  8
0
100
AcDbBlockEnd
  0
BLOCK
  5
69
100
AcDbEntity
  8
0
 62
     7
100
AcDbBlockBegin
  2
AI9-BLK13
 70
     0
 10
0.0
 20
0.0
 30
0.0
  3
AI9-BLK13
  1

  0
SPLINE
  5
6A
100
AcDbEntity
  8
0
 62
     7
100
AcDbSpline
210
0.0
220
0.0
230
1.0
 70
     8
 71
     3
 72
    29
 73
    25
 74
     0
 42
0.00000001
 43
0.00000001
 40
0.0
 40
0.0
 40
0.0
 40
0.0
 40
1.0
 40
1.0
 40
1.0
 40
2.0
 40
2.0
 40
2.0
 40
3.0
 40
3.0
 40
3.0
 40
4.0
 40
4.0
 40
4.0
 40
5.0
 40
5.0
 40
5.0
 40
6.0
 40
6.0
 40
6.0
 40
7.0
 40
7.0
 40
7.0
 40
8.0
 40
8.0
 40
8.0
 40
8.0
 10
-0.2626885308159722
 20
0.4268473307291666
 30
0.0
 10
-0.26199951171875
 20
0.4387329101562499
 30
0.0
 10
-0.2520087348090278
 20
0.4459676106770833
 30
0.0
 10
-0.24029541015625
 20
0.4425225151909722
 30
0.0
 10
-0.24029541015625
 20
0.4425225151909722
 30
0.0
 10
0.3009290907118055
 20
0.2904215494791667
 30
0.0
 10
0.3009290907118055
 20
0.2904215494791667
 30
0.0
 10
0.3122979058159722
 20
0.2873209635416666
 30
0.0
 10
0.3184990776909722
 20
0.2752631293402778
 30
0.0
 10
0.31470947265625
 20
0.2640665690104166
 30
0.0
 10
0.31470947265625
 20
0.2640665690104166
 30
0.0
 10
0.0828545464409722
 20
-0.3874009874131944
 30
0.0
 10
0.0828545464409722
 20
-0.3874009874131944
 30
0.0
 10
0.07906494140625
 20
-0.3989420572916667
 30
0.0
 10
0.0659735785590278
 20
-0.4091050889756944
 30
0.0
 10
0.0539157443576389
 20
-0.4103108723958333
 30
0.0
 10
0.0539157443576389
 20
-0.4103108723958333
 30
0.0
 10
-0.2943834092881944
 20
-0.4425225151909722
 30
0.0
 10
-0.2943834092881944
 20
-0.4425225151909722
 30
0.0
 10
-0.3064412434895833
 20
-0.4435560438368055
 30
0.0
 10
-0.3153984917534722
 20
-0.4347710503472222
 30
0.0
 10
-0.31470947265625
 20
-0.4225409613715278
 30
0.0
 10
-0.31470947265625
 20
-0.4225409613715278
 30
0.0
 10
-0.2626885308159722
 20
0.4268473307291666
 30
0.0
 10
-0.2626885308159722
 20
0.4268473307291666
 30
0.0
  0
ENDBLK
  5
6B
100
AcDbEntity
  8
0
100
AcDbBlockEnd
  0
BLOCK
  5
6E
100
AcDbEntity
  8
0
 62
     7
100
AcDbBlockBegin
  2
AI9-BLK14
 70
     0
 10
0.0
 20
0.0
 30
0.0
  3
AI9-BLK14
  1

  0
SPLINE
  5
6F
100
AcDbEntity
  8
0
 62
     7
100
AcDbSpline
210
0.0
220
0.0
230
1.0
 70
     8
 71
     3
 72
    20
 73
    16
 74
     0
 42
0.00000001
 43
0.00000001
 40
0.0
 40
0.0
 40
0.0
 40
0.0
 40
1.0
 40
1.0
 40
1.0
 40
2.0
 40
2.0
 40
2.0
 40
3.0
 40
3.0
 40
3.0
 40
4.0
 40
4.0
 40
4.0
 40
5.0
 40
5.0
 40
5.0
 40
5.0
 10
-0.3908460828993055
 20
0.4508768717447916
 30
0.0
 10
-0.3632853190104166
 20
0.4508768717447916
 30
0.0
 10
0.3805107964409722
 20
0.3979946560329861
 30
0.0
 10
0.3805107964409722
 20
0.3979946560329861
 30
0.0
 10
0.3925686306423611
 20
0.3971333821614583
 30
0.0
 10
0.3970472547743055
 20
0.3878316243489583
 30
0.0
 10
0.3908460828993055
 20
0.377496337890625
 30
0.0
 10
0.3908460828993055
 20
0.377496337890625
 30
0.0
 10
-0.0969794379340278
 20
-0.4508768717447916
 30
0.0
 10
-0.0969794379340278
 20
-0.4508768717447916
 30
0.0
 10
-0.1031806098090278
 20
-0.4610399034288194
 30
0.0
 10
-0.1114488389756944
 20
-0.4601786295572916
 30
0.0
 10
-0.1148939344618055
 20
-0.448809814453125
 30
0.0
 10
-0.1148939344618055
 20
-0.448809814453125
 30
0.0
 10
-0.3908460828993055
 20
0.4508768717447916
 30
0.0
 10
-0.3908460828993055
 20
0.4508768717447916
 30
0.0
  0
ENDBLK
  5
70
100
AcDbEntity
  8
0
100
AcDbBlockEnd
  0
BLOCK
  5
73
100
AcDbEntity
  8
0
 62
     7
100
AcDbBlockBegin
  2
AI9-BLK15
 70
     0
 10
0.0
 20
0.0
 30
0.0
  3
AI9-BLK15
  1

  0
SPLINE
  5
74
100
AcDbEntity
  8
0
 62
     7
100
AcDbSpline
210
0.0
220
0.0
230
1.0
 70
     8
 71
     3
 72
    29
 73
    25
 74
     0
 42
0.00000001
 43
0.00000001
 40
0.0
 40
0.0
 40
0.0
 40
0.0
 40
1.0
 40
1.0
 40
1.0
 40
2.0
 40
2.0
 40
2.0
 40
3.0
 40
3.0
 40
3.0
 40
4.0
 40
4.0
 40
4.0
 40
5.0
 40
5.0
 40
5.0
 40
6.0
 40
6.0
 40
6.0
 40
7.0
 40
7.0
 40
7.0
 40
8.0
 40
8.0
 40
8.0
 40
8.0
 10
-0.40152587890625
 20
0.2872348361545138
 30
0.0
 10
-0.4084160698784722
 20
0.2970533582899305
 30
0.0
 10
-0.40462646484375
 20
0.3065273708767361
 30
0.0
 10
-0.3929131401909722
 20
0.3087666829427083
 30
0.0
 10
-0.3929131401909722
 20
0.3087666829427083
 30
0.0
 10
0.2478746202256944
 20
0.4195265028211805
 30
0.0
 10
0.2478746202256944
 20
0.4195265028211805
 30
0.0
 10
0.2595879448784722
 20
0.4215935601128472
 30
0.0
 10
0.2716457790798611
 20
0.4136698404947916
 30
0.0
 10
0.2740573459201389
 20
0.4021287706163194
 30
0.0
 10
0.2740573459201389
 20
0.4021287706163194
 30
0.0
 10
0.40152587890625
 20
-0.1840542263454861
 30
0.0
 10
0.40152587890625
 20
-0.1840542263454861
 30
0.0
 10
0.4039374457465277
 20
-0.1959398057725694
 30
0.0
 10
0.3980807834201389
 20
-0.2117872450086805
 30
0.0
 10
0.38912353515625
 20
-0.2191942003038194
 30
0.0
 10
0.38912353515625
 20
-0.2191942003038194
 30
0.0
 10
0.1403876410590278
 20
-0.4195265028211805
 30
0.0
 10
0.1403876410590278
 20
-0.4195265028211805
 30
0.0
 10
0.1310858832465278
 20
-0.427105712890625
 30
0.0
 10
0.1179945203993055
 20
-0.4253831651475694
 30
0.0
 10
0.1104153103298611
 20
-0.4157368977864583
 30
0.0
 10
0.1104153103298611
 20
-0.4157368977864583
 30
0.0
 10
-0.40152587890625
 20
0.2872348361545138
 30
0.0
 10
-0.40152587890625
 20
0.2872348361545138
 30
0.0
  0
ENDBLK
  5
75
100
AcDbEntity
  8
0
100
AcDbBlockEnd
  0
BLOCK
  5
78
100
AcDbEntity
  8
0
 62
     7
100
AcDbBlockBegin
  2
AI9-BLK16
 70
     0
 10
0.0
 20
0.0
 30
0.0
  3
AI9-BLK16
  1

  0
SPLINE
  5
79
100
AcDbEntity
  8
0
 62
     7
100
AcDbSpline
210
0.0
220
0.0
230
1.0
 70
     8
 71
     3
 72
    23
 73
    19
 74
     0
 42
0.00000001
 43
0.00000001
 40
0.0
 40
0.0
 40
0.0
 40
0.0
 40
1.0
 40
1.0
 40
1.0
 40
2.0
 40
2.0
 40
2.0
 40
3.0
 40
3.0
 40
3.0
 40
4.0
 40
4.0
 40
4.0
 40
5.0
 40
5.0
 40
5.0
 40
6.0
 40
6.0
 40
6.0
 40
6.0
 10
-0.3687974717881944
 20
0.1786282009548611
 30
0.0
 10
-0.3763766818576388
 20
0.1879299587673611
 30
0.0
 10
-0.3732760959201388
 20
0.1984375
 30
0.0
 10
-0.3619072808159722
 20
0.2018825954861111
 30
0.0
 10
-0.3619072808159722
 20
0.2018825954861111
 30
0.0
 10
0.3529500325520833
 20
0.4259860568576389
 30
0.0
 10
0.3529500325520833
 20
0.4259860568576389
 30
0.0
 10
0.3643188476562499
 20
0.42943115234375
 30
0.0
 10
0.3712090386284722
 20
0.4228854709201388
 30
0.0
 10
0.3687974717881944
 20
0.4111721462673611
 30
0.0
 10
0.3687974717881944
 20
0.4111721462673611
 30
0.0
 10
0.1600246853298611
 20
-0.4213351779513889
 30
0.0
 10
0.1600246853298611
 20
-0.4213351779513889
 30
0.0
 10
0.1572686089409722
 20
-0.4332207573784722
 30
0.0
 10
0.1483113606770833
 20
-0.4351155598958333
 30
0.0
 10
0.1407321506076389
 20
-0.4259860568576389
 30
0.0
 10
0.1407321506076389
 20
-0.4259860568576389
 30
0.0
 10
-0.3687974717881944
 20
0.1786282009548611
 30
0.0
 10
-0.3687974717881944
 20
0.1786282009548611
 30
0.0
  0
ENDBLK
  5
7A
100
AcDbEntity
  8
0
100
AcDbBlockEnd
  0
BLOCK
  5
7D
100
AcDbEntity
  8
0
 62
     7
100
AcDbBlockBegin
  2
AI9-BLK17
 70
     0
 10
0.0
 20
0.0
 30
0.0
  3
AI9-BLK17
  1

  0
SPLINE
  5
7E
100
AcDbEntity
  8
0
 62
     7
100
AcDbSpline
210
0.0
220
0.0
230
1.0
 70
     8
 71
     3
 72
    29
 73
    25
 74
     0
 42
0.00000001
 43
0.00000001
 40
0.0
 40
0.0
 40
0.0
 40
0.0
 40
1.0
 40
1.0
 40
1.0
 40
2.0
 40
2.0
 40
2.0
 40
3.0
 40
3.0
 40
3.0
 40
4.0
 40
4.0
 40
4.0
 40
5.0
 40
5.0
 40
5.0
 40
6.0
 40
6.0
 40
6.0
 40
7.0
 40
7.0
 40
7.0
 40
8.0
 40
8.0
 40
8.0
 40
8.0
 10
-0.28680419921875
 20
0.115496826171875
 30
0.0
 10
-0.2933498806423611
 20
0.1254876030815972
 30
0.0
 10
-0.2919718424479166
 20
0.1411627875434028
 30
0.0
 10
-0.28370361328125
 20
0.1499477810329861
 30
0.0
 10
-0.28370361328125
 20
0.1499477810329861
 30
0.0
 10
-0.0304890950520833
 20
0.4276224772135416
 30
0.0
 10
-0.0304890950520833
 20
0.4276224772135416
 30
0.0
 10
-0.0225653754340278
 20
0.4365797254774305
 30
0.0
 10
-0.0080959743923611
 20
0.4379577636718749
 30
0.0
 10
0.0018948025173611
 20
0.4308953179253472
 30
0.0
 10
0.0018948025173611
 20
0.4308953179253472
 30
0.0
 10
0.2761244032118055
 20
0.2288404676649306
 30
0.0
 10
0.2761244032118055
 20
0.2288404676649306
 30
0.0
 10
0.2861151801215278
 20
0.2216057671440972
 30
0.0
 10
0.2905938042534722
 20
0.2064473470052083
 30
0.0
 10
0.28680419921875
 20
0.1952507866753472
 30
0.0
 10
0.28680419921875
 20
0.1952507866753472
 30
0.0
 10
0.0732082790798611
 20
-0.428656005859375
 30
0.0
 10
0.0732082790798611
 20
-0.428656005859375
 30
0.0
 10
0.0694186740451389
 20
-0.4400248209635416
 30
0.0
 10
0.0608059353298611
 20
-0.441058349609375
 30
0.0
 10
0.0546047634548611
 20
-0.4308953179253472
 30
0.0
 10
0.0546047634548611
 20
-0.4308953179253472
 30
0.0
 10
-0.28680419921875
 20
0.115496826171875
 30
0.0
 10
-0.28680419921875
 20
0.115496826171875
 30
0.0
  0
ENDBLK
  5
7F
100
AcDbEntity
  8
0
100
AcDbBlockEnd
  0
BLOCK
  5
AC
100
AcDbEntity
  8
1
 62
     7
100
AcDbBlockBegin
  2
AI9-BLK18
 70
     0
 10
0.0
 20
0.0
 30
0.0
  3
AI9-BLK18
  1

  0
LINE
  5
EC
100
AcDbEntity
  8
1
 62
     7
100
AcDbLine
 10
18.306979
 20
-3.75636
 30
0.0
 11
13.342596
 21
-3.75636
 31
0.0
  0
LINE
  5
EB
100
AcDbEntity
  8
1
 62
     1
100
AcDbLine
 10
13.342596
 20
-3.53863
 30
0.0
 11
18.089249
 21
-3.53863
 31
0.0
  0
LINE
  5
EA
100
AcDbEntity
  8
1
 62
     1
100
AcDbLine
 10
12.529898
 20
-3.53863
 30
0.0
 11
7.782901
 21
-3.53863
 31
0.0
  0
LINE
  5
E9
100
AcDbEntity
  8
1
 62
     1
100
AcDbLine
 10
7.782901
 20
-3.53863
 30
0.0
 11
7.782901
 21
5.260833
 31
0.0
  0
LINE
  5
E8
100
AcDbEntity
  8
1
 62
     1
100
AcDbLine
 10
18.089249
 20
5.260833
 30
0.0
 11
18.089249
 21
-3.53863
 31
0.0
  0
LINE
  5
E7
100
AcDbEntity
  8
1
 62
     1
100
AcDbLine
 10
7.782901
 20
5.260833
 30
0.0
 11
18.089249
 21
5.260833
 31
0.0
  0
LINE
  5
E6
100
AcDbEntity
  8
1
 62
     7
100
AcDbLine
 10
-18.287859
 20
5.478391
 30
0.0
 11
-8.727202
 21
1.034045
 31
0.0
  0
LINE
  5
E5
100
AcDbEntity
  8
1
 62
     7
100
AcDbLine
 10
-14.836907
 20
-3.09404
 30
0.0
 11
-8.916682
 21
-0.706245
 31
0.0
  0
LINE
  5
E4
100
AcDbEntity
  8
1
 62
     7
100
AcDbLine
 10
-8.781118
 20
-1.04283
 30
0.0
 11
-15.508872
 21
-3.75636
 31
0.0
  0
LINE
  5
E3
100
AcDbEntity
  8
1
 62
     7
100
AcDbLine
 10
-15.525926
 20
-3.713641
 30
0.0
 11
-8.797999
 21
-1.000283
 31
0.0
  0
LINE
  5
E2
100
AcDbEntity
  8
1
 62
     7
100
AcDbLine
 10
-15.508872
 20
-3.75636
 30
0.0
 11
-15.525926
 21
-3.713641
 31
0.0
  0
LINE
  5
E1
100
AcDbEntity
  8
1
 62
     7
100
AcDbLine
 10
-15.525926
 20
-3.713641
 30
0.0
 11
-14.836907
 21
-3.09404
 31
0.0
  0
LINE
  5
E0
100
AcDbEntity
  8
1
 62
     7
100
AcDbLine
 10
-18.307151
 20
5.436705
 30
0.0
 11
-8.746495
 21
0.99236
 31
0.0
  0
LINE
  5
DF
100
AcDbEntity
  8
1
 62
     7
100
AcDbLine
 10
-18.307151
 20
5.436705
 30
0.0
 11
-18.287859
 21
5.478391
 31
0.0
  0
LINE
  5
DE
100
AcDbEntity
  8
1
 62
     7
100
AcDbLine
 10
-18.307151
 20
5.436705
 30
0.0
 11
-17.651033
 21
4.782137
 31
0.0
  0
LINE
  5
DD
100
AcDbEntity
  8
1
 62
     7
100
AcDbLine
 10
7.565171
 20
-3.75636
 30
0.0
 11
12.524386
 21
-3.75636
 31
0.0
  0
LINE
  5
DC
100
AcDbEntity
  8
1
 62
     7
100
AcDbLine
 10
7.565171
 20
5.478391
 30
0.0
 11
7.565171
 21
1.034045
 31
0.0
  0
LINE
  5
DB
100
AcDbEntity
  8
1
 62
     7
100
AcDbLine
 10
7.565171
 20
5.478391
 30
0.0
 11
18.306979
 21
5.478391
 31
0.0
  0
LINE
  5
DA
100
AcDbEntity
  8
1
 62
     7
100
AcDbLine
 10
18.306979
 20
5.478391
 30
0.0
 11
18.306979
 21
1.034045
 31
0.0
  0
LINE
  5
D9
100
AcDbEntity
  8
1
 62
     7
100
AcDbLine
 10
7.565171
 20
-1.04283
 30
0.0
 11
7.565171
 21
-3.75636
 31
0.0
  0
LINE
  5
D8
100
AcDbEntity
  8
1
 62
     7
100
AcDbLine
 10
18.306979
 20
-1.04283
 30
0.0
 11
18.306979
 21
-3.75636
 31
0.0
  0
LINE
  5
D7
100
AcDbEntity
  8
1
 62
     7
100
AcDbLine
 10
18.306979
 20
1.034045
 30
0.0
 11
18.306979
 21
-1.04283
 31
0.0
  0
LINE
  5
D6
100
AcDbEntity
  8
1
 62
     7
100
AcDbLine
 10
7.565171
 20
1.034045
 30
0.0
 11
7.565171
 21
-1.04283
 31
0.0
  0
LINE
  5
D5
100
AcDbEntity
  8
1
 62
     7
100
AcDbLine
 10
12.529898
 20
-4.856379
 30
0.0
 11
12.529898
 21
-2.595363
 31
0.0
  0
LINE
  5
D4
100
AcDbEntity
  8
1
 62
     7
100
AcDbLine
 10
13.342596
 20
-4.856379
 30
0.0
 11
13.342596
 21
-2.595363
 31
0.0
  0
LINE
  5
D3
100
AcDbEntity
  8
1
 62
     7
100
AcDbLine
 10
12.529898
 20
-3.534668
 30
0.0
 11
13.342596
 21
-3.534668
 31
0.0
  0
LINE
  5
D2
100
AcDbEntity
  8
1
 62
     7
100
AcDbLine
 10
-13.501243
 20
-4.858101
 30
0.0
 11
-13.501243
 21
-2.94659
 31
0.0
  0
LINE
  5
D1
100
AcDbEntity
  8
1
 62
     7
100
AcDbLine
 10
-13.430102
 20
-4.857068
 30
0.0
 11
-13.401852
 21
-4.857068
 31
0.0
  0
LINE
  5
D0
100
AcDbEntity
  8
1
 62
     7
100
AcDbLine
 10
-13.401852
 20
-4.857068
 30
0.0
 11
-12.701292
 21
-4.857068
 31
0.0
  0
LINE
  5
CF
100
AcDbEntity
  8
1
 62
     7
100
AcDbLine
 10
10.746028
 20
-5.477185
 30
0.0
 11
8.717556
 21
-5.477185
 31
0.0
  0
LINE
  5
CE
100
AcDbEntity
  8
1
 62
     7
100
AcDbLine
 10
14.379915
 20
-5.477185
 30
0.0
 11
16.000488
 21
-5.477185
 31
0.0
  0
LINE
  5
CD
100
AcDbEntity
  8
1
 62
     7
100
AcDbLine
 10
14.023692
 20
-5.477185
 30
0.0
 11
14.379915
 21
-5.477185
 31
0.0
  0
LINE
  5
CC
100
AcDbEntity
  8
1
 62
     7
100
AcDbLine
 10
16.000488
 20
-5.477185
 30
0.0
 11
16.757375
 21
-5.477185
 31
0.0
  0
LINE
  5
CB
100
AcDbEntity
  8
1
 62
     7
100
AcDbLine
 10
16.757375
 20
-5.477185
 30
0.0
 11
16.896901
 21
-5.477185
 31
0.0
  0
LINE
  5
CA
100
AcDbEntity
  8
1
 62
     7
100
AcDbLine
 10
12.164374
 20
-5.477185
 30
0.0
 11
11.371657
 21
-5.477185
 31
0.0
  0
LINE
  5
C9
100
AcDbEntity
  8
1
 62
     7
100
AcDbLine
 10
11.371657
 20
-5.477185
 30
0.0
 11
10.746028
 21
-5.477185
 31
0.0
  0
LINE
  5
C8
100
AcDbEntity
  8
1
 62
     7
100
AcDbLine
 10
12.23362
 20
-5.477185
 30
0.0
 11
12.51853
 21
-5.477185
 31
0.0
  0
LINE
  5
C7
100
AcDbEntity
  8
1
 62
     7
100
AcDbLine
 10
12.741427
 20
-5.477185
 30
0.0
 11
12.51853
 21
-5.477185
 31
0.0
  0
LINE
  5
C6
100
AcDbEntity
  8
1
 62
     7
100
AcDbLine
 10
8.680693
 20
-5.477185
 30
0.0
 11
8.717556
 21
-5.477185
 31
0.0
  0
LINE
  5
C5
100
AcDbEntity
  8
1
 62
     7
100
AcDbLine
 10
-17.58661
 20
-5.323189
 30
0.0
 11
-8.544956
 21
-5.323189
 31
0.0
  0
LINE
  5
C4
100
AcDbEntity
  8
1
 62
     7
100
AcDbLine
 10
-12.630151
 20
-4.858101
 30
0.0
 11
-12.630151
 21
-2.595363
 31
0.0
  0
LINE
  5
C3
100
AcDbEntity
  8
1
 62
     7
100
AcDbLine
 10
-17.500138
 20
-5.478391
 30
0.0
 11
-8.631084
 21
-5.478391
 31
0.0
  0
LINE
  5
C2
100
AcDbEntity
  8
1
 62
     7
100
AcDbLine
 10
17.457763
 20
-5.323189
 30
0.0
 11
8.414387
 21
-5.323189
 31
0.0
  0
LINE
  5
C1
100
AcDbEntity
  8
1
 62
     7
100
AcDbLine
 10
-13.501243
 20
-3.523471
 30
0.0
 11
-12.630151
 21
-3.523471
 31
0.0
  0
LINE
  5
C0
100
AcDbEntity
  8
1
 62
     7
100
AcDbLine
 10
12.529898
 20
-2.595363
 30
0.0
 11
13.342596
 21
-2.595363
 31
0.0
  0
SPLINE
  5
BF
100
AcDbEntity
  8
1
 62
     7
100
AcDbSpline
210
0.0
220
0.0
230
1.0
 70
     8
 71
     3
 72
    11
 73
     7
 74
     0
 42
0.00000001
 43
0.00000001
 40
0.0
 40
0.0
 40
0.0
 40
0.0
 40
1.0
 40
1.0
 40
1.0
 40
2.0
 40
2.0
 40
2.0
 40
2.0
 10
-8.9166822645399293
 20
-0.7062445746527777
 30
0.0
 10
-8.522735595703125
 20
-0.5472534179687499
 30
0.0
 10
-8.3320495605468743
 20
-0.0990464952256944
 30
0.0
 10
-8.4910407172309021
 20
0.2950724283854166
 30
0.0
 10
-8.5642489963107629
 20
0.4762844509548611
 30
0.0
 10
-8.70308634440104
 20
0.6227010091145833
 30
0.0
 10
-8.8803365071614575
 20
0.7050387912326388
 30
0.0
  0
SPLINE
  5
BE
100
AcDbEntity
  8
1
 62
     7
100
AcDbSpline
210
0.0
220
0.0
230
1.0
 70
     8
 71
     3
 72
    11
 73
     7
 74
     0
 42
0.00000001
 43
0.00000001
 40
0.0
 40
0.0
 40
0.0
 40
0.0
 40
1.0
 40
1.0
 40
1.0
 40
2.0
 40
2.0
 40
2.0
 40
2.0
 10
-8.7979987250434029
 20
-1.000283474392361
 30
0.0
 10
-8.2416158040364582
 20
-0.7758355034722222
 30
0.0
 10
-7.9727261013454855
 20
-0.1427992078993055
 30
0.0
 10
-8.1970018174913193
 20
0.4135837131076389
 30
0.0
 10
-8.3001824273003457
 20
0.6692097981770833
 30
0.0
 10
-8.4965528700086796
 20
0.8760877821180555
 30
0.0
 10
-8.7464945475260407
 20
0.9923597547743055
 30
0.0
  0
SPLINE
  5
BD
100
AcDbEntity
  8
1
 62
     7
100
AcDbSpline
210
0.0
220
0.0
230
1.0
 70
     8
 71
     3
 72
    11
 73
     7
 74
     0
 42
0.00000001
 43
0.00000001
 40
0.0
 40
0.0
 40
0.0
 40
0.0
 40
1.0
 40
1.0
 40
1.0
 40
2.0
 40
2.0
 40
2.0
 40
2.0
 10
-8.7811177571614571
 20
-1.0428304036458333
 30
0.0
 10
-8.2011359320746529
 20
-0.8087361653645833
 30
0.0
 10
-7.9205329047309023
 20
-0.1490003797743056
 30
0.0
 10
-8.1544548882378471
 20
0.4308091905381944
 30
0.0
 10
-8.2619418674045129
 20
0.6971150716145833
 30
0.0
 10
-8.4667527940538179
 20
0.9127780490451388
 30
0.0
 10
-8.7272020128038186
 20
1.03404541015625
 30
0.0
  0
SPLINE
  5
BC
100
AcDbEntity
  8
1
 62
     7
100
AcDbSpline
210
0.0
220
0.0
230
1.0
 70
     8
 71
     3
 72
     8
 73
     4
 74
     0
 42
0.00000001
 43
0.00000001
 40
0.0
 40
0.0
 40
0.0
 40
0.0
 40
1.0
 40
1.0
 40
1.0
 40
1.0
 10
-8.6119635687934029
 20
-5.2770250108506938
 30
0.0
 10
-9.9603739420572914
 20
-5.0186428493923607
 30
0.0
 10
-11.328593614366319
 20
-4.8780829535590273
 30
0.0
 10
-12.70129191080729
 20
-4.8570678710937498
 30
0.0
  0
SPLINE
  5
BB
100
AcDbEntity
  8
1
 62
     7
100
AcDbSpline
210
0.0
220
0.0
230
1.0
 70
     8
 71
     3
 72
    11
 73
     7
 74
     0
 42
0.00000001
 43
0.00000001
 40
0.0
 40
0.0
 40
0.0
 40
0.0
 40
1.0
 40
1.0
 40
1.0
 40
2.0
 40
2.0
 40
2.0
 40
2.0
 10
-8.6310838487413193
 20
-5.478390842013888
 30
0.0
 10
-8.5749287923177082
 20
-5.478390842013888
 30
0.0
 10
-8.5294535319010407
 20
-5.4329155815972214
 30
0.0
 10
-8.5294535319010407
 20
-5.3767605251736104
 30
0.0
 10
-8.5294535319010407
 20
-5.3280124240451388
 30
0.0
 10
-8.5642489963107629
 20
-5.2861545138888886
 30
0.0
 10
-8.6119635687934029
 20
-5.2770250108506938
 30
0.0
  0
SPLINE
  5
BA
100
AcDbEntity
  8
1
 62
     7
100
AcDbSpline
210
0.0
220
0.0
230
1.0
 70
     8
 71
     3
 72
    11
 73
     7
 74
     0
 42
0.00000001
 43
0.00000001
 40
0.0
 40
0.0
 40
0.0
 40
0.0
 40
1.0
 40
1.0
 40
1.0
 40
2.0
 40
2.0
 40
2.0
 40
2.0
 10
-17.519430202907984
 20
-5.2770250108506938
 30
0.0
 10
-17.574551730685762
 20
-5.2877048068576382
 30
0.0
 10
-17.61072523328993
 20
-5.3407592773437491
 30
0.0
 10
-17.600045437282983
 20
-5.3960530598958325
 30
0.0
 10
-17.590915934244791
 20
-5.4437676323784716
 30
0.0
 10
-17.549058024088541
 20
-5.478390842013888
 30
0.0
 10
-17.500309922960067
 20
-5.478390842013888
 30
0.0
  0
SPLINE
  5
B9
100
AcDbEntity
  8
1
 62
     7
100
AcDbSpline
210
0.0
220
0.0
230
1.0
 70
     8
 71
     3
 72
     8
 73
     4
 74
     0
 42
0.00000001
 43
0.00000001
 40
0.0
 40
0.0
 40
0.0
 40
0.0
 40
1.0
 40
1.0
 40
1.0
 40
1.0
 10
-13.430101860894096
 20
-4.8570678710937498
 30
0.0
 10
-14.802800157335069
 20
-4.8780829535590273
 30
0.0
 10
-16.171019829644095
 20
-5.0186428493923607
 30
0.0
 10
-17.519430202907984
 20
-5.2770250108506938
 30
0.0
  0
SPLINE
  5
B8
100
AcDbEntity
  8
1
 62
     7
100
AcDbSpline
210
0.0
220
0.0
230
1.0
 70
     8
 71
     3
 72
     8
 73
     4
 74
     0
 42
0.00000001
 43
0.00000001
 40
0.0
 40
0.0
 40
0.0
 40
0.0
 40
1.0
 40
1.0
 40
1.0
 40
1.0
 10
12.571928575303819
 20
-4.8558620876736107
 30
0.0
 10
11.19905802408854
 20
-4.8770494249131939
 30
0.0
 10
9.8306660970052082
 20
-5.0176093207465273
 30
0.0
 10
8.4822557237413179
 20
-5.2758192274305546
 30
0.0
  0
SPLINE
  5
B7
100
AcDbEntity
  8
1
 62
     7
100
AcDbSpline
210
0.0
220
0.0
230
1.0
 70
     8
 71
     3
 72
     8
 73
     4
 74
     0
 42
0.00000001
 43
0.00000001
 40
0.0
 40
0.0
 40
0.0
 40
0.0
 40
1.0
 40
1.0
 40
1.0
 40
1.0
 10
17.389894612630208
 20
-5.2758192274305546
 30
0.0
 10
16.041828748914931
 20
-5.0176093207465273
 30
0.0
 10
14.673092312282984
 20
-4.8770494249131939
 30
0.0
 10
13.300566270616319
 20
-4.8558620876736107
 30
0.0
  0
SPLINE
  5
B6
100
AcDbEntity
  8
1
 62
     7
100
AcDbSpline
210
0.0
220
0.0
230
1.0
 70
     8
 71
     3
 72
    11
 73
     7
 74
     0
 42
0.00000001
 43
0.00000001
 40
0.0
 40
0.0
 40
0.0
 40
0.0
 40
1.0
 40
1.0
 40
1.0
 40
2.0
 40
2.0
 40
2.0
 40
2.0
 10
17.370946587456597
 20
-5.4771850585937498
 30
0.0
 10
17.426757134331595
 20
-5.4771850585937498
 30
0.0
 10
17.472576904296872
 20
-5.431882052951388
 30
0.0
 10
17.472576904296872
 20
-5.375726996527777
 30
0.0
 10
17.472576904296872
 20
-5.3269788953993054
 30
0.0
 10
17.43778143988715
 20
-5.2849487304687495
 30
0.0
 10
17.389894612630208
 20
-5.2758192274305546
 30
0.0
  0
SPLINE
  5
B5
100
AcDbEntity
  8
1
 62
     7
100
AcDbSpline
210
0.0
220
0.0
230
1.0
 70
     8
 71
     3
 72
    11
 73
     7
 74
     0
 42
0.00000001
 43
0.00000001
 40
0.0
 40
0.0
 40
0.0
 40
0.0
 40
1.0
 40
1.0
 40
1.0
 40
2.0
 40
2.0
 40
2.0
 40
2.0
 10
8.4822557237413179
 20
-5.2758192274305546
 30
0.0
 10
8.4271341959635411
 20
-5.2863267686631943
 30
0.0
 10
8.3913052029079847
 20
-5.3397257486979166
 30
0.0
 10
8.4016404893663186
 20
-5.3948472764756943
 30
0.0
 10
8.4109422471788182
 20
-5.4425618489583325
 30
0.0
 10
8.4526279025607636
 20
-5.4771850585937498
 30
0.0
 10
8.50154825846354
 20
-5.4771850585937498
 30
0.0
  0
SPLINE
  5
B4
100
AcDbEntity
  8
1
 62
     7
100
AcDbSpline
210
0.0
220
0.0
230
1.0
 70
     8
 71
     3
 72
    47
 73
    43
 74
     0
 42
0.00000001
 43
0.00000001
 40
0.0
 40
0.0
 40
0.0
 40
0.0
 40
1.0
 40
1.0
 40
1.0
 40
2.0
 40
2.0
 40
2.0
 40
3.0
 40
3.0
 40
3.0
 40
4.0
 40
4.0
 40
4.0
 40
5.0
 40
5.0
 40
5.0
 40
6.0
 40
6.0
 40
6.0
 40
7.0
 40
7.0
 40
7.0
 40
8.0
 40
8.0
 40
8.0
 40
9.0
 40
9.0
 40
9.0
 40
10.0
 40
10.0
 40
10.0
 40
11.0
 40
11.0
 40
11.0
 40
12.0
 40
12.0
 40
12.0
 40
13.0
 40
13.0
 40
13.0
 40
14.0
 40
14.0
 40
14.0
 40
14.0
 10
12.571928575303819
 20
-4.8558620876736107
 30
0.0
 10
12.579163275824651
 20
-4.8558620876736107
 30
0.0
 10
12.586053466796875
 20
-4.8558620876736107
 30
0.0
 10
12.593632676866319
 20
-4.8558620876736107
 30
0.0
 10
12.600867377387152
 20
-4.8558620876736107
 30
0.0
 10
12.608102077907985
 20
-4.8558620876736107
 30
0.0
 10
12.614992268880208
 20
-4.8558620876736107
 30
0.0
 10
12.624294026692708
 20
-4.8558620876736107
 30
0.0
 10
12.633595784505207
 20
-4.8558620876736107
 30
0.0
 10
12.642553032769095
 20
-4.8558620876736107
 30
0.0
 10
12.652199300130206
 20
-4.8558620876736107
 30
0.0
 10
12.660812038845485
 20
-4.8558620876736107
 30
0.0
 10
12.670458306206596
 20
-4.8558620876736107
 30
0.0
 10
12.68113810221354
 20
-4.8558620876736107
 30
0.0
 10
12.691473388671874
 20
-4.8558620876736107
 30
0.0
 10
12.702153184678819
 20
-4.8558620876736107
 30
0.0
 10
12.712832980685763
 20
-4.8558620876736107
 30
0.0
 10
12.723512776692708
 20
-4.8558620876736107
 30
0.0
 10
12.734192572699651
 20
-4.8558620876736107
 30
0.0
 10
12.745561387803818
 20
-4.8558620876736107
 30
0.0
 10
12.757274712456596
 20
-4.8558620876736107
 30
0.0
 10
12.768643527560762
 20
-4.8558620876736107
 30
0.0
 10
12.78035685221354
 20
-4.8558620876736107
 30
0.0
 10
12.791381157769097
 20
-4.8558620876736107
 30
0.0
 10
12.803094482421875
 20
-4.8558620876736107
 30
0.0
 10
12.812740749782986
 20
-4.8558620876736107
 30
0.0
 10
12.822387017144097
 20
-4.8558620876736107
 30
0.0
 10
12.832033284505208
 20
-4.8558620876736107
 30
0.0
 10
12.842024061414929
 20
-4.8558620876736107
 30
0.0
 10
12.85167032877604
 20
-4.8558620876736107
 30
0.0
 10
12.861316596137151
 20
-4.8558620876736107
 30
0.0
 10
12.867862277560763
 20
-4.8558620876736107
 30
0.0
 10
12.874407958984374
 20
-4.8558620876736107
 30
0.0
 10
12.881298149956596
 20
-4.8558620876736107
 30
0.0
 10
12.887499321831596
 20
-4.8558620876736107
 30
0.0
 10
12.894389512803818
 20
-4.8558620876736107
 30
0.0
 10
12.900590684678818
 20
-4.8558620876736107
 30
0.0
 10
12.906447347005207
 20
-4.8558620876736107
 30
0.0
 10
12.912648518880207
 20
-4.8558620876736107
 30
0.0
 10
12.918505181206596
 20
-4.8558620876736107
 30
0.0
 10
12.924361843532985
 20
-4.8558620876736107
 30
0.0
 10
12.930218505859374
 20
-4.8558620876736107
 30
0.0
 10
12.936075168185763
 20
-4.8558620876736107
 30
0.0
  0
SPLINE
  5
B3
100
AcDbEntity
  8
1
 62
     7
100
AcDbSpline
210
0.0
220
0.0
230
1.0
 70
     8
 71
     3
 72
    23
 73
    19
 74
     0
 42
0.00000001
 43
0.00000001
 40
0.0
 40
0.0
 40
0.0
 40
0.0
 40
1.0
 40
1.0
 40
1.0
 40
2.0
 40
2.0
 40
2.0
 40
3.0
 40
3.0
 40
3.0
 40
4.0
 40
4.0
 40
4.0
 40
5.0
 40
5.0
 40
5.0
 40
6.0
 40
6.0
 40
6.0
 40
6.0
 10
12.936075168185763
 20
-4.8558620876736107
 30
0.0
 10
12.951922607421874
 20
-4.8558620876736107
 30
0.0
 10
12.967081027560763
 20
-4.8558620876736107
 30
0.0
 10
12.982928466796874
 20
-4.8558620876736107
 30
0.0
 10
12.998431396484374
 20
-4.8558620876736107
 30
0.0
 10
13.013934326171874
 20
-4.8558620876736107
 30
0.0
 10
13.029437255859374
 20
-4.8558620876736107
 30
0.0
 10
13.03736097547743
 20
-4.8558620876736107
 30
0.0
 10
13.044595675998263
 20
-4.8558620876736107
 30
0.0
 10
13.052519395616319
 20
-4.8558620876736107
 30
0.0
 10
13.060098605685763
 20
-4.8558620876736107
 30
0.0
 10
13.068022325303819
 20
-4.8558620876736107
 30
0.0
 10
13.075601535373263
 20
-4.8558620876736107
 30
0.0
 10
13.075601535373263
 20
-4.8558620876736107
 30
0.0
 10
13.075946044921874
 20
-4.8558620876736107
 30
0.0
 10
13.075946044921874
 20
-4.8558620876736107
 30
0.0
 10
13.076290554470486
 20
-4.8558620876736107
 30
0.0
 10
13.076290554470486
 20
-4.8558620876736107
 30
0.0
 10
13.076635064019095
 20
-4.8558620876736107
 30
0.0
  0
SPLINE
  5
B2
100
AcDbEntity
  8
1
 62
     7
100
AcDbSpline
210
0.0
220
0.0
230
1.0
 70
     8
 71
     3
 72
   125
 73
   121
 74
     0
 42
0.00000001
 43
0.00000001
 40
0.0
 40
0.0
 40
0.0
 40
0.0
 40
1.0
 40
1.0
 40
1.0
 40
2.0
 40
2.0
 40
2.0
 40
3.0
 40
3.0
 40
3.0
 40
4.0
 40
4.0
 40
4.0
 40
5.0
 40
5.0
 40
5.0
 40
6.0
 40
6.0
 40
6.0
 40
7.0
 40
7.0
 40
7.0
 40
8.0
 40
8.0
 40
8.0
 40
9.0
 40
9.0
 40
9.0
 40
10.0
 40
10.0
 40
10.0
 40
11.0
 40
11.0
 40
11.0
 40
12.0
 40
12.0
 40
12.0
 40
13.0
 40
13.0
 40
13.0
 40
14.0
 40
14.0
 40
14.0
 40
15.0
 40
15.0
 40
15.0
 40
16.0
 40
16.0
 40
16.0
 40
17.0
 40
17.0
 40
17.0
 40
18.0
 40
18.0
 40
18.0
 40
19.0
 40
19.0
 40
19.0
 40
20.0
 40
20.0
 40
20.0
 40
21.0
 40
21.0
 40
21.0
 40
22.0
 40
22.0
 40
22.0
 40
23.0
 40
23.0
 40
23.0
 40
24.0
 40
24.0
 40
24.0
 40
25.0
 40
25.0
 40
25.0
 40
26.0
 40
26.0
 40
26.0
 40
27.0
 40
27.0
 40
27.0
 40
28.0
 40
28.0
 40
28.0
 40
29.0
 40
29.0
 40
29.0
 40
30.0
 40
30.0
 40
30.0
 40
31.0
 40
31.0
 40
31.0
 40
32.0
 40
32.0
 40
32.0
 40
33.0
 40
33.0
 40
33.0
 40
34.0
 40
34.0
 40
34.0
 40
35.0
 40
35.0
 40
35.0
 40
36.0
 40
36.0
 40
36.0
 40
37.0
 40
37.0
 40
37.0
 40
38.0
 40
38.0
 40
38.0
 40
39.0
 40
39.0
 40
39.0
 40
40.0
 40
40.0
 40
40.0
 40
40.0
 10
13.076635064019095
 20
-4.8558620876736107
 30
0.0
 10
13.082147216796875
 20
-4.8558620876736107
 30
0.0
 10
13.087314860026041
 20
-4.8558620876736107
 30
0.0
 10
13.092482503255207
 20
-4.8558620876736107
 30
0.0
 10
13.097994656032984
 20
-4.8558620876736107
 30
0.0
 10
13.103162299262152
 20
-4.8558620876736107
 30
0.0
 10
13.109018961588541
 20
-4.8558620876736107
 30
0.0
 10
13.110396999782985
 20
-4.8558620876736107
 30
0.0
 10
13.112464057074652
 20
-4.8558620876736107
 30
0.0
 10
13.114186604817707
 20
-4.8558620876736107
 30
0.0
 10
13.115564643012151
 20
-4.8558620876736107
 30
0.0
 10
13.117631700303818
 20
-4.8558620876736107
 30
0.0
 10
13.119354248046873
 20
-4.8558620876736107
 30
0.0
 10
13.12142130533854
 20
-4.8558620876736107
 30
0.0
 10
13.123832872178818
 20
-4.8558620876736107
 30
0.0
 10
13.125899929470485
 20
-4.8558620876736107
 30
0.0
 10
13.12762247721354
 20
-4.8558620876736107
 30
0.0
 10
13.129689534505207
 20
-4.8558620876736107
 30
0.0
 10
13.131756591796874
 20
-4.8558620876736107
 30
0.0
 10
13.134168158637152
 20
-4.8558620876736107
 30
0.0
 10
13.136579725477429
 20
-4.8558620876736107
 30
0.0
 10
13.138646782769095
 20
-4.8558620876736107
 30
0.0
 10
13.141058349609374
 20
-4.8558620876736107
 30
0.0
 10
13.143469916449652
 20
-4.8558620876736107
 30
0.0
 10
13.145536973741319
 20
-4.8558620876736107
 30
0.0
 10
13.147948540581597
 20
-4.8558620876736107
 30
0.0
 10
13.150360107421873
 20
-4.8558620876736107
 30
0.0
 10
13.153116183810763
 20
-4.8558620876736107
 30
0.0
 10
13.155527750651041
 20
-4.8558620876736107
 30
0.0
 10
13.157939317491318
 20
-4.8558620876736107
 30
0.0
 10
13.160350884331596
 20
-4.8558620876736107
 30
0.0
 10
13.163106960720485
 20
-4.8558620876736107
 30
0.0
 10
13.165518527560764
 20
-4.8558620876736107
 30
0.0
 10
13.168274603949651
 20
-4.8558620876736107
 30
0.0
 10
13.171030680338541
 20
-4.8558620876736107
 30
0.0
 10
13.173442247178818
 20
-4.8558620876736107
 30
0.0
 10
13.175853814019096
 20
-4.8558620876736107
 30
0.0
 10
13.178609890407985
 20
-4.8558620876736107
 30
0.0
 10
13.181365966796873
 20
-4.8558620876736107
 30
0.0
 10
13.184122043185763
 20
-4.8558620876736107
 30
0.0
 10
13.186878119574651
 20
-4.8558620876736107
 30
0.0
 10
13.189289686414929
 20
-4.8558620876736107
 30
0.0
 10
13.191701253255207
 20
-4.8558620876736107
 30
0.0
 10
13.194801839192706
 20
-4.8558620876736107
 30
0.0
 10
13.197557915581596
 20
-4.8558620876736107
 30
0.0
 10
13.199969482421874
 20
-4.8558620876736107
 30
0.0
 10
13.202725558810762
 20
-4.8558620876736107
 30
0.0
 10
13.20513712565104
 20
-4.8558620876736107
 30
0.0
 10
13.20823771158854
 20
-4.8558620876736107
 30
0.0
 10
13.210649278428818
 20
-4.8558620876736107
 30
0.0
 10
13.213405354817708
 20
-4.8558620876736107
 30
0.0
 10
13.216161431206595
 20
-4.8558620876736107
 30
0.0
 10
13.218572998046874
 20
-4.8558620876736107
 30
0.0
 10
13.221329074435763
 20
-4.8558620876736107
 30
0.0
 10
13.224085150824651
 20
-4.8558620876736107
 30
0.0
 10
13.226496717664929
 20
-4.8558620876736107
 30
0.0
 10
13.229252794053819
 20
-4.8558620876736107
 30
0.0
 10
13.231664360894095
 20
-4.8558620876736107
 30
0.0
 10
13.234075927734374
 20
-4.8558620876736107
 30
0.0
 10
13.237176513671875
 20
-4.8558620876736107
 30
0.0
 10
13.239588080512151
 20
-4.8558620876736107
 30
0.0
 10
13.240621609157985
 20
-4.8558620876736107
 30
0.0
 10
13.241655137803818
 20
-4.8558620876736107
 30
0.0
 10
13.242688666449652
 20
-4.8558620876736107
 30
0.0
 10
13.243377685546873
 20
-4.8558620876736107
 30
0.0
 10
13.244755723741319
 20
-4.8558620876736107
 30
0.0
 10
13.245789252387151
 20
-4.8558620876736107
 30
0.0
 10
13.246822781032986
 20
-4.8558620876736107
 30
0.0
 10
13.247856309678818
 20
-4.8558620876736107
 30
0.0
 10
13.249234347873262
 20
-4.8558620876736107
 30
0.0
 10
13.250267876519096
 20
-4.8558620876736107
 30
0.0
 10
13.25164591471354
 20
-4.8558620876736107
 30
0.0
 10
13.253023952907984
 20
-4.8558620876736107
 30
0.0
 10
13.254057481553819
 20
-4.8558620876736107
 30
0.0
 10
13.255435519748263
 20
-4.8558620876736107
 30
0.0
 10
13.256469048394097
 20
-4.8558620876736107
 30
0.0
 10
13.257847086588541
 20
-4.8558620876736107
 30
0.0
 10
13.259225124782985
 20
-4.8558620876736107
 30
0.0
 10
13.260258653428819
 20
-4.8558620876736107
 30
0.0
 10
13.261636691623263
 20
-4.8558620876736107
 30
0.0
 10
13.263014729817707
 20
-4.8558620876736107
 30
0.0
 10
13.264392768012151
 20
-4.8558620876736107
 30
0.0
 10
13.266115315755208
 20
-4.8558620876736107
 30
0.0
 10
13.26714884440104
 20
-4.8558620876736107
 30
0.0
 10
13.268526882595484
 20
-4.8558620876736107
 30
0.0
 10
13.26990492078993
 20
-4.8558620876736107
 30
0.0
 10
13.270938449435763
 20
-4.8558620876736107
 30
0.0
 10
13.272316487630206
 20
-4.8558620876736107
 30
0.0
 10
13.273694525824652
 20
-4.8558620876736107
 30
0.0
 10
13.274728054470485
 20
-4.8558620876736107
 30
0.0
 10
13.276106092664929
 20
-4.8558620876736107
 30
0.0
 10
13.277484130859374
 20
-4.8558620876736107
 30
0.0
 10
13.278517659505207
 20
-4.8558620876736107
 30
0.0
 10
13.279895697699651
 20
-4.8558620876736107
 30
0.0
 10
13.281273735894096
 20
-4.8558620876736107
 30
0.0
 10
13.282307264539929
 20
-4.8558620876736107
 30
0.0
 10
13.283685302734375
 20
-4.8558620876736107
 30
0.0
 10
13.284718831380207
 20
-4.8558620876736107
 30
0.0
 10
13.28575236002604
 20
-4.8558620876736107
 30
0.0
 10
13.286785888671874
 20
-4.8558620876736107
 30
0.0
 10
13.287819417317706
 20
-4.8558620876736107
 30
0.0
 10
13.288852945963541
 20
-4.8558620876736107
 30
0.0
 10
13.289886474609373
 20
-4.8558620876736107
 30
0.0
 10
13.290575493706596
 20
-4.8558620876736107
 30
0.0
 10
13.291609022352429
 20
-4.8558620876736107
 30
0.0
 10
13.292298041449651
 20
-4.8558620876736107
 30
0.0
 10
13.292987060546874
 20
-4.8558620876736107
 30
0.0
 10
13.294365098741318
 20
-4.8558620876736107
 30
0.0
 10
13.295398627387151
 20
-4.8558620876736107
 30
0.0
 10
13.295743136935762
 20
-4.8558620876736107
 30
0.0
 10
13.296432156032985
 20
-4.8558620876736107
 30
0.0
 10
13.297121175130208
 20
-4.8558620876736107
 30
0.0
 10
13.297465684678818
 20
-4.8558620876736107
 30
0.0
 10
13.298499213324652
 20
-4.8558620876736107
 30
0.0
 10
13.298843722873263
 20
-4.8558620876736107
 30
0.0
 10
13.299188232421875
 20
-4.8558620876736107
 30
0.0
 10
13.299532741970484
 20
-4.8558620876736107
 30
0.0
 10
13.299532741970484
 20
-4.8558620876736107
 30
0.0
 10
13.299877251519096
 20
-4.8558620876736107
 30
0.0
 10
13.300221761067707
 20
-4.8558620876736107
 30
0.0
 10
13.300566270616319
 20
-4.8558620876736107
 30
0.0
  0
SPLINE
  5
B1
100
AcDbEntity
  8
1
 62
     7
100
AcDbSpline
210
0.0
220
0.0
230
1.0
 70
     8
 71
     3
 72
    35
 73
    31
 74
     0
 42
0.00000001
 43
0.00000001
 40
0.0
 40
0.0
 40
0.0
 40
0.0
 40
1.0
 40
1.0
 40
1.0
 40
2.0
 40
2.0
 40
2.0
 40
3.0
 40
3.0
 40
3.0
 40
4.0
 40
4.0
 40
4.0
 40
5.0
 40
5.0
 40
5.0
 40
6.0
 40
6.0
 40
6.0
 40
7.0
 40
7.0
 40
7.0
 40
8.0
 40
8.0
 40
8.0
 40
9.0
 40
9.0
 40
9.0
 40
10.0
 40
10.0
 40
10.0
 40
10.0
 10
16.896901448567707
 20
-5.4771850585937498
 30
0.0
 10
16.938242594401039
 20
-5.4771850585937498
 30
0.0
 10
16.979583740234375
 20
-5.4771850585937498
 30
0.0
 10
17.020924886067707
 20
-5.4771850585937498
 30
0.0
 10
17.062266031901039
 20
-5.4771850585937498
 30
0.0
 10
17.103607177734375
 20
-5.4771850585937498
 30
0.0
 10
17.144948323567707
 20
-5.4771850585937498
 30
0.0
 10
17.159762234157984
 20
-5.4771850585937498
 30
0.0
 10
17.174920654296873
 20
-5.4771850585937498
 30
0.0
 10
17.190079074435761
 20
-5.4771850585937498
 30
0.0
 10
17.20523749457465
 20
-5.4771850585937498
 30
0.0
 10
17.220395914713539
 20
-5.4771850585937498
 30
0.0
 10
17.235554334852431
 20
-5.4771850585937498
 30
0.0
 10
17.246923149956597
 20
-5.4771850585937498
 30
0.0
 10
17.258291965060764
 20
-5.4771850585937498
 30
0.0
 10
17.269316270616319
 20
-5.4771850585937498
 30
0.0
 10
17.281029595269096
 20
-5.4771850585937498
 30
0.0
 10
17.292053900824651
 20
-5.4771850585937498
 30
0.0
 10
17.303422715928818
 20
-5.4771850585937498
 30
0.0
 10
17.310657416449651
 20
-5.4771850585937498
 30
0.0
 10
17.318581136067706
 20
-5.4771850585937498
 30
0.0
 10
17.325471327039928
 20
-5.4771850585937498
 30
0.0
 10
17.333395046657984
 20
-5.4771850585937498
 30
0.0
 10
17.340629747178816
 20
-5.4771850585937498
 30
0.0
 10
17.348208957248261
 20
-5.4771850585937498
 30
0.0
 10
17.351998562282983
 20
-5.4771850585937498
 30
0.0
 10
17.355443657769097
 20
-5.4771850585937498
 30
0.0
 10
17.359577772352431
 20
-5.4771850585937498
 30
0.0
 10
17.363367377387153
 20
-5.4771850585937498
 30
0.0
 10
17.366812472873264
 20
-5.4771850585937498
 30
0.0
 10
17.370946587456597
 20
-5.4771850585937498
 30
0.0
  0
SPLINE
  5
B0
100
AcDbEntity
  8
1
 62
     7
100
AcDbSpline
210
0.0
220
0.0
230
1.0
 70
     8
 71
     3
 72
    11
 73
     7
 74
     0
 42
0.00000001
 43
0.00000001
 40
0.0
 40
0.0
 40
0.0
 40
0.0
 40
1.0
 40
1.0
 40
1.0
 40
2.0
 40
2.0
 40
2.0
 40
2.0
 10
12.164373779296874
 20
-5.4771850585937498
 30
0.0
 10
12.17574259440104
 20
-5.4771850585937498
 30
0.0
 10
12.187455919053818
 20
-5.4771850585937498
 30
0.0
 10
12.198824734157984
 20
-5.4771850585937498
 30
0.0
 10
12.210538058810762
 20
-5.4771850585937498
 30
0.0
 10
12.22225138346354
 20
-5.4771850585937498
 30
0.0
 10
12.233620198567706
 20
-5.4771850585937498
 30
0.0
  0
SPLINE
  5
AF
100
AcDbEntity
  8
1
 62
     7
100
AcDbSpline
210
0.0
220
0.0
230
1.0
 70
     8
 71
     3
 72
    23
 73
    19
 74
     0
 42
0.00000001
 43
0.00000001
 40
0.0
 40
0.0
 40
0.0
 40
0.0
 40
1.0
 40
1.0
 40
1.0
 40
2.0
 40
2.0
 40
2.0
 40
3.0
 40
3.0
 40
3.0
 40
4.0
 40
4.0
 40
4.0
 40
5.0
 40
5.0
 40
5.0
 40
6.0
 40
6.0
 40
6.0
 40
6.0
 10
12.741427273220484
 20
-5.4771850585937498
 30
0.0
 10
12.77381117078993
 20
-5.4771850585937498
 30
0.0
 10
12.805850558810763
 20
-5.4771850585937498
 30
0.0
 10
12.838578965928818
 20
-5.4771850585937498
 30
0.0
 10
12.870962863498264
 20
-5.4771850585937498
 30
0.0
 10
12.903691270616319
 20
-5.4771850585937498
 30
0.0
 10
12.936075168185763
 20
-5.4771850585937498
 30
0.0
 10
12.981550428602429
 20
-5.4771850585937498
 30
0.0
 10
13.026681179470485
 20
-5.4771850585937498
 30
0.0
 10
13.071811930338541
 20
-5.4771850585937498
 30
0.0
 10
13.116942681206597
 20
-5.4771850585937498
 30
0.0
 10
13.162073432074651
 20
-5.4771850585937498
 30
0.0
 10
13.207204182942707
 20
-5.4771850585937498
 30
0.0
 10
13.342940945095485
 20
-5.4771850585937498
 30
0.0
 10
13.479022216796874
 20
-5.4771850585937498
 30
0.0
 10
13.615103488498262
 20
-5.4771850585937498
 30
0.0
 10
13.751184760199651
 20
-5.4771850585937498
 30
0.0
 10
13.887610541449652
 20
-5.4771850585937498
 30
0.0
 10
14.023691813151041
 20
-5.4771850585937498
 30
0.0
  0
SPLINE
  5
AE
100
AcDbEntity
  8
1
 62
     7
100
AcDbSpline
210
0.0
220
0.0
230
1.0
 70
     8
 71
     3
 72
    23
 73
    19
 74
     0
 42
0.00000001
 43
0.00000001
 40
0.0
 40
0.0
 40
0.0
 40
0.0
 40
1.0
 40
1.0
 40
1.0
 40
2.0
 40
2.0
 40
2.0
 40
3.0
 40
3.0
 40
3.0
 40
4.0
 40
4.0
 40
4.0
 40
5.0
 40
5.0
 40
5.0
 40
6.0
 40
6.0
 40
6.0
 40
6.0
 10
8.50154825846354
 20
-5.4771850585937498
 30
0.0
 10
8.5053378634982639
 20
-5.4771850585937498
 30
0.0
 10
8.5091274685329861
 20
-5.4771850585937498
 30
0.0
 10
8.5125725640190968
 20
-5.4771850585937498
 30
0.0
 10
8.5163621690538189
 20
-5.4771850585937498
 30
0.0
 10
8.5201517740885411
 20
-5.4771850585937498
 30
0.0
 10
8.5239413791232632
 20
-5.4771850585937498
 30
0.0
 10
8.5297980414496521
 20
-5.4771850585937498
 30
0.0
 10
8.5359992133246525
 20
-5.4771850585937498
 30
0.0
 10
8.5418558756510414
 20
-5.4771850585937498
 30
0.0
 10
8.54805704752604
 20
-5.4771850585937498
 30
0.0
 10
8.5539137098524289
 20
-5.4771850585937498
 30
0.0
 10
8.5601148817274293
 20
-5.4771850585937498
 30
0.0
 10
8.5800964355468743
 20
-5.4771850585937498
 30
0.0
 10
8.6000779893663193
 20
-5.4771850585937498
 30
0.0
 10
8.6204040527343739
 20
-5.4771850585937498
 30
0.0
 10
8.6403856065538189
 20
-5.4771850585937498
 30
0.0
 10
8.6607116699218736
 20
-5.4771850585937498
 30
0.0
 10
8.6806932237413186
 20
-5.4771850585937498
 30
0.0
  0
LINE
  5
AD
100
AcDbEntity
  8
1
 62
     7
100
AcDbLine
 10
-17.651033
 20
4.782137
 30
0.0
 11
-8.880337
 21
0.705039
 31
0.0
  0
ENDBLK
  5
ED
100
AcDbEntity
  8
1
100
AcDbBlockEnd
  0
ENDSEC
  0
SECTION
  2
ENTITIES
  0
INSERT
  5
AB
100
AcDbEntity
  8
1
 62
     7
100
AcDbBlockReference
  2
AI9-BLK18
 10
101.093829
 20
209.747921
 30
0.0
  0
LINE
  5
A9
100
AcDbEntity
  8
1
 62
     7
100
AcDbLine
 10
108.635574
 20
210.650363
 30
0.0
 11
110.185178
 21
210.650363
 31
0.0
  0
LINE
  5
A8
100
AcDbEntity
  8
1
 62
     7
100
AcDbLine
 10
117.705821
 20
210.650363
 30
0.0
 11
119.395641
 21
210.650363
 31
0.0
  0
LINE
  5
A7
100
AcDbEntity
  8
1
 62
     7
100
AcDbLine
 10
108.659001
 20
209.183959
 30
0.0
 11
119.400808
 21
209.183959
 31
0.0
  0
POLYLINE
  5
A1
100
AcDbEntity
  8
1
 62
     7
100
AcDb2dPolyline
 66
     1
 10
0.0
 20
0.0
 30
0.0
 70
     1
  0
VERTEX
  5
A2
100
AcDbEntity
  8
1
 62
     7
100
AcDbVertex
100
AcDb2dVertex
 10
85.618891
 20
212.874517
 30
0.0
  0
VERTEX
  5
A3
100
AcDbEntity
  8
1
 62
     7
100
AcDbVertex
100
AcDb2dVertex
 10
85.846267
 20
212.874517
 30
0.0
  0
VERTEX
  5
A4
100
AcDbEntity
  8
1
 62
     7
100
AcDbVertex
100
AcDb2dVertex
 10
85.946175
 20
212.295052
 30
0.0
  0
VERTEX
  5
A5
100
AcDbEntity
  8
1
 62
     7
100
AcDbVertex
100
AcDb2dVertex
 10
85.829731
 20
212.168273
 30
0.0
  0
SEQEND
  5
A6
100
AcDbEntity
  8
1
 62
     7
  0
POLYLINE
  5
9C
100
AcDbEntity
  8
1
 62
     7
100
AcDb2dPolyline
 66
     1
 10
0.0
 20
0.0
 30
0.0
 70
     1
  0
VERTEX
  5
9D
100
AcDbEntity
  8
1
 62
     7
100
AcDbVertex
100
AcDb2dVertex
 10
86.090869
 20
212.425277
 30
0.0
  0
VERTEX
  5
9E
100
AcDbEntity
  8
1
 62
     7
100
AcDbVertex
100
AcDb2dVertex
 10
86.42401
 20
212.092308
 30
0.0
  0
VERTEX
  5
9F
100
AcDbEntity
  8
1
 62
     7
100
AcDbVertex
100
AcDb2dVertex
 10
86.06951
 20
211.641001
 30
0.0
  0
SEQEND
  5
A0
100
AcDbEntity
  8
1
 62
     7
  0
POLYLINE
  5
97
100
AcDbEntity
  8
1
 62
     7
100
AcDb2dPolyline
 66
     1
 10
0.0
 20
0.0
 30
0.0
 70
     1
  0
VERTEX
  5
98
100
AcDbEntity
  8
1
 62
     7
100
AcDbVertex
100
AcDb2dVertex
 10
87.083746
 20
210.699112
 30
0.0
  0
VERTEX
  5
99
100
AcDbEntity
  8
1
 62
     7
100
AcDbVertex
100
AcDb2dVertex
 10
86.747504
 20
211.028807
 30
0.0
  0
VERTEX
  5
9A
100
AcDbEntity
  8
1
 62
     7
100
AcDbVertex
100
AcDb2dVertex
 10
87.097871
 20
211.483388
 30
0.0
  0
SEQEND
  5
9B
100
AcDbEntity
  8
1
 62
     7
  0
POLYLINE
  5
91
100
AcDbEntity
  8
1
 62
     7
100
AcDb2dPolyline
 66
     1
 10
0.0
 20
0.0
 30
0.0
 70
     1
  0
VERTEX
  5
92
100
AcDbEntity
  8
1
 62
     7
100
AcDbVertex
100
AcDb2dVertex
 10
86.669817
 20
212.226667
 30
0.0
  0
VERTEX
  5
93
100
AcDbEntity
  8
1
 62
     7
100
AcDbVertex
100
AcDb2dVertex
 10
86.875834
 20
211.979654
 30
0.0
  0
VERTEX
  5
94
100
AcDbEntity
  8
1
 62
     7
100
AcDbVertex
100
AcDb2dVertex
 10
86.68756
 20
211.270653
 30
0.0
  0
VERTEX
  5
95
100
AcDbEntity
  8
1
 62
     7
100
AcDbVertex
100
AcDb2dVertex
 10
86.445542
 20
211.786211
 30
0.0
  0
SEQEND
  5
96
100
AcDbEntity
  8
1
 62
     7
  0
POLYLINE
  5
8B
100
AcDbEntity
  8
1
 62
     7
100
AcDb2dPolyline
 66
     1
 10
0.0
 20
0.0
 30
0.0
 70
     1
  0
VERTEX
  5
8C
100
AcDbEntity
  8
1
 62
     7
100
AcDbVertex
100
AcDb2dVertex
 10
86.256406
 20
211.466507
 30
0.0
  0
VERTEX
  5
8D
100
AcDbEntity
  8
1
 62
     7
100
AcDbVertex
100
AcDb2dVertex
 10
86.439168
 20
210.735974
 30
0.0
  0
VERTEX
  5
8E
100
AcDbEntity
  8
1
 62
     7
100
AcDbVertex
100
AcDb2dVertex
 10
86.604877
 20
210.918736
 30
0.0
  0
VERTEX
  5
8F
100
AcDbEntity
  8
1
 62
     7
100
AcDbVertex
100
AcDb2dVertex
 10
86.432967
 20
211.444975
 30
0.0
  0
SEQEND
  5
90
100
AcDbEntity
  8
1
 62
     7
  0
POLYLINE
  5
85
100
AcDbEntity
  8
1
 62
     7
100
AcDb2dPolyline
 66
     1
 10
0.0
 20
0.0
 30
0.0
 70
     1
  0
VERTEX
  5
86
100
AcDbEntity
  8
1
 62
     7
100
AcDbVertex
100
AcDb2dVertex
 10
86.612629
 20
210.55769
 30
0.0
  0
VERTEX
  5
87
100
AcDbEntity
  8
1
 62
     7
100
AcDbVertex
100
AcDb2dVertex
 10
86.822091
 20
210.719954
 30
0.0
  0
VERTEX
  5
88
100
AcDbEntity
  8
1
 62
     7
100
AcDbVertex
100
AcDb2dVertex
 10
86.999341
 20
210.108622
 30
0.0
  0
VERTEX
  5
89
100
AcDbEntity
  8
1
 62
     7
100
AcDbVertex
100
AcDb2dVertex
 10
86.805899
 20
210.097081
 30
0.0
  0
SEQEND
  5
8A
100
AcDbEntity
  8
1
 62
     7
  0
LINE
  5
83
100
AcDbEntity
  8
0
 62
     1
100
AcDbLine
 10
87.093392
 20
208.938151
 30
0.0
 11
88.813528
 21
211.961567
 31
0.0
  0
LINE
  5
82
100
AcDbEntity
  8
0
 62
     1
100
AcDbLine
 10
87.224306
 20
208.857019
 30
0.0
 11
88.948404
 21
211.888703
 31
0.0
  0
SPLINE
  5
81
100
AcDbEntity
  8
0
 62
     1
100
AcDbSpline
210
0.0
220
0.0
230
1.0
 70
     8
 71
     3
 72
    11
 73
     7
 74
     0
 42
0.00000001
 43
0.00000001
 40
0.0
 40
0.0
 40
0.0
 40
0.0
 40
1.0
 40
1.0
 40
1.0
 40
2.0
 40
2.0
 40
2.0
 40
2.0
 10
109.62603895399305
 20
212.55240071614583
 30
0.0
 10
109.62603895399305
 20
212.55240071614583
 30
0.0
 10
109.7207790798611
 20
209.70502929687498
 30
0.0
 10
114.01302354600693
 20
209.70502929687498
 30
0.0
 10
118.31043565538194
 20
209.70502929687498
 30
0.0
 10
118.31767035590276
 20
212.56704237196178
 30
0.0
 10
118.31767035590276
 20
212.56704237196178
 30
0.0
  0
SPLINE
  5
80
100
AcDbEntity
  8
0
 62
     7
100
AcDbSpline
210
0.0
220
0.0
230
1.0
 70
     8
 71
     3
 72
    17
 73
    13
 74
     0
 42
0.00000001
 43
0.00000001
 40
0.0
 40
0.0
 40
0.0
 40
0.0
 40
1.0
 40
1.0
 40
1.0
 40
2.0
 40
2.0
 40
2.0
 40
3.0
 40
3.0
 40
3.0
 40
4.0
 40
4.0
 40
4.0
 40
4.0
 10
109.56506076388888
 20
212.39082573784719
 30
0.0
 10
109.56506076388888
 20
212.39082573784719
 30
0.0
 10
110.05047471788194
 20
214.36762152777777
 30
0.0
 10
113.96617024739582
 20
214.36762152777777
 30
0.0
 10
117.95386827256944
 20
214.36762152777777
 30
0.0
 10
118.38106011284721
 20
212.40133327907984
 30
0.0
 10
118.38106011284721
 20
212.40133327907984
 30
0.0
 10
118.38106011284721
 20
212.40133327907984
 30
0.0
 10
118.97499457465277
 20
209.70502929687498
 30
0.0
 10
114.08778211805554
 20
209.70502929687498
 30
0.0
 10
108.73823784722221
 20
209.70502929687498
 30
0.0
 10
109.56506076388888
 20
212.39082573784719
 30
0.0
 10
109.56506076388888
 20
212.39082573784719
 30
0.0
  0
INSERT
  5
7C
100
AcDbEntity
  8
0
 62
     7
100
AcDbBlockReference
  2
AI9-BLK17
 10
110.903308
 20
212.448617
 30
0.0
  0
INSERT
  5
77
100
AcDbEntity
  8
0
 62
     7
100
AcDbBlockReference
  2
AI9-BLK16
 10
111.734954
 20
212.851952
 30
0.0
  0
INSERT
  5
72
100
AcDbEntity
  8
0
 62
     7
100
AcDbBlockReference
  2
AI9-BLK15
 10
113.115404
 20
213.134363
 30
0.0
  0
INSERT
  5
6D
100
AcDbEntity
  8
0
 62
     7
100
AcDbBlockReference
  2
AI9-BLK14
 10
114.468293
 20
213.188796
 30
0.0
  0
INSERT
  5
68
100
AcDbEntity
  8
0
 62
     7
100
AcDbBlockReference
  2
AI9-BLK13
 10
115.505611
 20
213.099999
 30
0.0
  0
INSERT
  5
63
100
AcDbEntity
  8
0
 62
     7
100
AcDbBlockReference
  2
AI9-BLK12
 10
116.364473
 20
212.747049
 30
0.0
  0
INSERT
  5
5E
100
AcDbEntity
  8
0
 62
     7
100
AcDbBlockReference
  2
AI9-BLK11
 10
116.96013
 20
212.519931
 30
0.0
  0
INSERT
  5
59
100
AcDbEntity
  8
0
 62
     7
100
AcDbBlockReference
  2
AI9-BLK10
 10
112.444299
 20
212.301253
 30
0.0
  0
INSERT
  5
54
100
AcDbEntity
  8
0
 62
     7
100
AcDbBlockReference
  2
AI9-BLK9
 10
111.500688
 20
211.704046
 30
0.0
  0
INSERT
  5
4F
100
AcDbEntity
  8
0
 62
     7
100
AcDbBlockReference
  2
AI9-BLK8
 10
112.38091
 20
210.885491
 30
0.0
  0
INSERT
  5
4A
100
AcDbEntity
  8
0
 62
     7
100
AcDbBlockReference
  2
AI9-BLK7
 10
113.210489
 20
211.987491
 30
0.0
  0
INSERT
  5
45
100
AcDbEntity
  8
0
 62
     7
100
AcDbBlockReference
  2
AI9-BLK6
 10
114.719268
 20
212.269731
 30
0.0
  0
INSERT
  5
40
100
AcDbEntity
  8
0
 62
     7
100
AcDbBlockReference
  2
AI9-BLK5
 10
115.475639
 20
211.823246
 30
0.0
  0
INSERT
  5
3B
100
AcDbEntity
  8
0
 62
     7
100
AcDbBlockReference
  2
AI9-BLK4
 10
116.158801
 20
211.260145
 30
0.0
  0
INSERT
  5
36
100
AcDbEntity
  8
0
 62
     7
100
AcDbBlockReference
  2
AI9-BLK3
 10
114.579742
 20
211.191071
 30
0.0
  0
INSERT
  5
31
100
AcDbEntity
  8
0
 62
     7
100
AcDbBlockReference
  2
AI9-BLK2
 10
113.228231
 20
210.516005
 30
0.0
  0
INSERT
  5
2C
100
AcDbEntity
  8
0
 62
     7
100
AcDbBlockReference
  2
AI9-BLK1
 10
114.804362
 20
210.457008
 30
0.0
  0
SPLINE
  5
2A
100
AcDbEntity
  8
0
 62
     7
100
AcDbSpline
210
0.0
220
0.0
230
1.0
 70
     8
 71
     3
 72
    11
 73
     7
 74
     0
 42
0.00000001
 43
0.00000001
 40
0.0
 40
0.0
 40
0.0
 40
0.0
 40
1.0
 40
1.0
 40
1.0
 40
2.0
 40
2.0
 40
2.0
 40
2.0
 10
92.649297417534711
 20
209.82043999565971
 30
0.0
 10
92.649297417534711
 20
209.82043999565971
 30
0.0
 10
87.105622016059016
 20
208.83342013888887
 30
0.0
 10
87.105622016059016
 20
208.83342013888887
 30
0.0
 10
87.105622016059016
 20
208.83342013888887
 30
0.0
 10
85.026506890190959
 20
213.69823947482638
 30
0.0
 10
85.026506890190959
 20
213.69823947482638
 30
0.0
  0
ENDSEC
  0
SECTION
  2
OBJECTS
  0
DICTIONARY
  5
19
100
AcDbDictionary
280
     0
281
     1
  3
ACAD_GROUP
350
1A
  3
ACAD_MLINESTYLE
350
1B
  3
ACAD_LAYOUT
350
1E
  3
ACAD_PLOTSETTINGS
350
22
  3
ACAD_PLOTSTYLENAME
350
1F
  3
ACAD_WIPEOUT_VARS
350
23
  0
DICTIONARY
  5
1A
102
{ACAD_REACTORS
330
19
102
}
100
AcDbDictionary
280
     0
281
     1
  0
DICTIONARY
  5
1B
102
{ACAD_REACTORS
330
19
102
}
100
AcDbDictionary
280
     0
281
     1
  3
Standard
350
1C
  0
MLINESTYLE
  5
1C
102
{ACAD_REACTORS
330
1B
102
}
100
AcDbMlineStyle
  2
Standard
 70
     0
  3

 62
     0
 51
90.0
 52
90.0
 71
     2
 49
0.5
 62
   256
  6
BYLAYER
 49
-0.5
 62
   256
  6
BYLAYER
  0
ACDBDICTIONARYWDFLT
  5
1F
102
{ACAD_REACTORS
330
19
102
}
100
AcDbDictionary
281
     1
  3
Normal
350
1D
100
AcDbDictionaryWithDefault
340
1D
  0
ACDBPLACEHOLDER
  5
1D
102
{ACAD_REACTORS
330
1F
102
}
  0
LAYOUT
  5
20
102
{ACAD_REACTORS
330
1E
102
}
100
AcDbPlotSettings
  1

  2

  4

  6

 40
0.0
 41
0.0
 42
0.0
 43
0.0
 44
0.0
 45
0.0
 46
0.0
 47
0.0
 48
0.0
 49
0.0
140
0.0
141
0.0
142
1.0
143
1.0
 70
  1024
 72
     0
 73
     0
 74
     0
  7

 75
     0
147
1.0
148
0.0
149
0.0
100
AcDbLayout
  1
Model
 70
     0
 71
     0
 10
0.0
 20
0.0
 11
0.0
 21
0.0
 12
0.0
 22
0.0
 32
0.0
 14
0.0
 24
0.0
 34
0.0
 15
0.0
 25
0.0
 35
0.0
146
0.0
 13
0.0
 23
0.0
 33
0.0
 16
0.0
 26
0.0
 36
0.0
 17
0.0
 27
0.0
 37
0.0
 76
     0
330
A
331
0
345
0
346
0
  0
LAYOUT
  5
21
102
{ACAD_REACTORS
330
1E
102
}
100
AcDbPlotSettings
  1

  2

  4

  6

 40
0.0
 41
0.0
 42
0.0
 43
0.0
 44
0.0
 45
0.0
 46
0.0
 47
0.0
 48
0.0
 49
0.0
140
0.0
141
0.0
142
1.0
143
1.0
 70
     0
 72
     0
 73
     0
 74
     0
  7

 75
     0
147
1.0
148
0.0
149
0.0
100
AcDbLayout
  1
Layout1
 70
     0
 71
     0
 10
0.0
 20
0.0
 11
0.0
 21
0.0
 12
0.0
 22
0.0
 32
0.0
 14
0.0
 24
0.0
 34
0.0
 15
0.0
 25
0.0
 35
0.0
146
0.0
 13
0.0
 23
0.0
 33
0.0
 16
0.0
 26
0.0
 36
0.0
 17
0.0
 27
0.0
 37
0.0
 76
     0
330
B
331
0
345
0
346
0
  0
DICTIONARY
  5
1E
102
{ACAD_REACTORS
330
19
102
}
100
AcDbDictionary
280
     0
281
     1
  3
Layout1
350
21
  3
Model
350
20
  0
DICTIONARY
  5
22
102
{ACAD_REACTORS
330
19
102
}
100
AcDbDictionary
280
     0
281
     1
  0
WIPEOUTVARIABLES
  5
23
100
AcDbWipeoutVariables
 70
     1
  0
ENDSEC
  0
EOF
