  0
SECTION
  2
HEADER
  9
$ACADVER
  1
AC1015
  9
$ACADMAINTVER
 70
     6
  9
$DWGCODEPAGE
  3
ANSI_1252
  9
$INSBASE
 10
0.0
 20
0.0
 30
0.0
  9
$EXTMIN
 10
-8605.53516999006
 20
-5412.698820330841
 30
0.0
  9
$EXTMAX
 10
6313.46378641344
 20
-3014.698820330838
 30
0.0
  9
$LIMMIN
 10
0.0
 20
0.0
  9
$LIMMAX
 10
12.0
 20
9.0
  9
$ORTHOMODE
 70
     0
  9
$REGENMODE
 70
     1
  9
$FILLMODE
 70
     1
  9
$QTEXTMODE
 70
     0
  9
$MIRRTEXT
 70
     1
  9
$LTSCALE
 40
1.0
  9
$ATTMODE
 70
     1
  9
$TEXTSIZE
 40
0.2
  9
$TRACEWID
 40
0.05
  9
$TEXTSTYLE
  7
Standard
  9
$CLAYER
  8
0
  9
$CELTYPE
  6
ByLayer
  9
$CECOLOR
 62
   256
  9
$CELTSCALE
 40
1.0
  9
$DISPSILH
 70
     0
  9
$DIMSCALE
 40
1.0
  9
$DIMASZ
 40
0.18
  9
$DIMEXO
 40
0.0625
  9
$DIMDLI
 40
0.38
  9
$DIMRND
 40
0.0
  9
$DIMDLE
 40
0.0
  9
$DIMEXE
 40
0.18
  9
$DIMTP
 40
0.0
  9
$DIMTM
 40
0.0
  9
$DIMTXT
 40
0.18
  9
$DIMCEN
 40
0.09
  9
$DIMTSZ
 40
0.0
  9
$DIMTOL
 70
     0
  9
$DIMLIM
 70
     0
  9
$DIMTIH
 70
     1
  9
$DIMTOH
 70
     1
  9
$DIMSE1
 70
     0
  9
$DIMSE2
 70
     0
  9
$DIMTAD
 70
     0
  9
$DIMZIN
 70
     0
  9
$DIMBLK
  1

  9
$DIMASO
 70
     1
  9
$DIMSHO
 70
     1
  9
$DIMPOST
  1

  9
$DIMAPOST
  1

  9
$DIMALT
 70
     0
  9
$DIMALTD
 70
     2
  9
$DIMALTF
 40
25.4
  9
$DIMLFAC
 40
1.0
  9
$DIMTOFL
 70
     0
  9
$DIMTVP
 40
0.0
  9
$DIMTIX
 70
     0
  9
$DIMSOXD
 70
     0
  9
$DIMSAH
 70
     0
  9
$DIMBLK1
  1

  9
$DIMBLK2
  1

  9
$DIMSTYLE
  2
Standard
  9
$DIMCLRD
 70
     0
  9
$DIMCLRE
 70
     0
  9
$DIMCLRT
 70
     0
  9
$DIMTFAC
 40
1.0
  9
$DIMGAP
 40
0.09
  9
$DIMJUST
 70
     0
  9
$DIMSD1
 70
     0
  9
$DIMSD2
 70
     0
  9
$DIMTOLJ
 70
     1
  9
$DIMTZIN
 70
     0
  9
$DIMALTZ
 70
     0
  9
$DIMALTTZ
 70
     0
  9
$DIMUPT
 70
     0
  9
$DIMDEC
 70
     4
  9
$DIMTDEC
 70
     4
  9
$DIMALTU
 70
     2
  9
$DIMALTTD
 70
     2
  9
$DIMTXSTY
  7
Standard
  9
$DIMAUNIT
 70
     0
  9
$DIMADEC
 70
     0
  9
$DIMALTRND
 40
0.0
  9
$DIMAZIN
 70
     0
  9
$DIMDSEP
 70
    46
  9
$DIMATFIT
 70
     3
  9
$DIMFRAC
 70
     0
  9
$DIMLDRBLK
  1

  9
$DIMLUNIT
 70
     2
  9
$DIMLWD
 70
    -2
  9
$DIMLWE
 70
    -2
  9
$DIMTMOVE
 70
     0
  9
$LUNITS
 70
     2
  9
$LUPREC
 70
     4
  9
$SKETCHINC
 40
0.1
  9
$FILLETRAD
 40
0.5
  9
$AUNITS
 70
     0
  9
$AUPREC
 70
     0
  9
$MENU
  1
.
  9
$ELEVATION
 40
0.0
  9
$PELEVATION
 40
0.0
  9
$THICKNESS
 40
0.0
  9
$LIMCHECK
 70
     0
  9
$CHAMFERA
 40
0.5
  9
$CHAMFERB
 40
0.5
  9
$CHAMFERC
 40
1.0
  9
$CHAMFERD
 40
0.0
  9
$SKPOLY
 70
     0
  9
$TDCREATE
 40
2456968.565254792
  9
$TDUCREATE
 40
2456968.523588125
  9
$TDUPDATE
 40
2456968.565254803
  9
$TDUUPDATE
 40
2456968.523588137
  9
$TDINDWG
 40
0.0000000116
  9
$TDUSRTIMER
 40
0.0000000116
  9
$USRTIMER
 70
     1
  9
$ANGBASE
 50
0.0
  9
$ANGDIR
 70
     0
  9
$PDMODE
 70
     0
  9
$PDSIZE
 40
0.0
  9
$PLINEWID
 40
0.0
  9
$SPLFRAME
 70
     0
  9
$SPLINETYPE
 70
     6
  9
$SPLINESEGS
 70
     8
  9
$HANDSEED
  5
31A
  9
$SURFTAB1
 70
     6
  9
$SURFTAB2
 70
     6
  9
$SURFTYPE
 70
     6
  9
$SURFU
 70
     6
  9
$SURFV
 70
     6
  9
$UCSBASE
  2

  9
$UCSNAME
  2

  9
$UCSORG
 10
0.0
 20
0.0
 30
0.0
  9
$UCSXDIR
 10
1.0
 20
0.0
 30
0.0
  9
$UCSYDIR
 10
0.0
 20
1.0
 30
0.0
  9
$UCSORTHOREF
  2

  9
$UCSORTHOVIEW
 70
     0
  9
$UCSORGTOP
 10
0.0
 20
0.0
 30
0.0
  9
$UCSORGBOTTOM
 10
0.0
 20
0.0
 30
0.0
  9
$UCSORGLEFT
 10
0.0
 20
0.0
 30
0.0
  9
$UCSORGRIGHT
 10
0.0
 20
0.0
 30
0.0
  9
$UCSORGFRONT
 10
0.0
 20
0.0
 30
0.0
  9
$UCSORGBACK
 10
0.0
 20
0.0
 30
0.0
  9
$PUCSBASE
  2

  9
$PUCSNAME
  2

  9
$PUCSORG
 10
0.0
 20
0.0
 30
0.0
  9
$PUCSXDIR
 10
1.0
 20
0.0
 30
0.0
  9
$PUCSYDIR
 10
0.0
 20
1.0
 30
0.0
  9
$PUCSORTHOREF
  2

  9
$PUCSORTHOVIEW
 70
     0
  9
$PUCSORGTOP
 10
0.0
 20
0.0
 30
0.0
  9
$PUCSORGBOTTOM
 10
0.0
 20
0.0
 30
0.0
  9
$PUCSORGLEFT
 10
0.0
 20
0.0
 30
0.0
  9
$PUCSORGRIGHT
 10
0.0
 20
0.0
 30
0.0
  9
$PUCSORGFRONT
 10
0.0
 20
0.0
 30
0.0
  9
$PUCSORGBACK
 10
0.0
 20
0.0
 30
0.0
  9
$USERI1
 70
     0
  9
$USERI2
 70
     0
  9
$USERI3
 70
     0
  9
$USERI4
 70
     0
  9
$USERI5
 70
     0
  9
$USERR1
 40
17.0
  9
$USERR2
 40
0.0
  9
$USERR3
 40
0.0
  9
$USERR4
 40
0.0
  9
$USERR5
 40
0.0
  9
$WORLDVIEW
 70
     1
  9
$SHADEDGE
 70
     3
  9
$SHADEDIF
 70
    70
  9
$TILEMODE
 70
     1
  9
$MAXACTVP
 70
    64
  9
$PINSBASE
 10
0.0
 20
0.0
 30
0.0
  9
$PLIMCHECK
 70
     0
  9
$PEXTMIN
 10
1.00000000000000E+20
 20
1.00000000000000E+20
 30
1.00000000000000E+20
  9
$PEXTMAX
 10
-1.00000000000000E+20
 20
-1.00000000000000E+20
 30
-1.00000000000000E+20
  9
$PLIMMIN
 10
0.0
 20
0.0
  9
$PLIMMAX
 10
12.0
 20
9.0
  9
$UNITMODE
 70
     0
  9
$VISRETAIN
 70
     1
  9
$PLINEGEN
 70
     0
  9
$PSLTSCALE
 70
     1
  9
$TREEDEPTH
 70
  3020
  9
$CMLSTYLE
  2
Standard
  9
$CMLJUST
 70
     0
  9
$CMLSCALE
 40
1.0
  9
$PROXYGRAPHICS
 70
     1
  9
$MEASUREMENT
 70
     1
  9
$CELWEIGHT
370
    -1
  9
$ENDCAPS
280
     0
  9
$JOINSTYLE
280
     0
  9
$LWDISPLAY
290
     0
  9
$INSUNITS
 70
     1
  9
$HYPERLINKBASE
  1

  9
$STYLESHEET
  1

  9
$XEDIT
290
     1
  9
$CEPSNTYPE
380
     0
  9
$PSTYLEMODE
290
     1
  9
$FINGERPRINTGUID
  2
{B648226C-175F-41E9-B5ED-08B55249B39B}
  9
$VERSIONGUID
  2
{FAEB1C32-E019-11D5-929B-00C0DF256EC4}
  9
$EXTNAMES
290
     1
  9
$PSVPSCALE
 40
0.0
  9
$OLESTARTUP
290
     0
  0
ENDSEC
  0
SECTION
  2
CLASSES
  0
CLASS
  1
ACDBDICTIONARYWDFLT
  2
AcDbDictionaryWithDefault
  3
ObjectDBX Classes
 90
        0
280
     0
281
     0
  0
CLASS
  1
VISUALSTYLE
  2
AcDbVisualStyle
  3
ObjectDBX Classes
 90
     4095
280
     0
281
     0
  0
CLASS
  1
MATERIAL
  2
AcDbMaterial
  3
ObjectDBX Classes
 90
     1153
280
     0
281
     0
  0
CLASS
  1

  2
exOdDbSpline
  3

 90
        0
280
     0
281
     1
  0
CLASS
  1
DICTIONARYVAR
  2
AcDbDictionaryVar
  3
ObjectDBX Classes
 90
        0
280
     0
281
     0
  0
CLASS
  1
ACDBPLACEHOLDER
  2
AcDbPlaceHolder
  3
ObjectDBX Classes
 90
        0
280
     0
281
     0
  0
CLASS
  1
LAYOUT
  2
AcDbLayout
  3
ObjectDBX Classes
 90
        0
280
     0
281
     0
  0
ENDSEC
  0
SECTION
  2
TABLES
  0
TABLE
  2
VPORT
  5
8
330
0
100
AcDbSymbolTable
 70
     1
  0
VPORT
  5
29
330
8
100
AcDbSymbolTableRecord
100
AcDbViewportTableRecord
  2
*Active
 70
     0
 10
0.0
 20
0.0
 11
1.0
 21
1.0
 12
-1146.03569178831
 22
-4213.698820330839
 13
0.0
 23
0.0
 14
0.5
 24
0.5
 15
0.5
 25
0.5
 16
0.0
 26
0.0
 36
1.0
 17
0.0
 27
0.0
 37
0.0
 40
10239.6694787126
 41
1.60267857142857
 42
50.0
 43
0.0
 44
0.0
 50
0.0
 51
0.0
 71
     0
 72
   100
 73
     1
 74
     3
 75
     0
 76
     0
 77
     0
 78
     0
281
     0
 65
     1
110
0.0
120
0.0
130
0.0
111
1.0
121
0.0
131
0.0
112
0.0
122
1.0
132
0.0
 79
     0
146
0.0
  0
ENDTAB
  0
TABLE
  2
LTYPE
  5
5
330
0
100
AcDbSymbolTable
 70
     8
  0
LTYPE
  5
14
330
5
100
AcDbSymbolTableRecord
100
AcDbLinetypeTableRecord
  2
ByBlock
 70
     0
  3

 72
    65
 73
     0
 40
0.0
  0
LTYPE
  5
15
330
5
100
AcDbSymbolTableRecord
100
AcDbLinetypeTableRecord
  2
ByLayer
 70
     0
  3

 72
    65
 73
     0
 40
0.0
  0
LTYPE
  5
16
330
5
100
AcDbSymbolTableRecord
100
AcDbLinetypeTableRecord
  2
Continuous
 70
     0
  3
Solid line
 72
    65
 73
     0
 40
0.0
  0
LTYPE
  5
3F
330
5
100
AcDbSymbolTableRecord
100
AcDbLinetypeTableRecord
  2
DASHED
 70
     0
  3
Dashed
 72
    65
 73
     2
 40
15.0
 49
7.0
 74
     0
 49
-8.0
 74
     0
  0
LTYPE
  5
40
330
5
100
AcDbSymbolTableRecord
100
AcDbLinetypeTableRecord
  2
DOTTED
 70
     0
  3
Dotted
 72
    65
 73
     2
 40
1.0
 49
0.0
 74
     0
 49
-1.0
 74
     0
  0
LTYPE
  5
41
330
5
100
AcDbSymbolTableRecord
100
AcDbLinetypeTableRecord
  2
DOT_CENTER
 70
     0
  3
Dot_Center
 72
    65
 73
     4
 40
14.0
 49
12.0
 74
     0
 49
-1.0
 74
     0
 49
0.0
 74
     0
 49
-1.0
 74
     0
  0
LTYPE
  5
42
330
5
100
AcDbSymbolTableRecord
100
AcDbLinetypeTableRecord
  2
LONG_DASHED
 70
     0
  3
Long_Dashed
 72
    65
 73
     2
 40
15.0
 49
10.0
 74
     0
 49
-5.0
 74
     0
  0
LTYPE
  5
43
330
5
100
AcDbSymbolTableRecord
100
AcDbLinetypeTableRecord
  2
DASH_CENTER
 70
     0
  3
Dash_Center
 72
    65
 73
     4
 40
14.0
 49
11.0
 74
     0
 49
-1.0
 74
     0
 49
1.0
 74
     0
 49
-1.0
 74
     0
  0
LTYPE
  5
44
330
5
100
AcDbSymbolTableRecord
100
AcDbLinetypeTableRecord
  2
PHANTOM
 70
     0
  3
Phantom
 72
    65
 73
     6
 40
13.0
 49
10.0
 74
     0
 49
-1.0
 74
     0
 49
0.0
 74
     0
 49
-1.0
 74
     0
 49
0.0
 74
     0
 49
-1.0
 74
     0
  0
LTYPE
  5
45
330
5
100
AcDbSymbolTableRecord
100
AcDbLinetypeTableRecord
  2
CENTER_DASH_DASH
 70
     0
  3
Center_Dash_Dash
 72
    65
 73
     6
 40
14.0
 49
9.0
 74
     0
 49
-1.0
 74
     0
 49
1.0
 74
     0
 49
-1.0
 74
     0
 49
1.0
 74
     0
 49
-1.0
 74
     0
  0
ENDTAB
  0
TABLE
  2
LAYER
  5
2
330
0
100
AcDbSymbolTable
 70
     2
  0
LAYER
  5
10
330
2
100
AcDbSymbolTableRecord
100
AcDbLayerTableRecord
  2
0
 70
     0
 62
     7
  6
Continuous
370
    -3
390
F
  0
LAYER
  5
46
330
2
100
AcDbSymbolTableRecord
100
AcDbLayerTableRecord
  2
1
 70
     0
 62
     7
  6
Continuous
370
    -3
390
F
  0
ENDTAB
  0
TABLE
  2
STYLE
  5
3
330
0
100
AcDbSymbolTable
 70
     1
  0
STYLE
  5
11
330
3
100
AcDbSymbolTableRecord
100
AcDbTextStyleTableRecord
  2
Standard
 70
     0
 40
0.0
 41
1.0
 50
0.0
 71
     0
 42
0.2
  3
txt
  4

  0
ENDTAB
  0
TABLE
  2
VIEW
  5
6
330
0
100
AcDbSymbolTable
 70
     0
  0
ENDTAB
  0
TABLE
  2
UCS
  5
7
330
0
100
AcDbSymbolTable
 70
     0
  0
ENDTAB
  0
TABLE
  2
APPID
  5
9
330
0
100
AcDbSymbolTable
 70
     1
  0
APPID
  5
12
330
9
100
AcDbSymbolTableRecord
100
AcDbRegAppTableRecord
  2
ACAD
 70
     0
  0
ENDTAB
  0
TABLE
  2
DIMSTYLE
  5
A
330
0
100
AcDbSymbolTable
 70
     1
100
AcDbDimStyleTable
  0
DIMSTYLE
105
27
330
A
100
AcDbSymbolTableRecord
100
AcDbDimStyleTableRecord
  2
Standard
 70
     0
340
11
  0
ENDTAB
  0
TABLE
  2
BLOCK_RECORD
  5
1
330
0
100
AcDbSymbolTable
 70
     1
  0
BLOCK_RECORD
  5
1F
330
1
100
AcDbSymbolTableRecord
100
AcDbBlockTableRecord
  2
*Model_Space
340
22
  0
BLOCK_RECORD
  5
1B
330
1
100
AcDbSymbolTableRecord
100
AcDbBlockTableRecord
  2
*Paper_Space
340
1E
  0
BLOCK_RECORD
  5
23
330
1
100
AcDbSymbolTableRecord
100
AcDbBlockTableRecord
  2
*Paper_Space0
340
26
  0
ENDTAB
  0
ENDSEC
  0
SECTION
  2
BLOCKS
  0
BLOCK
  5
20
330
1F
100
AcDbEntity
  8
0
100
AcDbBlockBegin
  2
*Model_Space
 70
     0
 10
0.0
 20
0.0
 30
0.0
  3
*Model_Space
  1

  0
ENDBLK
  5
21
330
1F
100
AcDbEntity
  8
0
100
AcDbBlockEnd
  0
BLOCK
  5
1C
330
1B
100
AcDbEntity
 67
     1
  8
0
100
AcDbBlockBegin
  2
*Paper_Space
 70
     0
 10
0.0
 20
0.0
 30
0.0
  3
*Paper_Space
  1

  0
ENDBLK
  5
1D
330
1B
100
AcDbEntity
 67
     1
  8
0
100
AcDbBlockEnd
  0
BLOCK
  5
24
330
23
100
AcDbEntity
  8
0
100
AcDbBlockBegin
  2
*Paper_Space0
 70
     0
 10
0.0
 20
0.0
 30
0.0
  3
*Paper_Space0
  1

  0
ENDBLK
  5
25
330
23
100
AcDbEntity
  8
0
100
AcDbBlockEnd
  0
ENDSEC
  0
SECTION
  2
ENTITIES
  0
LINE
  5
47
330
1F
100
AcDbEntity
  8
1
  6
Continuous
 62
     7
100
AcDbLine
 10
5143.463786304118
 20
-3041.698820330849
 30
0.0
 11
6283.463785996967
 21
-3041.698820330849
 31
0.0
  0
LINE
  5
48
330
1F
100
AcDbEntity
  8
1
  6
Continuous
 62
     5
100
AcDbLine
 10
6283.463785996967
 20
-3041.698820330849
 30
0.0
 11
6313.429788413421
 21
-3041.698820330847
 31
0.0
  0
LINE
  5
49
330
1F
100
AcDbEntity
  8
1
  6
Continuous
 62
     7
100
AcDbLine
 10
983.4977772285192
 20
-3041.698820330849
 30
0.0
 11
1883.497777228519
 21
-3041.698820330849
 31
0.0
  0
LINE
  5
4A
330
1F
100
AcDbEntity
  8
1
  6
Continuous
 62
     5
100
AcDbLine
 10
1883.497777228519
 20
-3041.698820330849
 30
0.0
 11
1913.463779644973
 21
-3041.698820330847
 31
0.0
  0
LINE
  5
4B
330
1F
100
AcDbEntity
  8
1
  6
Continuous
 62
     5
100
AcDbLine
 10
-2276.46823317251
 20
-3041.698820330849
 30
0.0
 11
-2246.502230756057
 21
-3041.698820330847
 31
0.0
  0
LINE
  5
4C
330
1F
100
AcDbEntity
  8
1
  6
Continuous
 62
     7
100
AcDbLine
 10
-3176.46823317251
 20
-3041.698820330849
 30
0.0
 11
-2276.46823317251
 21
-3041.698820330849
 31
0.0
  0
LINE
  5
4D
330
1F
100
AcDbEntity
  8
1
  6
Continuous
 62
     5
100
AcDbLine
 10
-6195.535170406534
 20
-3041.698820330849
 30
0.0
 11
-6165.56916799008
 21
-3041.698820330847
 31
0.0
  0
LINE
  5
4E
330
1F
100
AcDbEntity
  8
1
  6
Continuous
 62
     7
100
AcDbLine
 10
-6615.535170099382
 20
-3041.698820330849
 30
0.0
 11
-6195.535170406534
 21
-3041.698820330849
 31
0.0
  0
LINE
  5
4F
330
1F
100
AcDbEntity
  8
1
  6
Continuous
 62
     5
100
AcDbLine
 10
4083.497783996986
 20
-3041.698820330841
 30
0.0
 11
4112.03684647802
 21
-3041.698820330839
 31
0.0
  0
LINE
  5
50
330
1F
100
AcDbEntity
  8
1
  6
Continuous
 62
     7
100
AcDbLine
 10
2943.463785996967
 20
-3041.698820330841
 30
0.0
 11
4083.497783996986
 21
-3041.698820330841
 31
0.0
  0
LINE
  5
51
330
1F
100
AcDbEntity
  8
1
  6
Continuous
 62
     5
100
AcDbLine
 10
-76.46822507861316
 20
-3041.698820330841
 30
0.0
 11
-47.92916259757794
 21
-3041.698820330839
 31
0.0
  0
LINE
  5
52
330
1F
100
AcDbEntity
  8
1
  6
Continuous
 62
     7
100
AcDbLine
 10
-1216.502223078632
 20
-3041.698820330841
 30
0.0
 11
-76.46822507861316
 21
-3041.698820330841
 31
0.0
  0
LINE
  5
53
330
1F
100
AcDbEntity
  8
1
  6
Continuous
 62
     5
100
AcDbLine
 10
-4236.468233479662
 20
-3041.698820330841
 30
0.0
 11
-4207.929170998626
 21
-3041.698820330839
 31
0.0
  0
LINE
  5
54
330
1F
100
AcDbEntity
  8
1
  6
Continuous
 62
     7
100
AcDbLine
 10
-5136.468233479662
 20
-3041.698820330841
 30
0.0
 11
-4236.468233479662
 21
-3041.698820330841
 31
0.0
  0
LINE
  5
55
330
1F
100
AcDbEntity
  8
1
  6
Continuous
 62
     5
100
AcDbLine
 10
-7675.535170406534
 20
-3041.698820330841
 30
0.0
 11
-7646.996107925499
 21
-3041.698820330839
 31
0.0
  0
LINE
  5
56
330
1F
100
AcDbEntity
  8
1
  6
Continuous
 62
     7
100
AcDbLine
 10
-8575.535170406534
 20
-3041.698820330841
 30
0.0
 11
-7675.535170406534
 21
-3041.698820330841
 31
0.0
  0
LINE
  5
57
330
1F
100
AcDbEntity
  8
0
  6
Continuous
 62
     7
100
AcDbLine
 10
6283.463785996967
 20
-3041.698820330849
 30
0.0
 11
6283.463785996967
 21
-3022.698820330849
 31
0.0
  0
LINE
  5
58
330
1F
100
AcDbEntity
  8
0
  6
Continuous
 62
     7
100
AcDbLine
 10
6312.46378641344
 20
-3022.698820330849
 30
0.0
 11
6313.46378641344
 21
-3021.698820330849
 31
0.0
  0
LINE
  5
59
330
1F
100
AcDbEntity
  8
0
  6
Continuous
 62
     7
100
AcDbLine
 10
6312.46378641344
 20
-3014.698820330849
 30
0.0
 11
6313.46378641344
 21
-3015.698820330849
 31
0.0
  0
LINE
  5
5A
330
1F
100
AcDbEntity
  8
0
  6
Continuous
 62
     7
100
AcDbLine
 10
6313.46378641344
 20
-3015.698820330849
 30
0.0
 11
6313.46378641344
 21
-3021.698820330849
 31
0.0
  0
LINE
  5
5B
330
1F
100
AcDbEntity
  8
0
  6
Continuous
 62
     7
100
AcDbLine
 10
6312.46378641344
 20
-3022.698820330849
 30
0.0
 11
6313.46378641344
 21
-3021.698820330849
 31
0.0
  0
LINE
  5
5C
330
1F
100
AcDbEntity
  8
0
  6
Continuous
 62
     7
100
AcDbLine
 10
6312.46378641344
 20
-3014.698820330849
 30
0.0
 11
6313.46378641344
 21
-3015.698820330849
 31
0.0
  0
LINE
  5
5D
330
1F
100
AcDbEntity
  8
0
  6
Continuous
 62
     7
100
AcDbLine
 10
6313.46378641344
 20
-3015.698820330849
 30
0.0
 11
6313.46378641344
 21
-3021.698820330849
 31
0.0
  0
LINE
  5
5E
330
1F
100
AcDbEntity
  8
0
  6
Continuous
 62
     5
100
AcDbLine
 10
6304.025665053611
 20
-3207.698820330847
 30
0.0
 11
6304.192113560433
 21
-3207.698820330847
 31
0.0
  0
LINE
  5
5F
330
1F
100
AcDbEntity
  8
0
  6
Continuous
 62
     5
100
AcDbLine
 10
6300.477826191163
 20
-3207.698820330847
 30
0.0
 11
6304.025665053611
 21
-3207.698820330847
 31
0.0
  0
LINE
  5
60
330
1F
100
AcDbEntity
  8
0
  6
Continuous
 62
     5
100
AcDbLine
 10
6290.430284324071
 20
-3207.698820330847
 30
0.0
 11
6290.430284324071
 21
-3064.698324420197
 31
0.0
  0
LINE
  5
61
330
1F
100
AcDbEntity
  8
0
  6
Continuous
 62
     5
100
AcDbLine
 10
6290.430284324071
 20
-3207.698820330847
 30
0.0
 11
6293.482682847473
 21
-3207.698820330847
 31
0.0
  0
LINE
  5
62
330
1F
100
AcDbEntity
  8
0
  6
Continuous
 62
     5
100
AcDbLine
 10
6305.21481956044
 20
-3207.698820330849
 30
0.0
 11
6308.180003156645
 21
-3207.698820330849
 31
0.0
  0
LINE
  5
63
330
1F
100
AcDbEntity
  8
0
  6
Continuous
 62
     5
100
AcDbLine
 10
6312.763324375856
 20
-3207.698820351186
 30
0.0
 11
6313.429788413421
 21
-3207.698820330847
 31
0.0
  0
LINE
  5
64
330
1F
100
AcDbEntity
  8
0
  6
Continuous
 62
     5
100
AcDbLine
 10
6312.536082246756
 20
-3207.698820330847
 30
0.0
 11
6312.763324375856
 21
-3207.698820351186
 31
0.0
  0
LINE
  5
65
330
1F
100
AcDbEntity
  8
0
  6
Continuous
 62
     5
100
AcDbLine
 10
6310.179993197044
 20
-3207.698820330847
 30
0.0
 11
6312.536082246756
 21
-3207.698820330847
 31
0.0
  0
LINE
  5
66
330
1F
100
AcDbEntity
  8
0
  6
Continuous
 62
     5
100
AcDbLine
 10
6309.629502310855
 20
-3207.698820330847
 30
0.0
 11
6310.179993197044
 21
-3207.698820330847
 31
0.0
  0
LINE
  5
67
330
1F
100
AcDbEntity
  8
0
  6
Continuous
 62
     5
100
AcDbLine
 10
6308.429788413421
 20
-3207.698820330847
 30
0.0
 11
6309.379710751906
 21
-3207.698820330847
 31
0.0
  0
LINE
  5
68
330
1F
100
AcDbEntity
  8
0
  6
Continuous
 62
     5
100
AcDbLine
 10
6309.379710751906
 20
-3207.698820330847
 30
0.0
 11
6309.629502310855
 21
-3207.698820330847
 31
0.0
  0
LINE
  5
69
330
1F
100
AcDbEntity
  8
0
  6
Continuous
 62
     5
100
AcDbLine
 10
6304.192113560433
 20
-3207.698820330847
 30
0.0
 11
6305.21481956044
 21
-3207.698820330849
 31
0.0
  0
LINE
  5
6A
330
1F
100
AcDbEntity
  8
0
  6
Continuous
 62
     5
100
AcDbLine
 10
6308.180003156645
 20
-3207.698820330849
 30
0.0
 11
6308.429788413421
 21
-3207.698820330847
 31
0.0
  0
LINE
  5
6B
330
1F
100
AcDbEntity
  8
0
  6
Continuous
 62
     5
100
AcDbLine
 10
6313.429788413421
 20
-3207.698820330847
 30
0.0
 11
6313.429788413421
 21
-3041.698820330847
 31
0.0
  0
LINE
  5
6C
330
1F
100
AcDbEntity
  8
0
  6
Continuous
 62
     5
100
AcDbLine
 10
6294.230565265039
 20
-3207.698820330847
 30
0.0
 11
6294.367696357063
 21
-3207.698820330847
 31
0.0
  0
LINE
  5
6D
330
1F
100
AcDbEntity
  8
0
  6
Continuous
 62
     5
100
AcDbLine
 10
6293.946808655815
 20
-3207.698820330847
 30
0.0
 11
6294.230565265039
 21
-3207.698820330847
 31
0.0
  0
LINE
  5
6E
330
1F
100
AcDbEntity
  8
0
  6
Continuous
 62
     5
100
AcDbLine
 10
6293.482682847473
 20
-3207.698820330847
 30
0.0
 11
6293.654003099797
 21
-3207.698820330847
 31
0.0
  0
LINE
  5
6F
330
1F
100
AcDbEntity
  8
0
  6
Continuous
 62
     5
100
AcDbLine
 10
6293.654003099797
 20
-3207.698820330847
 30
0.0
 11
6293.946808655815
 21
-3207.698820330847
 31
0.0
  0
LINE
  5
70
330
1F
100
AcDbEntity
  8
0
  6
Continuous
 62
     5
100
AcDbLine
 10
6295.321718364437
 20
-3207.698820330883
 30
0.0
 11
6295.372011031589
 21
-3207.698820330849
 31
0.0
  0
LINE
  5
71
330
1F
100
AcDbEntity
  8
0
  6
Continuous
 62
     5
100
AcDbLine
 10
6294.480778867688
 20
-3207.698820330847
 30
0.0
 11
6295.285115341792
 21
-3207.698820330847
 31
0.0
  0
LINE
  5
72
330
1F
100
AcDbEntity
  8
0
  6
Continuous
 62
     5
100
AcDbLine
 10
6294.367696357063
 20
-3207.698820330847
 30
0.0
 11
6294.480778867688
 21
-3207.698820330847
 31
0.0
  0
LINE
  5
73
330
1F
100
AcDbEntity
  8
0
  6
Continuous
 62
     5
100
AcDbLine
 10
6295.285115341792
 20
-3207.698820330847
 30
0.0
 11
6295.321718364437
 21
-3207.698820330883
 31
0.0
  0
LINE
  5
74
330
1F
100
AcDbEntity
  8
0
  6
Continuous
 62
     5
100
AcDbLine
 10
6296.167736949301
 20
-3207.698820330847
 30
0.0
 11
6299.289100288487
 21
-3207.698820330849
 31
0.0
  0
LINE
  5
75
330
1F
100
AcDbEntity
  8
0
  6
Continuous
 62
     5
100
AcDbLine
 10
6295.372011031589
 20
-3207.698820330849
 30
0.0
 11
6295.940775669687
 21
-3207.698820331118
 31
0.0
  0
LINE
  5
76
330
1F
100
AcDbEntity
  8
0
  6
Continuous
 62
     5
100
AcDbLine
 10
6295.940775669687
 20
-3207.698820331118
 30
0.0
 11
6296.163665958809
 21
-3207.698820330847
 31
0.0
  0
LINE
  5
77
330
1F
100
AcDbEntity
  8
0
  6
Continuous
 62
     5
100
AcDbLine
 10
6300.311377684342
 20
-3207.698820330847
 30
0.0
 11
6300.477826191163
 21
-3207.698820330847
 31
0.0
  0
LINE
  5
78
330
1F
100
AcDbEntity
  8
0
  6
Continuous
 62
     5
100
AcDbLine
 10
6296.163665958809
 20
-3207.698820330847
 30
0.0
 11
6296.167736949301
 21
-3207.698820330847
 31
0.0
  0
LINE
  5
79
330
1F
100
AcDbEntity
  8
0
  6
Continuous
 62
     5
100
AcDbLine
 10
6299.942290615012
 20
-3207.69882033146
 30
0.0
 11
6300.311377684342
 21
-3207.698820330847
 31
0.0
  0
LINE
  5
7A
330
1F
100
AcDbEntity
  8
0
  6
Continuous
 62
     5
100
AcDbLine
 10
6299.289100288487
 20
-3207.698820330849
 30
0.0
 11
6299.942290615012
 21
-3207.69882033146
 31
0.0
  0
LINE
  5
7B
330
1F
100
AcDbEntity
  8
0
  6
Continuous
 62
     5
100
AcDbLine
 10
6304.025665053611
 20
-3207.698820330847
 30
0.0
 11
6304.192113560433
 21
-3207.698820330847
 31
0.0
  0
LINE
  5
7C
330
1F
100
AcDbEntity
  8
0
  6
Continuous
 62
     5
100
AcDbLine
 10
6300.477826191163
 20
-3207.698820330847
 30
0.0
 11
6304.025665053611
 21
-3207.698820330847
 31
0.0
  0
LINE
  5
7D
330
1F
100
AcDbEntity
  8
0
  6
Continuous
 62
     5
100
AcDbLine
 10
6290.430284324071
 20
-3207.698820330847
 30
0.0
 11
6293.482682847473
 21
-3207.698820330847
 31
0.0
  0
LINE
  5
7E
330
1F
100
AcDbEntity
  8
0
  6
Continuous
 62
     5
100
AcDbLine
 10
6305.21481956044
 20
-3207.698820330849
 30
0.0
 11
6308.180003156645
 21
-3207.698820330849
 31
0.0
  0
LINE
  5
7F
330
1F
100
AcDbEntity
  8
0
  6
Continuous
 62
     5
100
AcDbLine
 10
6312.763324408506
 20
-3207.698820371523
 30
0.0
 11
6313.42999284765
 21
-3207.698820330849
 31
0.0
  0
LINE
  5
80
330
1F
100
AcDbEntity
  8
0
  6
Continuous
 62
     5
100
AcDbLine
 10
6312.536082246756
 20
-3207.698820330847
 30
0.0
 11
6312.763324408506
 21
-3207.698820371523
 31
0.0
  0
LINE
  5
81
330
1F
100
AcDbEntity
  8
0
  6
Continuous
 62
     5
100
AcDbLine
 10
6310.179993197044
 20
-3207.698820330847
 30
0.0
 11
6312.536082246756
 21
-3207.698820330847
 31
0.0
  0
LINE
  5
82
330
1F
100
AcDbEntity
  8
0
  6
Continuous
 62
     5
100
AcDbLine
 10
6309.629502310855
 20
-3207.698820330847
 30
0.0
 11
6310.179993197044
 21
-3207.698820330847
 31
0.0
  0
LINE
  5
83
330
1F
100
AcDbEntity
  8
0
  6
Continuous
 62
     5
100
AcDbLine
 10
6308.429788413421
 20
-3207.698820330847
 30
0.0
 11
6309.379710751906
 21
-3207.698820330847
 31
0.0
  0
LINE
  5
84
330
1F
100
AcDbEntity
  8
0
  6
Continuous
 62
     5
100
AcDbLine
 10
6309.379710751906
 20
-3207.698820330847
 30
0.0
 11
6309.629502310855
 21
-3207.698820330847
 31
0.0
  0
LINE
  5
85
330
1F
100
AcDbEntity
  8
0
  6
Continuous
 62
     5
100
AcDbLine
 10
6304.192113560433
 20
-3207.698820330847
 30
0.0
 11
6305.21481956044
 21
-3207.698820330849
 31
0.0
  0
LINE
  5
86
330
1F
100
AcDbEntity
  8
0
  6
Continuous
 62
     5
100
AcDbLine
 10
6308.180003156645
 20
-3207.698820330849
 30
0.0
 11
6308.429788413421
 21
-3207.698820330847
 31
0.0
  0
LINE
  5
87
330
1F
100
AcDbEntity
  8
0
  6
Continuous
 62
     5
100
AcDbLine
 10
6294.230565265039
 20
-3207.698820330847
 30
0.0
 11
6294.367696357063
 21
-3207.698820330847
 31
0.0
  0
LINE
  5
88
330
1F
100
AcDbEntity
  8
0
  6
Continuous
 62
     5
100
AcDbLine
 10
6293.946808655815
 20
-3207.698820330847
 30
0.0
 11
6294.230565265039
 21
-3207.698820330847
 31
0.0
  0
LINE
  5
89
330
1F
100
AcDbEntity
  8
0
  6
Continuous
 62
     5
100
AcDbLine
 10
6293.482682847473
 20
-3207.698820330847
 30
0.0
 11
6293.654003099797
 21
-3207.698820330847
 31
0.0
  0
LINE
  5
8A
330
1F
100
AcDbEntity
  8
0
  6
Continuous
 62
     5
100
AcDbLine
 10
6293.654003099797
 20
-3207.698820330847
 30
0.0
 11
6293.946808655815
 21
-3207.698820330847
 31
0.0
  0
LINE
  5
8B
330
1F
100
AcDbEntity
  8
0
  6
Continuous
 62
     5
100
AcDbLine
 10
6295.321718365316
 20
-3207.698820330847
 30
0.0
 11
6295.372011031589
 21
-3207.698820330849
 31
0.0
  0
LINE
  5
8C
330
1F
100
AcDbEntity
  8
0
  6
Continuous
 62
     5
100
AcDbLine
 10
6294.480778867688
 20
-3207.698820330847
 30
0.0
 11
6295.285115341792
 21
-3207.698820330847
 31
0.0
  0
LINE
  5
8D
330
1F
100
AcDbEntity
  8
0
  6
Continuous
 62
     5
100
AcDbLine
 10
6294.367696357063
 20
-3207.698820330847
 30
0.0
 11
6294.480778867688
 21
-3207.698820330847
 31
0.0
  0
LINE
  5
8E
330
1F
100
AcDbEntity
  8
0
  6
Continuous
 62
     5
100
AcDbLine
 10
6295.285115341792
 20
-3207.698820330847
 30
0.0
 11
6295.321718365316
 21
-3207.698820330847
 31
0.0
  0
LINE
  5
8F
330
1F
100
AcDbEntity
  8
0
  6
Continuous
 62
     5
100
AcDbLine
 10
6296.167736949301
 20
-3207.698820330847
 30
0.0
 11
6299.289100288487
 21
-3207.698820330849
 31
0.0
  0
LINE
  5
90
330
1F
100
AcDbEntity
  8
0
  6
Continuous
 62
     5
100
AcDbLine
 10
6295.372011031589
 20
-3207.698820330849
 30
0.0
 11
6295.940775670924
 21
-3207.698820330847
 31
0.0
  0
LINE
  5
91
330
1F
100
AcDbEntity
  8
0
  6
Continuous
 62
     5
100
AcDbLine
 10
6295.940775670924
 20
-3207.698820330847
 30
0.0
 11
6296.163665958809
 21
-3207.698820330847
 31
0.0
  0
LINE
  5
92
330
1F
100
AcDbEntity
  8
0
  6
Continuous
 62
     5
100
AcDbLine
 10
6300.311377684342
 20
-3207.698820330847
 30
0.0
 11
6300.477826191163
 21
-3207.698820330847
 31
0.0
  0
LINE
  5
93
330
1F
100
AcDbEntity
  8
0
  6
Continuous
 62
     5
100
AcDbLine
 10
6296.163665958809
 20
-3207.698820330847
 30
0.0
 11
6296.167736949301
 21
-3207.698820330847
 31
0.0
  0
LINE
  5
94
330
1F
100
AcDbEntity
  8
0
  6
Continuous
 62
     5
100
AcDbLine
 10
6299.942290615012
 20
-3207.69882033146
 30
0.0
 11
6300.311377684342
 21
-3207.698820330847
 31
0.0
  0
LINE
  5
95
330
1F
100
AcDbEntity
  8
0
  6
Continuous
 62
     5
100
AcDbLine
 10
6299.289100288487
 20
-3207.698820330849
 30
0.0
 11
6299.942290615012
 21
-3207.69882033146
 31
0.0
  0
LINE
  5
96
330
1F
100
AcDbEntity
  8
0
  6
Continuous
 62
     5
100
AcDbLine
 10
6296.167950235496
 20
-3212.698824382707
 30
0.0
 11
6291.381220734742
 21
-3212.698820330845
 31
0.0
  0
LINE
  5
97
330
1F
100
AcDbEntity
  8
0
  6
Continuous
 62
     5
100
AcDbLine
 10
6312.976790504183
 20
-3212.250641727042
 30
0.0
 11
6313.429997359956
 21
-3207.898820332056
 31
0.0
  0
LINE
  5
98
330
1F
100
AcDbEntity
  8
0
  6
Continuous
 62
     5
100
AcDbLine
 10
6290.883911496775
 20
-3212.250634433806
 30
0.0
 11
6290.430499743596
 21
-3207.898820332061
 31
0.0
  0
LINE
  5
99
330
1F
100
AcDbEntity
  8
0
  6
Continuous
 62
     5
100
AcDbLine
 10
6290.430284324071
 20
-3207.698820330847
 30
0.0
 11
6290.430499743596
 21
-3207.898820332061
 31
0.0
  0
LINE
  5
9A
330
1F
100
AcDbEntity
  8
0
  6
Continuous
 62
     5
100
AcDbLine
 10
6290.430499743596
 20
-3207.898820332061
 30
0.0
 11
6295.285991753646
 21
-3207.898820332274
 31
0.0
  0
LINE
  5
9B
330
1F
100
AcDbEntity
  8
0
  6
Continuous
 62
     5
100
AcDbLine
 10
6296.159758280603
 20
-3207.898820332106
 30
0.0
 11
6312.541164012398
 21
-3207.898819851306
 31
0.0
  0
LINE
  5
9C
330
1F
100
AcDbEntity
  8
0
  6
Continuous
 62
     5
100
AcDbLine
 10
6296.167950235496
 20
-3212.698824382707
 30
0.0
 11
6312.479473088607
 21
-3212.698820330847
 31
0.0
  0
LINE
  5
9D
330
1F
100
AcDbEntity
  8
1
  6
Continuous
 62
     5
100
AcDbLine
 10
6313.429788413421
 20
-3041.698820330847
 30
0.0
 11
6290.430284324071
 21
-3064.698324420197
 31
0.0
  0
LINE
  5
9E
330
1F
100
AcDbEntity
  8
1
  6
Continuous
 62
     7
100
AcDbLine
 10
5113.429788413421
 20
-4212.698820330841
 30
0.0
 11
6313.429788413421
 21
-4212.698820330841
 31
0.0
  0
LINE
  5
9F
330
1F
100
AcDbEntity
  8
1
  6
Continuous
 62
     7
100
AcDbLine
 10
6313.429788413421
 20
-4212.698820330841
 30
0.0
 11
6313.429788413421
 21
-5412.698820330841
 31
0.0
  0
LINE
  5
A0
330
1F
100
AcDbEntity
  8
1
  6
Continuous
 62
     7
100
AcDbLine
 10
6313.429788413421
 20
-5412.698820330841
 30
0.0
 11
5113.429788413421
 21
-5412.698820330841
 31
0.0
  0
LINE
  5
A1
330
1F
100
AcDbEntity
  8
1
  6
Continuous
 62
     7
100
AcDbLine
 10
5113.429788413421
 20
-5412.698820330841
 30
0.0
 11
5113.429788413421
 21
-4212.698820330841
 31
0.0
  0
LINE
  5
A2
330
1F
100
AcDbEntity
  8
1
  6
Continuous
 62
     5
100
AcDbLine
 10
2914.890726348859
 20
-3041.698820330839
 30
0.0
 11
2943.463785996967
 21
-3041.698820330841
 31
0.0
  0
LINE
  5
A3
330
1F
100
AcDbEntity
  8
0
  6
Continuous
 62
     7
100
AcDbLine
 10
2943.463785996967
 20
-3041.698820330841
 30
0.0
 11
2943.463785996967
 21
-3022.698820330841
 31
0.0
  0
LINE
  5
A4
330
1F
100
AcDbEntity
  8
0
  6
Continuous
 62
     7
100
AcDbLine
 10
4083.497783996986
 20
-3041.698820330841
 30
0.0
 11
4083.497783996986
 21
-3022.698820330841
 31
0.0
  0
LINE
  5
A5
330
1F
100
AcDbEntity
  8
0
  6
Continuous
 62
     7
100
AcDbLine
 10
4112.497784413459
 20
-3022.698820330841
 30
0.0
 11
4113.497784413459
 21
-3021.698820330841
 31
0.0
  0
LINE
  5
A6
330
1F
100
AcDbEntity
  8
0
  6
Continuous
 62
     7
100
AcDbLine
 10
2914.463786413443
 20
-3014.698820330838
 30
0.0
 11
2913.46378641344
 21
-3015.698820330838
 31
0.0
  0
LINE
  5
A7
330
1F
100
AcDbEntity
  8
0
  6
Continuous
 62
     7
100
AcDbLine
 10
4112.497784413459
 20
-3014.698820330841
 30
0.0
 11
4113.497784413459
 21
-3015.698820330841
 31
0.0
  0
LINE
  5
A8
330
1F
100
AcDbEntity
  8
0
  6
Continuous
 62
     7
100
AcDbLine
 10
2914.463786413443
 20
-3022.698820330843
 30
0.0
 11
2913.46378641344
 21
-3021.698820330843
 31
0.0
  0
LINE
  5
A9
330
1F
100
AcDbEntity
  8
0
  6
Continuous
 62
     7
100
AcDbLine
 10
4113.497784413459
 20
-3015.698820330841
 30
0.0
 11
4113.497784413459
 21
-3021.698820330841
 31
0.0
  0
LINE
  5
AA
330
1F
100
AcDbEntity
  8
0
  6
Continuous
 62
     7
100
AcDbLine
 10
4112.497784413459
 20
-3022.698820330841
 30
0.0
 11
4113.497784413459
 21
-3021.698820330841
 31
0.0
  0
LINE
  5
AB
330
1F
100
AcDbEntity
  8
0
  6
Continuous
 62
     7
100
AcDbLine
 10
2914.463786413443
 20
-3014.698820330838
 30
0.0
 11
2913.46378641344
 21
-3015.698820330838
 31
0.0
  0
LINE
  5
AC
330
1F
100
AcDbEntity
  8
0
  6
Continuous
 62
     7
100
AcDbLine
 10
4112.497784413459
 20
-3014.698820330841
 30
0.0
 11
4113.497784413459
 21
-3015.698820330841
 31
0.0
  0
LINE
  5
AD
330
1F
100
AcDbEntity
  8
0
  6
Continuous
 62
     7
100
AcDbLine
 10
2914.463786413443
 20
-3022.698820330843
 30
0.0
 11
2913.46378641344
 21
-3021.698820330843
 31
0.0
  0
LINE
  5
AE
330
1F
100
AcDbEntity
  8
0
  6
Continuous
 62
     7
100
AcDbLine
 10
4113.497784413459
 20
-3015.698820330841
 30
0.0
 11
4113.497784413459
 21
-3021.698820330841
 31
0.0
  0
LINE
  5
AF
330
1F
100
AcDbEntity
  8
1
  6
Continuous
 62
     7
100
AcDbLine
 10
2913.46378641344
 20
-3015.698820330838
 30
0.0
 11
2913.46378641344
 21
-3021.698820330843
 31
0.0
  0
LINE
  5
B0
330
1F
100
AcDbEntity
  8
1
  6
Continuous
 62
     7
100
AcDbLine
 10
2914.463786413443
 20
-3022.698820330843
 30
0.0
 11
4112.497784413459
 21
-3022.698820330841
 31
0.0
  0
LINE
  5
B1
330
1F
100
AcDbEntity
  8
1
  6
Continuous
 62
     7
100
AcDbLine
 10
4112.497784413459
 20
-3014.698820330841
 30
0.0
 11
2914.46378641344
 21
-3014.698820330841
 31
0.0
  0
LINE
  5
B2
330
1F
100
AcDbEntity
  8
0
  6
Continuous
 62
     5
100
AcDbLine
 10
3992.39688083553
 20
-3207.898817013397
 30
0.0
 11
3992.850161837299
 21
-3212.250623371113
 31
0.0
  0
LINE
  5
B3
330
1F
100
AcDbEntity
  8
0
  6
Continuous
 62
     5
100
AcDbLine
 10
3992.39688083553
 20
-3207.898817013397
 30
0.0
 11
3992.850161837299
 21
-3212.250623371113
 31
0.0
  0
LINE
  5
B4
330
1F
100
AcDbEntity
  8
0
  6
Continuous
 62
     5
100
AcDbLine
 10
4113.463786175864
 20
-3207.898820330847
 30
0.0
 11
4113.010473792014
 21
-3212.250623186952
 31
0.0
  0
LINE
  5
B5
330
1F
100
AcDbEntity
  8
0
  6
Continuous
 62
     5
100
AcDbLine
 10
4113.463786175864
 20
-3207.898820330847
 30
0.0
 11
4113.010473792014
 21
-3212.250623186952
 31
0.0
  0
LINE
  5
B6
330
1F
100
AcDbEntity
  8
1
  6
Continuous
 62
     5
100
AcDbLine
 10
4113.46378641344
 20
-3207.898820330847
 30
0.0
 11
4113.46378641344
 21
-3050.709267675078
 31
0.0
  0
LINE
  5
B7
330
1F
100
AcDbEntity
  8
1
  6
Continuous
 62
     5
100
AcDbLine
 10
3992.39688083553
 20
-3050.709267675078
 30
0.0
 11
3992.39688083553
 21
-3207.898817013397
 31
0.0
  0
LINE
  5
B8
330
1F
100
AcDbEntity
  8
1
  6
Continuous
 62
     5
100
AcDbLine
 10
3993.347471040998
 20
-3212.698820330841
 30
0.0
 11
4112.513164312981
 21
-3212.698820330841
 31
0.0
  0
LINE
  5
B9
330
1F
100
AcDbEntity
  8
1
  6
Continuous
 62
     5
100
AcDbLine
 10
3992.39688083553
 20
-3207.898817013397
 30
0.0
 11
4113.46378641344
 21
-3207.898820330847
 31
0.0
  0
LINE
  5
BA
330
1F
100
AcDbEntity
  8
1
  6
Continuous
 62
     5
100
AcDbLine
 10
2913.46378641344
 20
-3207.898820330847
 30
0.0
 11
3034.53069199135
 21
-3207.898817013397
 31
0.0
  0
LINE
  5
BB
330
1F
100
AcDbEntity
  8
1
  6
Continuous
 62
     5
100
AcDbLine
 10
2914.414408513899
 20
-3212.698820330841
 30
0.0
 11
3033.580101785882
 21
-3212.698820330841
 31
0.0
  0
LINE
  5
BC
330
1F
100
AcDbEntity
  8
1
  6
Continuous
 62
     5
100
AcDbLine
 10
3034.53069199135
 20
-3207.898817013397
 30
0.0
 11
3034.53069199135
 21
-3050.709267675078
 31
0.0
  0
LINE
  5
BD
330
1F
100
AcDbEntity
  8
1
  6
Continuous
 62
     5
100
AcDbLine
 10
2913.46378641344
 20
-3050.709267675078
 30
0.0
 11
2913.46378641344
 21
-3207.898820330847
 31
0.0
  0
LINE
  5
BE
330
1F
100
AcDbEntity
  8
0
  6
Continuous
 62
     5
100
AcDbLine
 10
2913.917099034866
 20
-3212.250623186952
 30
0.0
 11
2913.463786651016
 21
-3207.898820330847
 31
0.0
  0
LINE
  5
BF
330
1F
100
AcDbEntity
  8
0
  6
Continuous
 62
     5
100
AcDbLine
 10
2913.917099034866
 20
-3212.250623186952
 30
0.0
 11
2913.463786651016
 21
-3207.898820330847
 31
0.0
  0
LINE
  5
C0
330
1F
100
AcDbEntity
  8
1
  6
Continuous
 62
     7
100
AcDbLine
 10
6312.46378641344
 20
-3014.698820330849
 30
0.0
 11
5114.463786720591
 21
-3014.698820330849
 31
0.0
  0
LINE
  5
C1
330
1F
100
AcDbEntity
  8
1
  6
Continuous
 62
     7
100
AcDbLine
 10
5114.463786720595
 20
-3022.698820330851
 30
0.0
 11
6312.46378641344
 21
-3022.698820330849
 31
0.0
  0
LINE
  5
C2
330
1F
100
AcDbEntity
  8
1
  6
Continuous
 62
     7
100
AcDbLine
 10
5113.463786720591
 20
-3015.698820330846
 30
0.0
 11
5113.463786720591
 21
-3021.698820330851
 31
0.0
  0
LINE
  5
C3
330
1F
100
AcDbEntity
  8
1
  6
Continuous
 62
     5
100
AcDbLine
 10
5113.429788413419
 20
-3041.698820330847
 30
0.0
 11
5143.463786304118
 21
-3041.698820330849
 31
0.0
  0
LINE
  5
C4
330
1F
100
AcDbEntity
  8
1
  6
Continuous
 62
     5
100
AcDbLine
 10
5113.429788413419
 20
-3041.698820330847
 30
0.0
 11
5136.429292502769
 21
-3064.698324420197
 31
0.0
  0
LINE
  5
C5
330
1F
100
AcDbEntity
  8
1
  6
Continuous
 62
     5
100
AcDbLine
 10
6290.430284324071
 20
-3064.698324420197
 30
0.0
 11
5136.429292502769
 21
-3064.698324420197
 31
0.0
  0
LINE
  5
C6
330
1F
100
AcDbEntity
  8
1
  6
Continuous
 62
     5
100
AcDbLine
 10
5113.429780811393
 20
-3207.898820332058
 30
0.0
 11
5136.429292502771
 21
-3207.898820332058
 31
0.0
  0
LINE
  5
C7
330
1F
100
AcDbEntity
  8
1
  6
Continuous
 62
     5
100
AcDbLine
 10
5114.3803052235
 20
-3212.69882033085
 30
0.0
 11
5135.478570394176
 21
-3212.69882033085
 31
0.0
  0
LINE
  5
C8
330
1F
100
AcDbEntity
  8
0
  6
Continuous
 62
     5
100
AcDbLine
 10
5113.429788413421
 20
-3207.69882033085
 30
0.0
 11
5113.429788413419
 21
-3041.698820330847
 31
0.0
  0
LINE
  5
C9
330
1F
100
AcDbEntity
  8
0
  6
Continuous
 62
     5
100
AcDbLine
 10
5136.429292502771
 20
-3207.69882033085
 30
0.0
 11
5136.429292502769
 21
-3064.698324420197
 31
0.0
  0
LINE
  5
CA
330
1F
100
AcDbEntity
  8
0
  6
Continuous
 62
     5
100
AcDbLine
 10
5113.429780811393
 20
-3207.898820332058
 30
0.0
 11
5113.882994869196
 21
-3212.250612333164
 31
0.0
  0
LINE
  5
CB
330
1F
100
AcDbEntity
  8
0
  6
Continuous
 62
     5
100
AcDbLine
 10
5135.975879632143
 20
-3212.250634433807
 30
0.0
 11
5136.429291385322
 21
-3207.898820332063
 31
0.0
  0
LINE
  5
CC
330
1F
100
AcDbEntity
  8
0
  6
Continuous
 62
     5
100
AcDbLine
 10
5136.429292502771
 20
-3207.69882033085
 30
0.0
 11
5136.429291385322
 21
-3207.898820332063
 31
0.0
  0
LINE
  5
CD
330
1F
100
AcDbEntity
  8
0
  6
Continuous
 62
     5
100
AcDbLine
 10
3034.077410989581
 20
-3212.250623371113
 30
0.0
 11
3034.53069199135
 21
-3207.898817013397
 31
0.0
  0
LINE
  5
CE
330
1F
100
AcDbEntity
  8
0
  6
Continuous
 62
     5
100
AcDbLine
 10
3034.077410989581
 20
-3212.250623371113
 30
0.0
 11
3034.53069199135
 21
-3207.898817013397
 31
0.0
  0
LINE
  5
CF
330
1F
100
AcDbEntity
  8
0
  6
Continuous
 62
     7
100
AcDbLine
 10
5114.463786720595
 20
-3022.698820330851
 30
0.0
 11
5113.463786720591
 21
-3021.698820330851
 31
0.0
  0
LINE
  5
D0
330
1F
100
AcDbEntity
  8
0
  6
Continuous
 62
     7
100
AcDbLine
 10
5114.463786720595
 20
-3014.698820330846
 30
0.0
 11
5113.463786720591
 21
-3015.698820330846
 31
0.0
  0
LINE
  5
D1
330
1F
100
AcDbEntity
  8
0
  6
Continuous
 62
     7
100
AcDbLine
 10
5114.463786720595
 20
-3022.698820330851
 30
0.0
 11
5113.463786720591
 21
-3021.698820330851
 31
0.0
  0
LINE
  5
D2
330
1F
100
AcDbEntity
  8
0
  6
Continuous
 62
     7
100
AcDbLine
 10
5114.463786720595
 20
-3014.698820330846
 30
0.0
 11
5113.463786720591
 21
-3015.698820330846
 31
0.0
  0
LINE
  5
D3
330
1F
100
AcDbEntity
  8
0
  6
Continuous
 62
     7
100
AcDbLine
 10
5143.463786304118
 20
-3041.698820330849
 30
0.0
 11
5143.463786304118
 21
-3022.698820330849
 31
0.0
  0
LINE
  5
D4
330
1F
100
AcDbEntity
  8
0
  6
Continuous
 62
     7
100
AcDbLine
 10
1883.497777228519
 20
-3041.698820330849
 30
0.0
 11
1883.497777228519
 21
-3022.698820330849
 31
0.0
  0
LINE
  5
D5
330
1F
100
AcDbEntity
  8
0
  6
Continuous
 62
     7
100
AcDbLine
 10
983.4977772285192
 20
-3041.698820330849
 30
0.0
 11
983.4977772285192
 21
-3022.698820330849
 31
0.0
  0
LINE
  5
D6
330
1F
100
AcDbEntity
  8
0
  6
Continuous
 62
     7
100
AcDbLine
 10
1912.497777644992
 20
-3022.698820330849
 30
0.0
 11
1913.497777644992
 21
-3021.698820330849
 31
0.0
  0
LINE
  5
D7
330
1F
100
AcDbEntity
  8
0
  6
Continuous
 62
     7
100
AcDbLine
 10
954.4977776449955
 20
-3014.698820330846
 30
0.0
 11
953.4977776449923
 21
-3015.698820330846
 31
0.0
  0
LINE
  5
D8
330
1F
100
AcDbEntity
  8
0
  6
Continuous
 62
     7
100
AcDbLine
 10
1912.497777644992
 20
-3014.698820330849
 30
0.0
 11
1913.497777644992
 21
-3015.698820330849
 31
0.0
  0
LINE
  5
D9
330
1F
100
AcDbEntity
  8
0
  6
Continuous
 62
     7
100
AcDbLine
 10
954.4977776449955
 20
-3022.698820330851
 30
0.0
 11
953.4977776449923
 21
-3021.698820330851
 31
0.0
  0
LINE
  5
DA
330
1F
100
AcDbEntity
  8
0
  6
Continuous
 62
     7
100
AcDbLine
 10
1913.497777644992
 20
-3015.698820330849
 30
0.0
 11
1913.497777644992
 21
-3021.698820330849
 31
0.0
  0
LINE
  5
DB
330
1F
100
AcDbEntity
  8
0
  6
Continuous
 62
     7
100
AcDbLine
 10
1912.497777644992
 20
-3022.698820330849
 30
0.0
 11
1913.497777644992
 21
-3021.698820330849
 31
0.0
  0
LINE
  5
DC
330
1F
100
AcDbEntity
  8
0
  6
Continuous
 62
     7
100
AcDbLine
 10
954.4977776449955
 20
-3014.698820330846
 30
0.0
 11
953.4977776449923
 21
-3015.698820330846
 31
0.0
  0
LINE
  5
DD
330
1F
100
AcDbEntity
  8
0
  6
Continuous
 62
     7
100
AcDbLine
 10
1912.497777644992
 20
-3014.698820330849
 30
0.0
 11
1913.497777644992
 21
-3015.698820330849
 31
0.0
  0
LINE
  5
DE
330
1F
100
AcDbEntity
  8
0
  6
Continuous
 62
     7
100
AcDbLine
 10
954.4977776449955
 20
-3022.698820330851
 30
0.0
 11
953.4977776449923
 21
-3021.698820330851
 31
0.0
  0
LINE
  5
DF
330
1F
100
AcDbEntity
  8
0
  6
Continuous
 62
     7
100
AcDbLine
 10
1913.497777644992
 20
-3015.698820330849
 30
0.0
 11
1913.497777644992
 21
-3021.698820330849
 31
0.0
  0
LINE
  5
E0
330
1F
100
AcDbEntity
  8
0
  6
Continuous
 62
     5
100
AcDbLine
 10
-1125.888598086018
 20
-3212.250623371113
 30
0.0
 11
-1125.435317084249
 21
-3207.898817013397
 31
0.0
  0
LINE
  5
E1
330
1F
100
AcDbEntity
  8
0
  6
Continuous
 62
     5
100
AcDbLine
 10
-1125.888598086018
 20
-3212.250623371113
 30
0.0
 11
-1125.435317084249
 21
-3207.898817013397
 31
0.0
  0
LINE
  5
E2
330
1F
100
AcDbEntity
  8
0
  6
Continuous
 62
     5
100
AcDbLine
 10
976.463283427172
 20
-3207.69882033085
 30
0.0
 11
976.463282309724
 21
-3207.898820332063
 31
0.0
  0
LINE
  5
E3
330
1F
100
AcDbEntity
  8
0
  6
Continuous
 62
     5
100
AcDbLine
 10
976.0098705565442
 20
-3212.250634433807
 30
0.0
 11
976.463282309724
 21
-3207.898820332063
 31
0.0
  0
LINE
  5
E4
330
1F
100
AcDbEntity
  8
0
  6
Continuous
 62
     5
100
AcDbLine
 10
953.4637717357941
 20
-3207.898820332058
 30
0.0
 11
953.9169857935981
 21
-3212.250612333164
 31
0.0
  0
LINE
  5
E5
330
1F
100
AcDbEntity
  8
0
  6
Continuous
 62
     5
100
AcDbLine
 10
976.463283427172
 20
-3207.69882033085
 30
0.0
 11
976.4632834271711
 21
-3064.698324420197
 31
0.0
  0
LINE
  5
E6
330
1F
100
AcDbEntity
  8
0
  6
Continuous
 62
     5
100
AcDbLine
 10
1904.059656285163
 20
-3207.698820330847
 30
0.0
 11
1904.226104791985
 21
-3207.698820330847
 31
0.0
  0
LINE
  5
E7
330
1F
100
AcDbEntity
  8
0
  6
Continuous
 62
     5
100
AcDbLine
 10
1900.511817422716
 20
-3207.698820330847
 30
0.0
 11
1904.059656285163
 21
-3207.698820330847
 31
0.0
  0
LINE
  5
E8
330
1F
100
AcDbEntity
  8
0
  6
Continuous
 62
     5
100
AcDbLine
 10
1890.464275555623
 20
-3207.698820330847
 30
0.0
 11
1890.464275555623
 21
-3064.698324420197
 31
0.0
  0
LINE
  5
E9
330
1F
100
AcDbEntity
  8
0
  6
Continuous
 62
     5
100
AcDbLine
 10
1890.464275555623
 20
-3207.698820330847
 30
0.0
 11
1893.516674079025
 21
-3207.698820330847
 31
0.0
  0
LINE
  5
EA
330
1F
100
AcDbEntity
  8
0
  6
Continuous
 62
     5
100
AcDbLine
 10
1905.248810791993
 20
-3207.698820330849
 30
0.0
 11
1908.213994388198
 21
-3207.698820330849
 31
0.0
  0
LINE
  5
EB
330
1F
100
AcDbEntity
  8
0
  6
Continuous
 62
     5
100
AcDbLine
 10
1912.797315607407
 20
-3207.698820351186
 30
0.0
 11
1913.463779644973
 21
-3207.698820330847
 31
0.0
  0
LINE
  5
EC
330
1F
100
AcDbEntity
  8
0
  6
Continuous
 62
     5
100
AcDbLine
 10
1912.570073478307
 20
-3207.698820330847
 30
0.0
 11
1912.797315607407
 21
-3207.698820351186
 31
0.0
  0
LINE
  5
ED
330
1F
100
AcDbEntity
  8
0
  6
Continuous
 62
     5
100
AcDbLine
 10
1910.213984428595
 20
-3207.698820330847
 30
0.0
 11
1912.570073478307
 21
-3207.698820330847
 31
0.0
  0
LINE
  5
EE
330
1F
100
AcDbEntity
  8
0
  6
Continuous
 62
     5
100
AcDbLine
 10
1909.663493542407
 20
-3207.698820330847
 30
0.0
 11
1910.213984428595
 21
-3207.698820330847
 31
0.0
  0
LINE
  5
EF
330
1F
100
AcDbEntity
  8
0
  6
Continuous
 62
     5
100
AcDbLine
 10
1908.463779644973
 20
-3207.698820330847
 30
0.0
 11
1909.413701983458
 21
-3207.698820330847
 31
0.0
  0
LINE
  5
F0
330
1F
100
AcDbEntity
  8
0
  6
Continuous
 62
     5
100
AcDbLine
 10
1909.413701983458
 20
-3207.698820330847
 30
0.0
 11
1909.663493542407
 21
-3207.698820330847
 31
0.0
  0
LINE
  5
F1
330
1F
100
AcDbEntity
  8
0
  6
Continuous
 62
     5
100
AcDbLine
 10
1904.226104791985
 20
-3207.698820330847
 30
0.0
 11
1905.248810791993
 21
-3207.698820330849
 31
0.0
  0
LINE
  5
F2
330
1F
100
AcDbEntity
  8
0
  6
Continuous
 62
     5
100
AcDbLine
 10
1908.213994388198
 20
-3207.698820330849
 30
0.0
 11
1908.463779644973
 21
-3207.698820330847
 31
0.0
  0
LINE
  5
F3
330
1F
100
AcDbEntity
  8
0
  6
Continuous
 62
     5
100
AcDbLine
 10
1913.463779644973
 20
-3207.698820330847
 30
0.0
 11
1913.463779644973
 21
-3041.698820330847
 31
0.0
  0
LINE
  5
F4
330
1F
100
AcDbEntity
  8
0
  6
Continuous
 62
     5
100
AcDbLine
 10
1894.264556496592
 20
-3207.698820330847
 30
0.0
 11
1894.401687588616
 21
-3207.698820330847
 31
0.0
  0
LINE
  5
F5
330
1F
100
AcDbEntity
  8
0
  6
Continuous
 62
     5
100
AcDbLine
 10
1893.980799887368
 20
-3207.698820330847
 30
0.0
 11
1894.264556496592
 21
-3207.698820330847
 31
0.0
  0
LINE
  5
F6
330
1F
100
AcDbEntity
  8
0
  6
Continuous
 62
     5
100
AcDbLine
 10
1893.516674079025
 20
-3207.698820330847
 30
0.0
 11
1893.687994331349
 21
-3207.698820330847
 31
0.0
  0
LINE
  5
F7
330
1F
100
AcDbEntity
  8
0
  6
Continuous
 62
     5
100
AcDbLine
 10
1893.687994331349
 20
-3207.698820330847
 30
0.0
 11
1893.980799887368
 21
-3207.698820330847
 31
0.0
  0
LINE
  5
F8
330
1F
100
AcDbEntity
  8
0
  6
Continuous
 62
     5
100
AcDbLine
 10
1895.355709595989
 20
-3207.698820330883
 30
0.0
 11
1895.406002263141
 21
-3207.698820330849
 31
0.0
  0
LINE
  5
F9
330
1F
100
AcDbEntity
  8
0
  6
Continuous
 62
     5
100
AcDbLine
 10
1894.51477009924
 20
-3207.698820330847
 30
0.0
 11
1895.319106573345
 21
-3207.698820330847
 31
0.0
  0
LINE
  5
FA
330
1F
100
AcDbEntity
  8
0
  6
Continuous
 62
     5
100
AcDbLine
 10
1894.401687588616
 20
-3207.698820330847
 30
0.0
 11
1894.51477009924
 21
-3207.698820330847
 31
0.0
  0
LINE
  5
FB
330
1F
100
AcDbEntity
  8
0
  6
Continuous
 62
     5
100
AcDbLine
 10
1895.319106573345
 20
-3207.698820330847
 30
0.0
 11
1895.355709595989
 21
-3207.698820330883
 31
0.0
  0
LINE
  5
FC
330
1F
100
AcDbEntity
  8
0
  6
Continuous
 62
     5
100
AcDbLine
 10
1896.201728180853
 20
-3207.698820330847
 30
0.0
 11
1899.323091520039
 21
-3207.698820330849
 31
0.0
  0
LINE
  5
FD
330
1F
100
AcDbEntity
  8
0
  6
Continuous
 62
     5
100
AcDbLine
 10
1895.406002263141
 20
-3207.698820330849
 30
0.0
 11
1895.974766901239
 21
-3207.698820331118
 31
0.0
  0
LINE
  5
FE
330
1F
100
AcDbEntity
  8
0
  6
Continuous
 62
     5
100
AcDbLine
 10
1895.974766901239
 20
-3207.698820331118
 30
0.0
 11
1896.197657190361
 21
-3207.698820330847
 31
0.0
  0
LINE
  5
FF
330
1F
100
AcDbEntity
  8
0
  6
Continuous
 62
     5
100
AcDbLine
 10
1900.345368915894
 20
-3207.698820330847
 30
0.0
 11
1900.511817422716
 21
-3207.698820330847
 31
0.0
  0
LINE
  5
100
330
1F
100
AcDbEntity
  8
0
  6
Continuous
 62
     5
100
AcDbLine
 10
1896.197657190361
 20
-3207.698820330847
 30
0.0
 11
1896.201728180853
 21
-3207.698820330847
 31
0.0
  0
LINE
  5
101
330
1F
100
AcDbEntity
  8
0
  6
Continuous
 62
     5
100
AcDbLine
 10
1899.976281846564
 20
-3207.69882033146
 30
0.0
 11
1900.345368915894
 21
-3207.698820330847
 31
0.0
  0
LINE
  5
102
330
1F
100
AcDbEntity
  8
0
  6
Continuous
 62
     5
100
AcDbLine
 10
1899.323091520039
 20
-3207.698820330849
 30
0.0
 11
1899.976281846564
 21
-3207.69882033146
 31
0.0
  0
LINE
  5
103
330
1F
100
AcDbEntity
  8
0
  6
Continuous
 62
     5
100
AcDbLine
 10
1904.059656285163
 20
-3207.698820330847
 30
0.0
 11
1904.226104791985
 21
-3207.698820330847
 31
0.0
  0
LINE
  5
104
330
1F
100
AcDbEntity
  8
0
  6
Continuous
 62
     5
100
AcDbLine
 10
1900.511817422716
 20
-3207.698820330847
 30
0.0
 11
1904.059656285163
 21
-3207.698820330847
 31
0.0
  0
LINE
  5
105
330
1F
100
AcDbEntity
  8
0
  6
Continuous
 62
     5
100
AcDbLine
 10
1890.464275555623
 20
-3207.698820330847
 30
0.0
 11
1893.516674079025
 21
-3207.698820330847
 31
0.0
  0
LINE
  5
106
330
1F
100
AcDbEntity
  8
0
  6
Continuous
 62
     5
100
AcDbLine
 10
1905.248810791993
 20
-3207.698820330849
 30
0.0
 11
1908.213994388198
 21
-3207.698820330849
 31
0.0
  0
LINE
  5
107
330
1F
100
AcDbEntity
  8
0
  6
Continuous
 62
     5
100
AcDbLine
 10
1912.797315640059
 20
-3207.698820371523
 30
0.0
 11
1913.463984079202
 21
-3207.698820330849
 31
0.0
  0
LINE
  5
108
330
1F
100
AcDbEntity
  8
0
  6
Continuous
 62
     5
100
AcDbLine
 10
1912.570073478307
 20
-3207.698820330847
 30
0.0
 11
1912.797315640059
 21
-3207.698820371523
 31
0.0
  0
LINE
  5
109
330
1F
100
AcDbEntity
  8
0
  6
Continuous
 62
     5
100
AcDbLine
 10
1910.213984428595
 20
-3207.698820330847
 30
0.0
 11
1912.570073478307
 21
-3207.698820330847
 31
0.0
  0
LINE
  5
10A
330
1F
100
AcDbEntity
  8
0
  6
Continuous
 62
     5
100
AcDbLine
 10
1909.663493542407
 20
-3207.698820330847
 30
0.0
 11
1910.213984428595
 21
-3207.698820330847
 31
0.0
  0
LINE
  5
10B
330
1F
100
AcDbEntity
  8
0
  6
Continuous
 62
     5
100
AcDbLine
 10
1908.463779644973
 20
-3207.698820330847
 30
0.0
 11
1909.413701983458
 21
-3207.698820330847
 31
0.0
  0
LINE
  5
10C
330
1F
100
AcDbEntity
  8
0
  6
Continuous
 62
     5
100
AcDbLine
 10
1909.413701983458
 20
-3207.698820330847
 30
0.0
 11
1909.663493542407
 21
-3207.698820330847
 31
0.0
  0
LINE
  5
10D
330
1F
100
AcDbEntity
  8
0
  6
Continuous
 62
     5
100
AcDbLine
 10
1904.226104791985
 20
-3207.698820330847
 30
0.0
 11
1905.248810791993
 21
-3207.698820330849
 31
0.0
  0
LINE
  5
10E
330
1F
100
AcDbEntity
  8
0
  6
Continuous
 62
     5
100
AcDbLine
 10
1908.213994388198
 20
-3207.698820330849
 30
0.0
 11
1908.463779644973
 21
-3207.698820330847
 31
0.0
  0
LINE
  5
10F
330
1F
100
AcDbEntity
  8
0
  6
Continuous
 62
     5
100
AcDbLine
 10
1894.264556496592
 20
-3207.698820330847
 30
0.0
 11
1894.401687588616
 21
-3207.698820330847
 31
0.0
  0
LINE
  5
110
330
1F
100
AcDbEntity
  8
0
  6
Continuous
 62
     5
100
AcDbLine
 10
1893.980799887368
 20
-3207.698820330847
 30
0.0
 11
1894.264556496592
 21
-3207.698820330847
 31
0.0
  0
LINE
  5
111
330
1F
100
AcDbEntity
  8
0
  6
Continuous
 62
     5
100
AcDbLine
 10
1893.516674079025
 20
-3207.698820330847
 30
0.0
 11
1893.687994331349
 21
-3207.698820330847
 31
0.0
  0
LINE
  5
112
330
1F
100
AcDbEntity
  8
0
  6
Continuous
 62
     5
100
AcDbLine
 10
1893.687994331349
 20
-3207.698820330847
 30
0.0
 11
1893.980799887368
 21
-3207.698820330847
 31
0.0
  0
LINE
  5
113
330
1F
100
AcDbEntity
  8
0
  6
Continuous
 62
     5
100
AcDbLine
 10
1895.355709596868
 20
-3207.698820330847
 30
0.0
 11
1895.406002263141
 21
-3207.698820330849
 31
0.0
  0
LINE
  5
114
330
1F
100
AcDbEntity
  8
0
  6
Continuous
 62
     5
100
AcDbLine
 10
1894.51477009924
 20
-3207.698820330847
 30
0.0
 11
1895.319106573345
 21
-3207.698820330847
 31
0.0
  0
LINE
  5
115
330
1F
100
AcDbEntity
  8
0
  6
Continuous
 62
     5
100
AcDbLine
 10
1894.401687588616
 20
-3207.698820330847
 30
0.0
 11
1894.51477009924
 21
-3207.698820330847
 31
0.0
  0
LINE
  5
116
330
1F
100
AcDbEntity
  8
0
  6
Continuous
 62
     5
100
AcDbLine
 10
1895.319106573345
 20
-3207.698820330847
 30
0.0
 11
1895.355709596868
 21
-3207.698820330847
 31
0.0
  0
LINE
  5
117
330
1F
100
AcDbEntity
  8
0
  6
Continuous
 62
     5
100
AcDbLine
 10
1896.201728180853
 20
-3207.698820330847
 30
0.0
 11
1899.323091520039
 21
-3207.698820330849
 31
0.0
  0
LINE
  5
118
330
1F
100
AcDbEntity
  8
0
  6
Continuous
 62
     5
100
AcDbLine
 10
1895.406002263141
 20
-3207.698820330849
 30
0.0
 11
1895.974766902476
 21
-3207.698820330847
 31
0.0
  0
LINE
  5
119
330
1F
100
AcDbEntity
  8
0
  6
Continuous
 62
     5
100
AcDbLine
 10
1895.974766902476
 20
-3207.698820330847
 30
0.0
 11
1896.197657190361
 21
-3207.698820330847
 31
0.0
  0
LINE
  5
11A
330
1F
100
AcDbEntity
  8
0
  6
Continuous
 62
     5
100
AcDbLine
 10
1900.345368915894
 20
-3207.698820330847
 30
0.0
 11
1900.511817422716
 21
-3207.698820330847
 31
0.0
  0
LINE
  5
11B
330
1F
100
AcDbEntity
  8
0
  6
Continuous
 62
     5
100
AcDbLine
 10
1896.197657190361
 20
-3207.698820330847
 30
0.0
 11
1896.201728180853
 21
-3207.698820330847
 31
0.0
  0
LINE
  5
11C
330
1F
100
AcDbEntity
  8
0
  6
Continuous
 62
     5
100
AcDbLine
 10
1899.976281846564
 20
-3207.69882033146
 30
0.0
 11
1900.345368915894
 21
-3207.698820330847
 31
0.0
  0
LINE
  5
11D
330
1F
100
AcDbEntity
  8
0
  6
Continuous
 62
     5
100
AcDbLine
 10
1899.323091520039
 20
-3207.698820330849
 30
0.0
 11
1899.976281846564
 21
-3207.69882033146
 31
0.0
  0
LINE
  5
11E
330
1F
100
AcDbEntity
  8
0
  6
Continuous
 62
     5
100
AcDbLine
 10
1896.201941467049
 20
-3212.698824382707
 30
0.0
 11
1891.415211966294
 21
-3212.698820330845
 31
0.0
  0
LINE
  5
11F
330
1F
100
AcDbEntity
  8
0
  6
Continuous
 62
     5
100
AcDbLine
 10
1913.010781735734
 20
-3212.250641727042
 30
0.0
 11
1913.463988591508
 21
-3207.898820332056
 31
0.0
  0
LINE
  5
120
330
1F
100
AcDbEntity
  8
0
  6
Continuous
 62
     5
100
AcDbLine
 10
1890.917902728327
 20
-3212.250634433806
 30
0.0
 11
1890.464490975147
 21
-3207.898820332061
 31
0.0
  0
LINE
  5
121
330
1F
100
AcDbEntity
  8
0
  6
Continuous
 62
     5
100
AcDbLine
 10
1890.464275555623
 20
-3207.698820330847
 30
0.0
 11
1890.464490975147
 21
-3207.898820332061
 31
0.0
  0
LINE
  5
122
330
1F
100
AcDbEntity
  8
0
  6
Continuous
 62
     5
100
AcDbLine
 10
1890.464490975147
 20
-3207.898820332061
 30
0.0
 11
1895.319982985198
 21
-3207.898820332274
 31
0.0
  0
LINE
  5
123
330
1F
100
AcDbEntity
  8
0
  6
Continuous
 62
     5
100
AcDbLine
 10
1896.193749512155
 20
-3207.898820332106
 30
0.0
 11
1912.575155243951
 21
-3207.898819851306
 31
0.0
  0
LINE
  5
124
330
1F
100
AcDbEntity
  8
0
  6
Continuous
 62
     5
100
AcDbLine
 10
1896.201941467049
 20
-3212.698824382707
 30
0.0
 11
1912.513464320159
 21
-3212.698820330847
 31
0.0
  0
LINE
  5
125
330
1F
100
AcDbEntity
  8
0
  6
Continuous
 62
     5
100
AcDbLine
 10
953.463779337822
 20
-3207.69882033085
 30
0.0
 11
953.463779337821
 21
-3041.698820330847
 31
0.0
  0
LINE
  5
126
330
1F
100
AcDbEntity
  8
1
  6
Continuous
 62
     5
100
AcDbLine
 10
954.4142961479015
 20
-3212.69882033085
 30
0.0
 11
975.5125613185769
 21
-3212.69882033085
 31
0.0
  0
LINE
  5
127
330
1F
100
AcDbEntity
  8
1
  6
Continuous
 62
     5
100
AcDbLine
 10
953.4637717357941
 20
-3207.898820332058
 30
0.0
 11
976.463283427172
 21
-3207.898820332058
 31
0.0
  0
LINE
  5
128
330
1F
100
AcDbEntity
  8
1
  6
Continuous
 62
     5
100
AcDbLine
 10
1890.464275555623
 20
-3064.698324420197
 30
0.0
 11
976.4632834271711
 21
-3064.698324420197
 31
0.0
  0
LINE
  5
129
330
1F
100
AcDbEntity
  8
1
  6
Continuous
 62
     5
100
AcDbLine
 10
953.463779337821
 20
-3041.698820330847
 30
0.0
 11
976.4632834271711
 21
-3064.698324420197
 31
0.0
  0
LINE
  5
12A
330
1F
100
AcDbEntity
  8
1
  6
Continuous
 62
     5
100
AcDbLine
 10
1913.463779644973
 20
-3041.698820330847
 30
0.0
 11
1890.464275555623
 21
-3064.698324420197
 31
0.0
  0
LINE
  5
12B
330
1F
100
AcDbEntity
  8
1
  6
Continuous
 62
     5
100
AcDbLine
 10
953.463779337821
 20
-3041.698820330847
 30
0.0
 11
983.4977772285192
 21
-3041.698820330849
 31
0.0
  0
LINE
  5
12C
330
1F
100
AcDbEntity
  8
1
  6
Continuous
 62
     7
100
AcDbLine
 10
953.4977776449923
 20
-3015.698820330846
 30
0.0
 11
953.4977776449923
 21
-3021.698820330851
 31
0.0
  0
LINE
  5
12D
330
1F
100
AcDbEntity
  8
1
  6
Continuous
 62
     7
100
AcDbLine
 10
954.4977776449955
 20
-3022.698820330851
 30
0.0
 11
1912.497777644992
 21
-3022.698820330849
 31
0.0
  0
LINE
  5
12E
330
1F
100
AcDbEntity
  8
1
  6
Continuous
 62
     7
100
AcDbLine
 10
1912.497777644992
 20
-3014.698820330849
 30
0.0
 11
954.4977776449923
 21
-3014.698820330849
 31
0.0
  0
LINE
  5
12F
330
1F
100
AcDbEntity
  8
0
  6
Continuous
 62
     5
100
AcDbLine
 10
-1246.048910040733
 20
-3212.250623186952
 30
0.0
 11
-1246.502222424583
 21
-3207.898820330847
 31
0.0
  0
LINE
  5
130
330
1F
100
AcDbEntity
  8
0
  6
Continuous
 62
     5
100
AcDbLine
 10
-1246.048910040733
 20
-3212.250623186952
 30
0.0
 11
-1246.502222424583
 21
-3207.898820330847
 31
0.0
  0
LINE
  5
131
330
1F
100
AcDbEntity
  8
1
  6
Continuous
 62
     5
100
AcDbLine
 10
-1246.502222662159
 20
-3050.709267675078
 30
0.0
 11
-1246.502222662159
 21
-3207.898820330847
 31
0.0
  0
LINE
  5
132
330
1F
100
AcDbEntity
  8
1
  6
Continuous
 62
     5
100
AcDbLine
 10
-1125.435317084249
 20
-3207.898817013397
 30
0.0
 11
-1125.435317084249
 21
-3050.709267675078
 31
0.0
  0
LINE
  5
133
330
1F
100
AcDbEntity
  8
1
  6
Continuous
 62
     5
100
AcDbLine
 10
-1245.5516005617
 20
-3212.698820330841
 30
0.0
 11
-1126.385907289717
 21
-3212.698820330841
 31
0.0
  0
LINE
  5
134
330
1F
100
AcDbEntity
  8
1
  6
Continuous
 62
     5
100
AcDbLine
 10
-1246.502222662159
 20
-3207.898820330847
 30
0.0
 11
-1125.435317084249
 21
-3207.898817013397
 31
0.0
  0
LINE
  5
135
330
1F
100
AcDbEntity
  8
1
  6
Continuous
 62
     5
100
AcDbLine
 10
-167.569128240069
 20
-3207.898817013397
 30
0.0
 11
-46.50222266215906
 21
-3207.898820330847
 31
0.0
  0
LINE
  5
136
330
1F
100
AcDbEntity
  8
1
  6
Continuous
 62
     5
100
AcDbLine
 10
-166.618538034601
 20
-3212.698820330841
 30
0.0
 11
-47.4528447626185
 21
-3212.698820330841
 31
0.0
  0
LINE
  5
137
330
1F
100
AcDbEntity
  8
1
  6
Continuous
 62
     5
100
AcDbLine
 10
-167.569128240069
 20
-3050.709267675078
 30
0.0
 11
-167.569128240069
 21
-3207.898817013397
 31
0.0
  0
LINE
  5
138
330
1F
100
AcDbEntity
  8
1
  6
Continuous
 62
     5
100
AcDbLine
 10
-46.50222266215906
 20
-3207.898820330847
 30
0.0
 11
-46.50222266215906
 21
-3050.709267675078
 31
0.0
  0
LINE
  5
139
330
1F
100
AcDbEntity
  8
0
  6
Continuous
 62
     5
100
AcDbLine
 10
-46.50222289973544
 20
-3207.898820330847
 30
0.0
 11
-46.95553528358551
 21
-3212.250623186952
 31
0.0
  0
LINE
  5
13A
330
1F
100
AcDbEntity
  8
0
  6
Continuous
 62
     5
100
AcDbLine
 10
-46.50222289973544
 20
-3207.898820330847
 30
0.0
 11
-46.95553528358551
 21
-3212.250623186952
 31
0.0
  0
LINE
  5
13B
330
1F
100
AcDbEntity
  8
0
  6
Continuous
 62
     5
100
AcDbLine
 10
-167.569128240069
 20
-3207.898817013397
 30
0.0
 11
-167.1158472382999
 21
-3212.250623371113
 31
0.0
  0
LINE
  5
13C
330
1F
100
AcDbEntity
  8
0
  6
Continuous
 62
     5
100
AcDbLine
 10
-167.569128240069
 20
-3207.898817013397
 30
0.0
 11
-167.1158472382999
 21
-3212.250623371113
 31
0.0
  0
LINE
  5
13D
330
1F
100
AcDbEntity
  8
1
  6
Continuous
 62
     7
100
AcDbLine
 10
-47.46822466214007
 20
-3014.698820330841
 30
0.0
 11
-1245.502222662159
 21
-3014.698820330841
 31
0.0
  0
LINE
  5
13E
330
1F
100
AcDbEntity
  8
1
  6
Continuous
 62
     7
100
AcDbLine
 10
-1245.502222662155
 20
-3022.698820330843
 30
0.0
 11
-47.46822466214007
 21
-3022.698820330841
 31
0.0
  0
LINE
  5
13F
330
1F
100
AcDbEntity
  8
1
  6
Continuous
 62
     7
100
AcDbLine
 10
-1246.502222662159
 20
-3015.698820330838
 30
0.0
 11
-1246.502222662159
 21
-3021.698820330843
 31
0.0
  0
LINE
  5
140
330
1F
100
AcDbEntity
  8
0
  6
Continuous
 62
     7
100
AcDbLine
 10
-46.46822466214007
 20
-3015.698820330841
 30
0.0
 11
-46.46822466214007
 21
-3021.698820330841
 31
0.0
  0
LINE
  5
141
330
1F
100
AcDbEntity
  8
0
  6
Continuous
 62
     7
100
AcDbLine
 10
-1245.502222662155
 20
-3022.698820330843
 30
0.0
 11
-1246.502222662159
 21
-3021.698820330843
 31
0.0
  0
LINE
  5
142
330
1F
100
AcDbEntity
  8
0
  6
Continuous
 62
     7
100
AcDbLine
 10
-47.46822466214007
 20
-3014.698820330841
 30
0.0
 11
-46.46822466214007
 21
-3015.698820330841
 31
0.0
  0
LINE
  5
143
330
1F
100
AcDbEntity
  8
0
  6
Continuous
 62
     7
100
AcDbLine
 10
-1245.502222662155
 20
-3014.698820330838
 30
0.0
 11
-1246.502222662159
 21
-3015.698820330838
 31
0.0
  0
LINE
  5
144
330
1F
100
AcDbEntity
  8
0
  6
Continuous
 62
     7
100
AcDbLine
 10
-47.46822466214007
 20
-3022.698820330841
 30
0.0
 11
-46.46822466214007
 21
-3021.698820330841
 31
0.0
  0
LINE
  5
145
330
1F
100
AcDbEntity
  8
0
  6
Continuous
 62
     7
100
AcDbLine
 10
-46.46822466214007
 20
-3015.698820330841
 30
0.0
 11
-46.46822466214007
 21
-3021.698820330841
 31
0.0
  0
LINE
  5
146
330
1F
100
AcDbEntity
  8
0
  6
Continuous
 62
     7
100
AcDbLine
 10
-1245.502222662155
 20
-3022.698820330843
 30
0.0
 11
-1246.502222662159
 21
-3021.698820330843
 31
0.0
  0
LINE
  5
147
330
1F
100
AcDbEntity
  8
0
  6
Continuous
 62
     7
100
AcDbLine
 10
-47.46822466214007
 20
-3014.698820330841
 30
0.0
 11
-46.46822466214007
 21
-3015.698820330841
 31
0.0
  0
LINE
  5
148
330
1F
100
AcDbEntity
  8
0
  6
Continuous
 62
     7
100
AcDbLine
 10
-1245.502222662155
 20
-3014.698820330838
 30
0.0
 11
-1246.502222662159
 21
-3015.698820330838
 31
0.0
  0
LINE
  5
149
330
1F
100
AcDbEntity
  8
0
  6
Continuous
 62
     7
100
AcDbLine
 10
-47.46822466214007
 20
-3022.698820330841
 30
0.0
 11
-46.46822466214007
 21
-3021.698820330841
 31
0.0
  0
LINE
  5
14A
330
1F
100
AcDbEntity
  8
0
  6
Continuous
 62
     7
100
AcDbLine
 10
-76.46822507861316
 20
-3041.698820330841
 30
0.0
 11
-76.46822507861316
 21
-3022.698820330841
 31
0.0
  0
LINE
  5
14B
330
1F
100
AcDbEntity
  8
0
  6
Continuous
 62
     7
100
AcDbLine
 10
-1216.502223078632
 20
-3041.698820330841
 30
0.0
 11
-1216.502223078632
 21
-3022.698820330841
 31
0.0
  0
LINE
  5
14C
330
1F
100
AcDbEntity
  8
1
  6
Continuous
 62
     5
100
AcDbLine
 10
-1245.07528272674
 20
-3041.698820330839
 30
0.0
 11
-1216.502223078632
 21
-3041.698820330841
 31
0.0
  0
LINE
  5
14D
330
1F
100
AcDbEntity
  8
1
  6
Continuous
 62
     5
100
AcDbLine
 10
-6165.56916799008
 20
-3041.698820330847
 30
0.0
 11
-6188.56867207943
 21
-3064.698324420197
 31
0.0
  0
LINE
  5
14E
330
1F
100
AcDbEntity
  8
0
  6
Continuous
 62
     5
100
AcDbLine
 10
-6182.831006168005
 20
-3212.698824382707
 30
0.0
 11
-6166.519483314894
 21
-3212.698820330848
 31
0.0
  0
LINE
  5
14F
330
1F
100
AcDbEntity
  8
0
  6
Continuous
 62
     5
100
AcDbLine
 10
-6182.839198122899
 20
-3207.898820332106
 30
0.0
 11
-6166.457792391103
 21
-3207.898819851306
 31
0.0
  0
LINE
  5
150
330
1F
100
AcDbEntity
  8
0
  6
Continuous
 62
     5
100
AcDbLine
 10
-6188.568456659906
 20
-3207.898820332062
 30
0.0
 11
-6183.712964649855
 21
-3207.898820332274
 31
0.0
  0
LINE
  5
151
330
1F
100
AcDbEntity
  8
0
  6
Continuous
 62
     5
100
AcDbLine
 10
-6188.56867207943
 20
-3207.698820330848
 30
0.0
 11
-6188.568456659906
 21
-3207.898820332062
 31
0.0
  0
LINE
  5
152
330
1F
100
AcDbEntity
  8
0
  6
Continuous
 62
     5
100
AcDbLine
 10
-6188.115044906726
 20
-3212.250634433806
 30
0.0
 11
-6188.568456659906
 21
-3207.898820332062
 31
0.0
  0
LINE
  5
153
330
1F
100
AcDbEntity
  8
0
  6
Continuous
 62
     5
100
AcDbLine
 10
-6166.022165899319
 20
-3212.250641727042
 30
0.0
 11
-6165.568959043546
 21
-3207.898820332057
 31
0.0
  0
LINE
  5
154
330
1F
100
AcDbEntity
  8
0
  6
Continuous
 62
     5
100
AcDbLine
 10
-6182.831006168005
 20
-3212.698824382707
 30
0.0
 11
-6187.61773566876
 21
-3212.698820330845
 31
0.0
  0
LINE
  5
155
330
1F
100
AcDbEntity
  8
0
  6
Continuous
 62
     5
100
AcDbLine
 10
-6179.709856115014
 20
-3207.698820330849
 30
0.0
 11
-6179.056665788489
 21
-3207.698820331461
 31
0.0
  0
LINE
  5
156
330
1F
100
AcDbEntity
  8
0
  6
Continuous
 62
     5
100
AcDbLine
 10
-6179.056665788489
 20
-3207.698820331461
 30
0.0
 11
-6178.687578719159
 21
-3207.698820330848
 31
0.0
  0
LINE
  5
157
330
1F
100
AcDbEntity
  8
0
  6
Continuous
 62
     5
100
AcDbLine
 10
-6182.835290444692
 20
-3207.698820330848
 30
0.0
 11
-6182.8312194542
 21
-3207.698820330848
 31
0.0
  0
LINE
  5
158
330
1F
100
AcDbEntity
  8
0
  6
Continuous
 62
     5
100
AcDbLine
 10
-6178.687578719159
 20
-3207.698820330848
 30
0.0
 11
-6178.521130212338
 21
-3207.698820330848
 31
0.0
  0
LINE
  5
159
330
1F
100
AcDbEntity
  8
0
  6
Continuous
 62
     5
100
AcDbLine
 10
-6183.058180732577
 20
-3207.698820330848
 30
0.0
 11
-6182.835290444692
 21
-3207.698820330848
 31
0.0
  0
LINE
  5
15A
330
1F
100
AcDbEntity
  8
0
  6
Continuous
 62
     5
100
AcDbLine
 10
-6183.626945371912
 20
-3207.698820330849
 30
0.0
 11
-6183.058180732577
 21
-3207.698820330848
 31
0.0
  0
LINE
  5
15B
330
1F
100
AcDbEntity
  8
0
  6
Continuous
 62
     5
100
AcDbLine
 10
-6182.8312194542
 20
-3207.698820330848
 30
0.0
 11
-6179.709856115014
 21
-3207.698820330849
 31
0.0
  0
LINE
  5
15C
330
1F
100
AcDbEntity
  8
0
  6
Continuous
 62
     5
100
AcDbLine
 10
-6183.713841061709
 20
-3207.698820330848
 30
0.0
 11
-6183.677238038185
 21
-3207.698820330848
 31
0.0
  0
LINE
  5
15D
330
1F
100
AcDbEntity
  8
0
  6
Continuous
 62
     5
100
AcDbLine
 10
-6184.631260046438
 20
-3207.698820330848
 30
0.0
 11
-6184.518177535813
 21
-3207.698820330848
 31
0.0
  0
LINE
  5
15E
330
1F
100
AcDbEntity
  8
0
  6
Continuous
 62
     5
100
AcDbLine
 10
-6184.518177535813
 20
-3207.698820330848
 30
0.0
 11
-6183.713841061709
 21
-3207.698820330848
 31
0.0
  0
LINE
  5
15F
330
1F
100
AcDbEntity
  8
0
  6
Continuous
 62
     5
100
AcDbLine
 10
-6183.677238038185
 20
-3207.698820330848
 30
0.0
 11
-6183.626945371912
 21
-3207.698820330849
 31
0.0
  0
LINE
  5
160
330
1F
100
AcDbEntity
  8
0
  6
Continuous
 62
     5
100
AcDbLine
 10
-6185.344953303705
 20
-3207.698820330848
 30
0.0
 11
-6185.052147747686
 21
-3207.698820330848
 31
0.0
  0
LINE
  5
161
330
1F
100
AcDbEntity
  8
0
  6
Continuous
 62
     5
100
AcDbLine
 10
-6185.516273556029
 20
-3207.698820330848
 30
0.0
 11
-6185.344953303705
 21
-3207.698820330848
 31
0.0
  0
LINE
  5
162
330
1F
100
AcDbEntity
  8
0
  6
Continuous
 62
     5
100
AcDbLine
 10
-6185.052147747686
 20
-3207.698820330848
 30
0.0
 11
-6184.768391138462
 21
-3207.698820330848
 31
0.0
  0
LINE
  5
163
330
1F
100
AcDbEntity
  8
0
  6
Continuous
 62
     5
100
AcDbLine
 10
-6184.768391138462
 20
-3207.698820330848
 30
0.0
 11
-6184.631260046438
 21
-3207.698820330848
 31
0.0
  0
LINE
  5
164
330
1F
100
AcDbEntity
  8
0
  6
Continuous
 62
     5
100
AcDbLine
 10
-6170.818953246856
 20
-3207.698820330849
 30
0.0
 11
-6170.56916799008
 21
-3207.698820330848
 31
0.0
  0
LINE
  5
165
330
1F
100
AcDbEntity
  8
0
  6
Continuous
 62
     5
100
AcDbLine
 10
-6174.806842843068
 20
-3207.698820330848
 30
0.0
 11
-6173.784136843061
 21
-3207.698820330849
 31
0.0
  0
LINE
  5
166
330
1F
100
AcDbEntity
  8
0
  6
Continuous
 62
     5
100
AcDbLine
 10
-6169.619245651596
 20
-3207.698820330848
 30
0.0
 11
-6169.369454092646
 21
-3207.698820330848
 31
0.0
  0
LINE
  5
167
330
1F
100
AcDbEntity
  8
0
  6
Continuous
 62
     5
100
AcDbLine
 10
-6170.56916799008
 20
-3207.698820330848
 30
0.0
 11
-6169.619245651596
 21
-3207.698820330848
 31
0.0
  0
LINE
  5
168
330
1F
100
AcDbEntity
  8
0
  6
Continuous
 62
     5
100
AcDbLine
 10
-6169.369454092646
 20
-3207.698820330848
 30
0.0
 11
-6168.818963206458
 21
-3207.698820330848
 31
0.0
  0
LINE
  5
169
330
1F
100
AcDbEntity
  8
0
  6
Continuous
 62
     5
100
AcDbLine
 10
-6168.818963206458
 20
-3207.698820330848
 30
0.0
 11
-6166.462874156746
 21
-3207.698820330848
 31
0.0
  0
LINE
  5
16A
330
1F
100
AcDbEntity
  8
0
  6
Continuous
 62
     5
100
AcDbLine
 10
-6166.462874156746
 20
-3207.698820330848
 30
0.0
 11
-6166.235631994995
 21
-3207.698820371523
 31
0.0
  0
LINE
  5
16B
330
1F
100
AcDbEntity
  8
0
  6
Continuous
 62
     5
100
AcDbLine
 10
-6166.235631994995
 20
-3207.698820371523
 30
0.0
 11
-6165.568963555851
 21
-3207.698820330849
 31
0.0
  0
LINE
  5
16C
330
1F
100
AcDbEntity
  8
0
  6
Continuous
 62
     5
100
AcDbLine
 10
-6173.784136843061
 20
-3207.698820330849
 30
0.0
 11
-6170.818953246856
 21
-3207.698820330849
 31
0.0
  0
LINE
  5
16D
330
1F
100
AcDbEntity
  8
0
  6
Continuous
 62
     5
100
AcDbLine
 10
-6188.56867207943
 20
-3207.698820330848
 30
0.0
 11
-6185.516273556029
 21
-3207.698820330848
 31
0.0
  0
LINE
  5
16E
330
1F
100
AcDbEntity
  8
0
  6
Continuous
 62
     5
100
AcDbLine
 10
-6178.521130212338
 20
-3207.698820330848
 30
0.0
 11
-6174.97329134989
 21
-3207.698820330848
 31
0.0
  0
LINE
  5
16F
330
1F
100
AcDbEntity
  8
0
  6
Continuous
 62
     5
100
AcDbLine
 10
-6174.97329134989
 20
-3207.698820330848
 30
0.0
 11
-6174.806842843068
 21
-3207.698820330848
 31
0.0
  0
LINE
  5
170
330
1F
100
AcDbEntity
  8
0
  6
Continuous
 62
     5
100
AcDbLine
 10
-6179.709856115014
 20
-3207.698820330849
 30
0.0
 11
-6179.056665788489
 21
-3207.698820331461
 31
0.0
  0
LINE
  5
171
330
1F
100
AcDbEntity
  8
0
  6
Continuous
 62
     5
100
AcDbLine
 10
-6179.056665788489
 20
-3207.698820331461
 30
0.0
 11
-6178.687578719159
 21
-3207.698820330848
 31
0.0
  0
LINE
  5
172
330
1F
100
AcDbEntity
  8
0
  6
Continuous
 62
     5
100
AcDbLine
 10
-6182.835290444692
 20
-3207.698820330848
 30
0.0
 11
-6182.8312194542
 21
-3207.698820330848
 31
0.0
  0
LINE
  5
173
330
1F
100
AcDbEntity
  8
0
  6
Continuous
 62
     5
100
AcDbLine
 10
-6178.687578719159
 20
-3207.698820330848
 30
0.0
 11
-6178.521130212338
 21
-3207.698820330848
 31
0.0
  0
LINE
  5
174
330
1F
100
AcDbEntity
  8
0
  6
Continuous
 62
     5
100
AcDbLine
 10
-6183.058180733814
 20
-3207.698820331119
 30
0.0
 11
-6182.835290444692
 21
-3207.698820330848
 31
0.0
  0
LINE
  5
175
330
1F
100
AcDbEntity
  8
0
  6
Continuous
 62
     5
100
AcDbLine
 10
-6183.626945371912
 20
-3207.698820330849
 30
0.0
 11
-6183.058180733814
 21
-3207.698820331119
 31
0.0
  0
LINE
  5
176
330
1F
100
AcDbEntity
  8
0
  6
Continuous
 62
     5
100
AcDbLine
 10
-6182.8312194542
 20
-3207.698820330848
 30
0.0
 11
-6179.709856115014
 21
-3207.698820330849
 31
0.0
  0
LINE
  5
177
330
1F
100
AcDbEntity
  8
0
  6
Continuous
 62
     5
100
AcDbLine
 10
-6183.713841061709
 20
-3207.698820330848
 30
0.0
 11
-6183.677238039064
 21
-3207.698820330883
 31
0.0
  0
LINE
  5
178
330
1F
100
AcDbEntity
  8
0
  6
Continuous
 62
     5
100
AcDbLine
 10
-6184.631260046438
 20
-3207.698820330848
 30
0.0
 11
-6184.518177535813
 21
-3207.698820330848
 31
0.0
  0
LINE
  5
179
330
1F
100
AcDbEntity
  8
0
  6
Continuous
 62
     5
100
AcDbLine
 10
-6184.518177535813
 20
-3207.698820330848
 30
0.0
 11
-6183.713841061709
 21
-3207.698820330848
 31
0.0
  0
LINE
  5
17A
330
1F
100
AcDbEntity
  8
0
  6
Continuous
 62
     5
100
AcDbLine
 10
-6183.677238039064
 20
-3207.698820330883
 30
0.0
 11
-6183.626945371912
 21
-3207.698820330849
 31
0.0
  0
LINE
  5
17B
330
1F
100
AcDbEntity
  8
0
  6
Continuous
 62
     5
100
AcDbLine
 10
-6185.344953303705
 20
-3207.698820330848
 30
0.0
 11
-6185.052147747686
 21
-3207.698820330848
 31
0.0
  0
LINE
  5
17C
330
1F
100
AcDbEntity
  8
0
  6
Continuous
 62
     5
100
AcDbLine
 10
-6185.516273556029
 20
-3207.698820330848
 30
0.0
 11
-6185.344953303705
 21
-3207.698820330848
 31
0.0
  0
LINE
  5
17D
330
1F
100
AcDbEntity
  8
0
  6
Continuous
 62
     5
100
AcDbLine
 10
-6185.052147747686
 20
-3207.698820330848
 30
0.0
 11
-6184.768391138462
 21
-3207.698820330848
 31
0.0
  0
LINE
  5
17E
330
1F
100
AcDbEntity
  8
0
  6
Continuous
 62
     5
100
AcDbLine
 10
-6184.768391138462
 20
-3207.698820330848
 30
0.0
 11
-6184.631260046438
 21
-3207.698820330848
 31
0.0
  0
LINE
  5
17F
330
1F
100
AcDbEntity
  8
0
  6
Continuous
 62
     5
100
AcDbLine
 10
-6165.56916799008
 20
-3207.698820330848
 30
0.0
 11
-6165.56916799008
 21
-3041.698820330847
 31
0.0
  0
LINE
  5
180
330
1F
100
AcDbEntity
  8
0
  6
Continuous
 62
     5
100
AcDbLine
 10
-6170.818953246856
 20
-3207.698820330849
 30
0.0
 11
-6170.56916799008
 21
-3207.698820330848
 31
0.0
  0
LINE
  5
181
330
1F
100
AcDbEntity
  8
0
  6
Continuous
 62
     5
100
AcDbLine
 10
-6174.806842843068
 20
-3207.698820330848
 30
0.0
 11
-6173.784136843061
 21
-3207.698820330849
 31
0.0
  0
LINE
  5
182
330
1F
100
AcDbEntity
  8
0
  6
Continuous
 62
     5
100
AcDbLine
 10
-6169.619245651596
 20
-3207.698820330848
 30
0.0
 11
-6169.369454092646
 21
-3207.698820330848
 31
0.0
  0
LINE
  5
183
330
1F
100
AcDbEntity
  8
0
  6
Continuous
 62
     5
100
AcDbLine
 10
-6170.56916799008
 20
-3207.698820330848
 30
0.0
 11
-6169.619245651596
 21
-3207.698820330848
 31
0.0
  0
LINE
  5
184
330
1F
100
AcDbEntity
  8
0
  6
Continuous
 62
     5
100
AcDbLine
 10
-6169.369454092646
 20
-3207.698820330848
 30
0.0
 11
-6168.818963206458
 21
-3207.698820330848
 31
0.0
  0
LINE
  5
185
330
1F
100
AcDbEntity
  8
0
  6
Continuous
 62
     5
100
AcDbLine
 10
-6168.818963206458
 20
-3207.698820330848
 30
0.0
 11
-6166.462874156746
 21
-3207.698820330848
 31
0.0
  0
LINE
  5
186
330
1F
100
AcDbEntity
  8
0
  6
Continuous
 62
     5
100
AcDbLine
 10
-6166.462874156746
 20
-3207.698820330848
 30
0.0
 11
-6166.235632027646
 21
-3207.698820351186
 31
0.0
  0
LINE
  5
187
330
1F
100
AcDbEntity
  8
0
  6
Continuous
 62
     5
100
AcDbLine
 10
-6166.235632027646
 20
-3207.698820351186
 30
0.0
 11
-6165.56916799008
 21
-3207.698820330848
 31
0.0
  0
LINE
  5
188
330
1F
100
AcDbEntity
  8
0
  6
Continuous
 62
     5
100
AcDbLine
 10
-6173.784136843061
 20
-3207.698820330849
 30
0.0
 11
-6170.818953246856
 21
-3207.698820330849
 31
0.0
  0
LINE
  5
189
330
1F
100
AcDbEntity
  8
0
  6
Continuous
 62
     5
100
AcDbLine
 10
-6188.56867207943
 20
-3207.698820330848
 30
0.0
 11
-6185.516273556029
 21
-3207.698820330848
 31
0.0
  0
LINE
  5
18A
330
1F
100
AcDbEntity
  8
0
  6
Continuous
 62
     5
100
AcDbLine
 10
-6188.56867207943
 20
-3207.698820330848
 30
0.0
 11
-6188.56867207943
 21
-3064.698324420197
 31
0.0
  0
LINE
  5
18B
330
1F
100
AcDbEntity
  8
0
  6
Continuous
 62
     5
100
AcDbLine
 10
-6178.521130212338
 20
-3207.698820330848
 30
0.0
 11
-6174.97329134989
 21
-3207.698820330848
 31
0.0
  0
LINE
  5
18C
330
1F
100
AcDbEntity
  8
0
  6
Continuous
 62
     5
100
AcDbLine
 10
-6174.97329134989
 20
-3207.698820330848
 30
0.0
 11
-6174.806842843068
 21
-3207.698820330848
 31
0.0
  0
LINE
  5
18D
330
1F
100
AcDbEntity
  8
0
  6
Continuous
 62
     7
100
AcDbLine
 10
-6165.535169990061
 20
-3015.698820330849
 30
0.0
 11
-6165.535169990061
 21
-3021.698820330849
 31
0.0
  0
LINE
  5
18E
330
1F
100
AcDbEntity
  8
0
  6
Continuous
 62
     7
100
AcDbLine
 10
-6166.535169990061
 20
-3014.698820330849
 30
0.0
 11
-6165.535169990061
 21
-3015.698820330849
 31
0.0
  0
LINE
  5
18F
330
1F
100
AcDbEntity
  8
0
  6
Continuous
 62
     7
100
AcDbLine
 10
-6166.535169990061
 20
-3022.698820330849
 30
0.0
 11
-6165.535169990061
 21
-3021.698820330849
 31
0.0
  0
LINE
  5
190
330
1F
100
AcDbEntity
  8
0
  6
Continuous
 62
     7
100
AcDbLine
 10
-6165.535169990061
 20
-3015.698820330849
 30
0.0
 11
-6165.535169990061
 21
-3021.698820330849
 31
0.0
  0
LINE
  5
191
330
1F
100
AcDbEntity
  8
0
  6
Continuous
 62
     7
100
AcDbLine
 10
-6166.535169990061
 20
-3014.698820330849
 30
0.0
 11
-6165.535169990061
 21
-3015.698820330849
 31
0.0
  0
LINE
  5
192
330
1F
100
AcDbEntity
  8
0
  6
Continuous
 62
     7
100
AcDbLine
 10
-6166.535169990061
 20
-3022.698820330849
 30
0.0
 11
-6165.535169990061
 21
-3021.698820330849
 31
0.0
  0
LINE
  5
193
330
1F
100
AcDbEntity
  8
0
  6
Continuous
 62
     7
100
AcDbLine
 10
-6195.535170406534
 20
-3041.698820330849
 30
0.0
 11
-6195.535170406534
 21
-3022.698820330849
 31
0.0
  0
LINE
  5
194
330
1F
100
AcDbEntity
  8
0
  6
Continuous
 62
     7
100
AcDbLine
 10
-6615.535170099382
 20
-3041.698820330849
 30
0.0
 11
-6615.535170099382
 21
-3022.698820330849
 31
0.0
  0
LINE
  5
195
330
1F
100
AcDbEntity
  8
0
  6
Continuous
 62
     7
100
AcDbLine
 10
-6644.535169682906
 20
-3014.698820330846
 30
0.0
 11
-6645.535169682909
 21
-3015.698820330846
 31
0.0
  0
LINE
  5
196
330
1F
100
AcDbEntity
  8
0
  6
Continuous
 62
     7
100
AcDbLine
 10
-6644.535169682906
 20
-3022.698820330851
 30
0.0
 11
-6645.535169682909
 21
-3021.698820330851
 31
0.0
  0
LINE
  5
197
330
1F
100
AcDbEntity
  8
0
  6
Continuous
 62
     7
100
AcDbLine
 10
-6644.535169682906
 20
-3014.698820330846
 30
0.0
 11
-6645.535169682909
 21
-3015.698820330846
 31
0.0
  0
LINE
  5
198
330
1F
100
AcDbEntity
  8
0
  6
Continuous
 62
     7
100
AcDbLine
 10
-6644.535169682906
 20
-3022.698820330851
 30
0.0
 11
-6645.535169682909
 21
-3021.698820330851
 31
0.0
  0
LINE
  5
199
330
1F
100
AcDbEntity
  8
0
  6
Continuous
 62
     5
100
AcDbLine
 10
-8484.92154541392
 20
-3212.250623371113
 30
0.0
 11
-8484.468264412151
 21
-3207.898817013397
 31
0.0
  0
LINE
  5
19A
330
1F
100
AcDbEntity
  8
0
  6
Continuous
 62
     5
100
AcDbLine
 10
-8484.92154541392
 20
-3212.250623371113
 30
0.0
 11
-8484.468264412151
 21
-3207.898817013397
 31
0.0
  0
LINE
  5
19B
330
1F
100
AcDbEntity
  8
0
  6
Continuous
 62
     5
100
AcDbLine
 10
-6622.569663900729
 20
-3207.69882033085
 30
0.0
 11
-6622.569665018178
 21
-3207.898820332063
 31
0.0
  0
LINE
  5
19C
330
1F
100
AcDbEntity
  8
0
  6
Continuous
 62
     5
100
AcDbLine
 10
-6623.023076771357
 20
-3212.250634433807
 30
0.0
 11
-6622.569665018178
 21
-3207.898820332063
 31
0.0
  0
LINE
  5
19D
330
1F
100
AcDbEntity
  8
0
  6
Continuous
 62
     5
100
AcDbLine
 10
-6645.569175592107
 20
-3207.898820332058
 30
0.0
 11
-6645.115961534304
 21
-3212.250612333164
 31
0.0
  0
LINE
  5
19E
330
1F
100
AcDbEntity
  8
0
  6
Continuous
 62
     5
100
AcDbLine
 10
-6622.569663900729
 20
-3207.69882033085
 30
0.0
 11
-6622.569663900731
 21
-3064.698324420197
 31
0.0
  0
LINE
  5
19F
330
1F
100
AcDbEntity
  8
0
  6
Continuous
 62
     5
100
AcDbLine
 10
-6645.569167990079
 20
-3207.69882033085
 30
0.0
 11
-6645.569167990081
 21
-3041.698820330847
 31
0.0
  0
LINE
  5
1A0
330
1F
100
AcDbEntity
  8
1
  6
Continuous
 62
     5
100
AcDbLine
 10
-6644.618651180001
 20
-3212.69882033085
 30
0.0
 11
-6623.520386009324
 21
-3212.69882033085
 31
0.0
  0
LINE
  5
1A1
330
1F
100
AcDbEntity
  8
1
  6
Continuous
 62
     5
100
AcDbLine
 10
-6645.569175592107
 20
-3207.898820332058
 30
0.0
 11
-6622.569663900729
 21
-3207.898820332058
 31
0.0
  0
LINE
  5
1A2
330
1F
100
AcDbEntity
  8
1
  6
Continuous
 62
     5
100
AcDbLine
 10
-6188.56867207943
 20
-3064.698324420197
 30
0.0
 11
-6622.569663900731
 21
-3064.698324420197
 31
0.0
  0
LINE
  5
1A3
330
1F
100
AcDbEntity
  8
1
  6
Continuous
 62
     5
100
AcDbLine
 10
-6645.569167990081
 20
-3041.698820330847
 30
0.0
 11
-6622.569663900731
 21
-3064.698324420197
 31
0.0
  0
LINE
  5
1A4
330
1F
100
AcDbEntity
  8
1
  6
Continuous
 62
     5
100
AcDbLine
 10
-6645.569167990081
 20
-3041.698820330847
 30
0.0
 11
-6615.535170099382
 21
-3041.698820330849
 31
0.0
  0
LINE
  5
1A5
330
1F
100
AcDbEntity
  8
1
  6
Continuous
 62
     7
100
AcDbLine
 10
-6645.535169682909
 20
-3015.698820330846
 30
0.0
 11
-6645.535169682909
 21
-3021.698820330851
 31
0.0
  0
LINE
  5
1A6
330
1F
100
AcDbEntity
  8
1
  6
Continuous
 62
     7
100
AcDbLine
 10
-6644.535169682906
 20
-3022.698820330851
 30
0.0
 11
-6166.535169990061
 21
-3022.698820330849
 31
0.0
  0
LINE
  5
1A7
330
1F
100
AcDbEntity
  8
1
  6
Continuous
 62
     7
100
AcDbLine
 10
-6166.535169990061
 20
-3014.698820330849
 30
0.0
 11
-6644.535169682909
 21
-3014.698820330849
 31
0.0
  0
LINE
  5
1A8
330
1F
100
AcDbEntity
  8
0
  6
Continuous
 62
     5
100
AcDbLine
 10
-8605.081857368634
 20
-3212.250623186952
 30
0.0
 11
-8605.535169752484
 21
-3207.898820330847
 31
0.0
  0
LINE
  5
1A9
330
1F
100
AcDbEntity
  8
0
  6
Continuous
 62
     5
100
AcDbLine
 10
-8605.081857368634
 20
-3212.250623186952
 30
0.0
 11
-8605.535169752484
 21
-3207.898820330847
 31
0.0
  0
LINE
  5
1AA
330
1F
100
AcDbEntity
  8
1
  6
Continuous
 62
     5
100
AcDbLine
 10
-8605.53516999006
 20
-3050.709267675078
 30
0.0
 11
-8605.53516999006
 21
-3207.898820330847
 31
0.0
  0
LINE
  5
1AB
330
1F
100
AcDbEntity
  8
1
  6
Continuous
 62
     5
100
AcDbLine
 10
-8484.468264412151
 20
-3207.898817013397
 30
0.0
 11
-8484.468264412151
 21
-3050.709267675078
 31
0.0
  0
LINE
  5
1AC
330
1F
100
AcDbEntity
  8
1
  6
Continuous
 62
     5
100
AcDbLine
 10
-8604.5845478896
 20
-3212.698820330841
 30
0.0
 11
-8485.41885461762
 21
-3212.698820330841
 31
0.0
  0
LINE
  5
1AD
330
1F
100
AcDbEntity
  8
1
  6
Continuous
 62
     5
100
AcDbLine
 10
-8605.53516999006
 20
-3207.898820330847
 30
0.0
 11
-8484.468264412151
 21
-3207.898817013397
 31
0.0
  0
LINE
  5
1AE
330
1F
100
AcDbEntity
  8
1
  6
Continuous
 62
     5
100
AcDbLine
 10
-7766.63607356799
 20
-3207.898817013397
 30
0.0
 11
-7645.569167990079
 21
-3207.898820330847
 31
0.0
  0
LINE
  5
1AF
330
1F
100
AcDbEntity
  8
1
  6
Continuous
 62
     5
100
AcDbLine
 10
-7765.685483362522
 20
-3212.698820330841
 30
0.0
 11
-7646.519790090539
 21
-3212.698820330841
 31
0.0
  0
LINE
  5
1B0
330
1F
100
AcDbEntity
  8
1
  6
Continuous
 62
     5
100
AcDbLine
 10
-7766.63607356799
 20
-3050.709267675078
 30
0.0
 11
-7766.63607356799
 21
-3207.898817013397
 31
0.0
  0
LINE
  5
1B1
330
1F
100
AcDbEntity
  8
1
  6
Continuous
 62
     5
100
AcDbLine
 10
-7645.569167990079
 20
-3207.898820330847
 30
0.0
 11
-7645.569167990079
 21
-3050.709267675078
 31
0.0
  0
LINE
  5
1B2
330
1F
100
AcDbEntity
  8
0
  6
Continuous
 62
     5
100
AcDbLine
 10
-7645.569168227656
 20
-3207.898820330847
 30
0.0
 11
-7646.022480611506
 21
-3212.250623186952
 31
0.0
  0
LINE
  5
1B3
330
1F
100
AcDbEntity
  8
0
  6
Continuous
 62
     5
100
AcDbLine
 10
-7645.569168227656
 20
-3207.898820330847
 30
0.0
 11
-7646.022480611506
 21
-3212.250623186952
 31
0.0
  0
LINE
  5
1B4
330
1F
100
AcDbEntity
  8
0
  6
Continuous
 62
     5
100
AcDbLine
 10
-7766.63607356799
 20
-3207.898817013397
 30
0.0
 11
-7766.18279256622
 21
-3212.250623371113
 31
0.0
  0
LINE
  5
1B5
330
1F
100
AcDbEntity
  8
0
  6
Continuous
 62
     5
100
AcDbLine
 10
-7766.63607356799
 20
-3207.898817013397
 30
0.0
 11
-7766.18279256622
 21
-3212.250623371113
 31
0.0
  0
LINE
  5
1B6
330
1F
100
AcDbEntity
  8
1
  6
Continuous
 62
     7
100
AcDbLine
 10
-7646.53516999006
 20
-3014.698820330841
 30
0.0
 11
-8604.53516999006
 21
-3014.698820330841
 31
0.0
  0
LINE
  5
1B7
330
1F
100
AcDbEntity
  8
1
  6
Continuous
 62
     7
100
AcDbLine
 10
-8604.535169990057
 20
-3022.698820330843
 30
0.0
 11
-7646.53516999006
 21
-3022.698820330841
 31
0.0
  0
LINE
  5
1B8
330
1F
100
AcDbEntity
  8
1
  6
Continuous
 62
     7
100
AcDbLine
 10
-8605.53516999006
 20
-3015.698820330838
 30
0.0
 11
-8605.53516999006
 21
-3021.698820330843
 31
0.0
  0
LINE
  5
1B9
330
1F
100
AcDbEntity
  8
0
  6
Continuous
 62
     7
100
AcDbLine
 10
-7645.53516999006
 20
-3015.698820330841
 30
0.0
 11
-7645.53516999006
 21
-3021.698820330841
 31
0.0
  0
LINE
  5
1BA
330
1F
100
AcDbEntity
  8
0
  6
Continuous
 62
     7
100
AcDbLine
 10
-8604.535169990057
 20
-3022.698820330843
 30
0.0
 11
-8605.53516999006
 21
-3021.698820330843
 31
0.0
  0
LINE
  5
1BB
330
1F
100
AcDbEntity
  8
0
  6
Continuous
 62
     7
100
AcDbLine
 10
-7646.53516999006
 20
-3014.698820330841
 30
0.0
 11
-7645.53516999006
 21
-3015.698820330841
 31
0.0
  0
LINE
  5
1BC
330
1F
100
AcDbEntity
  8
0
  6
Continuous
 62
     7
100
AcDbLine
 10
-8604.535169990057
 20
-3014.698820330838
 30
0.0
 11
-8605.53516999006
 21
-3015.698820330838
 31
0.0
  0
LINE
  5
1BD
330
1F
100
AcDbEntity
  8
0
  6
Continuous
 62
     7
100
AcDbLine
 10
-7646.53516999006
 20
-3022.698820330841
 30
0.0
 11
-7645.53516999006
 21
-3021.698820330841
 31
0.0
  0
LINE
  5
1BE
330
1F
100
AcDbEntity
  8
0
  6
Continuous
 62
     7
100
AcDbLine
 10
-7645.53516999006
 20
-3015.698820330841
 30
0.0
 11
-7645.53516999006
 21
-3021.698820330841
 31
0.0
  0
LINE
  5
1BF
330
1F
100
AcDbEntity
  8
0
  6
Continuous
 62
     7
100
AcDbLine
 10
-8604.535169990057
 20
-3022.698820330843
 30
0.0
 11
-8605.53516999006
 21
-3021.698820330843
 31
0.0
  0
LINE
  5
1C0
330
1F
100
AcDbEntity
  8
0
  6
Continuous
 62
     7
100
AcDbLine
 10
-7646.53516999006
 20
-3014.698820330841
 30
0.0
 11
-7645.53516999006
 21
-3015.698820330841
 31
0.0
  0
LINE
  5
1C1
330
1F
100
AcDbEntity
  8
0
  6
Continuous
 62
     7
100
AcDbLine
 10
-8604.535169990057
 20
-3014.698820330838
 30
0.0
 11
-8605.53516999006
 21
-3015.698820330838
 31
0.0
  0
LINE
  5
1C2
330
1F
100
AcDbEntity
  8
0
  6
Continuous
 62
     7
100
AcDbLine
 10
-7646.53516999006
 20
-3022.698820330841
 30
0.0
 11
-7645.53516999006
 21
-3021.698820330841
 31
0.0
  0
LINE
  5
1C3
330
1F
100
AcDbEntity
  8
0
  6
Continuous
 62
     7
100
AcDbLine
 10
-7675.535170406534
 20
-3041.698820330841
 30
0.0
 11
-7675.535170406534
 21
-3022.698820330841
 31
0.0
  0
LINE
  5
1C4
330
1F
100
AcDbEntity
  8
0
  6
Continuous
 62
     7
100
AcDbLine
 10
-8575.535170406534
 20
-3041.698820330841
 30
0.0
 11
-8575.535170406534
 21
-3022.698820330841
 31
0.0
  0
LINE
  5
1C5
330
1F
100
AcDbEntity
  8
1
  6
Continuous
 62
     5
100
AcDbLine
 10
-8604.108230054642
 20
-3041.698820330839
 30
0.0
 11
-8575.535170406534
 21
-3041.698820330841
 31
0.0
  0
LINE
  5
1C6
330
1F
100
AcDbEntity
  8
1
  6
Continuous
 62
     5
100
AcDbLine
 10
-5165.04129312777
 20
-3041.698820330839
 30
0.0
 11
-5136.468233479662
 21
-3041.698820330841
 31
0.0
  0
LINE
  5
1C7
330
1F
100
AcDbEntity
  8
0
  6
Continuous
 62
     7
100
AcDbLine
 10
-5136.468233479662
 20
-3041.698820330841
 30
0.0
 11
-5136.468233479662
 21
-3022.698820330841
 31
0.0
  0
LINE
  5
1C8
330
1F
100
AcDbEntity
  8
0
  6
Continuous
 62
     7
100
AcDbLine
 10
-4236.468233479662
 20
-3041.698820330841
 30
0.0
 11
-4236.468233479662
 21
-3022.698820330841
 31
0.0
  0
LINE
  5
1C9
330
1F
100
AcDbEntity
  8
0
  6
Continuous
 62
     7
100
AcDbLine
 10
-4207.468233063189
 20
-3022.698820330841
 30
0.0
 11
-4206.468233063189
 21
-3021.698820330841
 31
0.0
  0
LINE
  5
1CA
330
1F
100
AcDbEntity
  8
0
  6
Continuous
 62
     7
100
AcDbLine
 10
-5165.468233063185
 20
-3014.698820330838
 30
0.0
 11
-5166.468233063189
 21
-3015.698820330838
 31
0.0
  0
LINE
  5
1CB
330
1F
100
AcDbEntity
  8
0
  6
Continuous
 62
     7
100
AcDbLine
 10
-4207.468233063189
 20
-3014.698820330841
 30
0.0
 11
-4206.468233063189
 21
-3015.698820330841
 31
0.0
  0
LINE
  5
1CC
330
1F
100
AcDbEntity
  8
0
  6
Continuous
 62
     7
100
AcDbLine
 10
-5165.468233063185
 20
-3022.698820330843
 30
0.0
 11
-5166.468233063189
 21
-3021.698820330843
 31
0.0
  0
LINE
  5
1CD
330
1F
100
AcDbEntity
  8
0
  6
Continuous
 62
     7
100
AcDbLine
 10
-4206.468233063189
 20
-3015.698820330841
 30
0.0
 11
-4206.468233063189
 21
-3021.698820330841
 31
0.0
  0
LINE
  5
1CE
330
1F
100
AcDbEntity
  8
0
  6
Continuous
 62
     7
100
AcDbLine
 10
-4207.468233063189
 20
-3022.698820330841
 30
0.0
 11
-4206.468233063189
 21
-3021.698820330841
 31
0.0
  0
LINE
  5
1CF
330
1F
100
AcDbEntity
  8
0
  6
Continuous
 62
     7
100
AcDbLine
 10
-5165.468233063185
 20
-3014.698820330838
 30
0.0
 11
-5166.468233063189
 21
-3015.698820330838
 31
0.0
  0
LINE
  5
1D0
330
1F
100
AcDbEntity
  8
0
  6
Continuous
 62
     7
100
AcDbLine
 10
-4207.468233063189
 20
-3014.698820330841
 30
0.0
 11
-4206.468233063189
 21
-3015.698820330841
 31
0.0
  0
LINE
  5
1D1
330
1F
100
AcDbEntity
  8
0
  6
Continuous
 62
     7
100
AcDbLine
 10
-5165.468233063185
 20
-3022.698820330843
 30
0.0
 11
-5166.468233063189
 21
-3021.698820330843
 31
0.0
  0
LINE
  5
1D2
330
1F
100
AcDbEntity
  8
0
  6
Continuous
 62
     7
100
AcDbLine
 10
-4206.468233063189
 20
-3015.698820330841
 30
0.0
 11
-4206.468233063189
 21
-3021.698820330841
 31
0.0
  0
LINE
  5
1D3
330
1F
100
AcDbEntity
  8
1
  6
Continuous
 62
     7
100
AcDbLine
 10
-5166.468233063189
 20
-3015.698820330838
 30
0.0
 11
-5166.468233063189
 21
-3021.698820330843
 31
0.0
  0
LINE
  5
1D4
330
1F
100
AcDbEntity
  8
1
  6
Continuous
 62
     7
100
AcDbLine
 10
-5165.468233063185
 20
-3022.698820330843
 30
0.0
 11
-4207.468233063189
 21
-3022.698820330841
 31
0.0
  0
LINE
  5
1D5
330
1F
100
AcDbEntity
  8
1
  6
Continuous
 62
     7
100
AcDbLine
 10
-4207.468233063189
 20
-3014.698820330841
 30
0.0
 11
-5165.468233063189
 21
-3014.698820330841
 31
0.0
  0
LINE
  5
1D6
330
1F
100
AcDbEntity
  8
0
  6
Continuous
 62
     5
100
AcDbLine
 10
-4327.569136641117
 20
-3207.898817013397
 30
0.0
 11
-4327.115855639348
 21
-3212.250623371113
 31
0.0
  0
LINE
  5
1D7
330
1F
100
AcDbEntity
  8
0
  6
Continuous
 62
     5
100
AcDbLine
 10
-4327.569136641117
 20
-3207.898817013397
 30
0.0
 11
-4327.115855639348
 21
-3212.250623371113
 31
0.0
  0
LINE
  5
1D8
330
1F
100
AcDbEntity
  8
0
  6
Continuous
 62
     5
100
AcDbLine
 10
-4206.502231300784
 20
-3207.898820330847
 30
0.0
 11
-4206.955543684634
 21
-3212.250623186952
 31
0.0
  0
LINE
  5
1D9
330
1F
100
AcDbEntity
  8
0
  6
Continuous
 62
     5
100
AcDbLine
 10
-4206.502231300784
 20
-3207.898820330847
 30
0.0
 11
-4206.955543684634
 21
-3212.250623186952
 31
0.0
  0
LINE
  5
1DA
330
1F
100
AcDbEntity
  8
1
  6
Continuous
 62
     5
100
AcDbLine
 10
-4206.502231063208
 20
-3207.898820330847
 30
0.0
 11
-4206.502231063208
 21
-3050.709267675078
 31
0.0
  0
LINE
  5
1DB
330
1F
100
AcDbEntity
  8
1
  6
Continuous
 62
     5
100
AcDbLine
 10
-4327.569136641117
 20
-3050.709267675078
 30
0.0
 11
-4327.569136641117
 21
-3207.898817013397
 31
0.0
  0
LINE
  5
1DC
330
1F
100
AcDbEntity
  8
1
  6
Continuous
 62
     5
100
AcDbLine
 10
-4326.61854643565
 20
-3212.698820330841
 30
0.0
 11
-4207.452853163667
 21
-3212.698820330841
 31
0.0
  0
LINE
  5
1DD
330
1F
100
AcDbEntity
  8
1
  6
Continuous
 62
     5
100
AcDbLine
 10
-4327.569136641117
 20
-3207.898817013397
 30
0.0
 11
-4206.502231063208
 21
-3207.898820330847
 31
0.0
  0
LINE
  5
1DE
330
1F
100
AcDbEntity
  8
1
  6
Continuous
 62
     5
100
AcDbLine
 10
-5166.468233063189
 20
-3207.898820330847
 30
0.0
 11
-5045.401327485279
 21
-3207.898817013397
 31
0.0
  0
LINE
  5
1DF
330
1F
100
AcDbEntity
  8
1
  6
Continuous
 62
     5
100
AcDbLine
 10
-5165.517610962729
 20
-3212.698820330841
 30
0.0
 11
-5046.351917690747
 21
-3212.698820330841
 31
0.0
  0
LINE
  5
1E0
330
1F
100
AcDbEntity
  8
1
  6
Continuous
 62
     5
100
AcDbLine
 10
-5045.401327485279
 20
-3207.898817013397
 30
0.0
 11
-5045.401327485279
 21
-3050.709267675078
 31
0.0
  0
LINE
  5
1E1
330
1F
100
AcDbEntity
  8
1
  6
Continuous
 62
     5
100
AcDbLine
 10
-5166.468233063189
 20
-3050.709267675078
 30
0.0
 11
-5166.468233063189
 21
-3207.898820330847
 31
0.0
  0
LINE
  5
1E2
330
1F
100
AcDbEntity
  8
0
  6
Continuous
 62
     5
100
AcDbLine
 10
-5166.014920441762
 20
-3212.250623186952
 30
0.0
 11
-5166.468232825612
 21
-3207.898820330847
 31
0.0
  0
LINE
  5
1E3
330
1F
100
AcDbEntity
  8
0
  6
Continuous
 62
     5
100
AcDbLine
 10
-5166.014920441762
 20
-3212.250623186952
 30
0.0
 11
-5166.468232825612
 21
-3207.898820330847
 31
0.0
  0
LINE
  5
1E4
330
1F
100
AcDbEntity
  8
1
  6
Continuous
 62
     7
100
AcDbLine
 10
-2247.468232756037
 20
-3014.698820330849
 30
0.0
 11
-3205.468232756037
 21
-3014.698820330849
 31
0.0
  0
LINE
  5
1E5
330
1F
100
AcDbEntity
  8
1
  6
Continuous
 62
     7
100
AcDbLine
 10
-3205.468232756034
 20
-3022.698820330851
 30
0.0
 11
-2247.468232756037
 21
-3022.698820330849
 31
0.0
  0
LINE
  5
1E6
330
1F
100
AcDbEntity
  8
1
  6
Continuous
 62
     7
100
AcDbLine
 10
-3206.468232756037
 20
-3015.698820330846
 30
0.0
 11
-3206.468232756037
 21
-3021.698820330851
 31
0.0
  0
LINE
  5
1E7
330
1F
100
AcDbEntity
  8
1
  6
Continuous
 62
     5
100
AcDbLine
 10
-3206.502231063209
 20
-3041.698820330847
 30
0.0
 11
-3176.46823317251
 21
-3041.698820330849
 31
0.0
  0
LINE
  5
1E8
330
1F
100
AcDbEntity
  8
1
  6
Continuous
 62
     5
100
AcDbLine
 10
-2246.502230756057
 20
-3041.698820330847
 30
0.0
 11
-2269.501734845406
 21
-3064.698324420197
 31
0.0
  0
LINE
  5
1E9
330
1F
100
AcDbEntity
  8
1
  6
Continuous
 62
     5
100
AcDbLine
 10
-3206.502231063209
 20
-3041.698820330847
 30
0.0
 11
-3183.502726973858
 21
-3064.698324420197
 31
0.0
  0
LINE
  5
1EA
330
1F
100
AcDbEntity
  8
1
  6
Continuous
 62
     5
100
AcDbLine
 10
-2269.501734845406
 20
-3064.698324420197
 30
0.0
 11
-3183.502726973858
 21
-3064.698324420197
 31
0.0
  0
LINE
  5
1EB
330
1F
100
AcDbEntity
  8
1
  6
Continuous
 62
     5
100
AcDbLine
 10
-3206.502238665235
 20
-3207.898820332058
 30
0.0
 11
-3183.502726973858
 21
-3207.898820332058
 31
0.0
  0
LINE
  5
1EC
330
1F
100
AcDbEntity
  8
1
  6
Continuous
 62
     5
100
AcDbLine
 10
-3205.551714253128
 20
-3212.69882033085
 30
0.0
 11
-3184.453449082453
 21
-3212.69882033085
 31
0.0
  0
LINE
  5
1ED
330
1F
100
AcDbEntity
  8
0
  6
Continuous
 62
     5
100
AcDbLine
 10
-3206.502231063208
 20
-3207.69882033085
 30
0.0
 11
-3206.502231063209
 21
-3041.698820330847
 31
0.0
  0
LINE
  5
1EE
330
1F
100
AcDbEntity
  8
0
  6
Continuous
 62
     5
100
AcDbLine
 10
-2263.764068933981
 20
-3212.698824382707
 30
0.0
 11
-2247.45254608087
 21
-3212.698820330847
 31
0.0
  0
LINE
  5
1EF
330
1F
100
AcDbEntity
  8
0
  6
Continuous
 62
     5
100
AcDbLine
 10
-2263.772260888874
 20
-3207.898820332106
 30
0.0
 11
-2247.390855157079
 21
-3207.898819851306
 31
0.0
  0
LINE
  5
1F0
330
1F
100
AcDbEntity
  8
0
  6
Continuous
 62
     5
100
AcDbLine
 10
-2269.501519425882
 20
-3207.898820332061
 30
0.0
 11
-2264.646027415831
 21
-3207.898820332274
 31
0.0
  0
LINE
  5
1F1
330
1F
100
AcDbEntity
  8
0
  6
Continuous
 62
     5
100
AcDbLine
 10
-2269.501734845406
 20
-3207.698820330847
 30
0.0
 11
-2269.501519425882
 21
-3207.898820332061
 31
0.0
  0
LINE
  5
1F2
330
1F
100
AcDbEntity
  8
0
  6
Continuous
 62
     5
100
AcDbLine
 10
-2269.048107672702
 20
-3212.250634433806
 30
0.0
 11
-2269.501519425882
 21
-3207.898820332061
 31
0.0
  0
LINE
  5
1F3
330
1F
100
AcDbEntity
  8
0
  6
Continuous
 62
     5
100
AcDbLine
 10
-2246.955228665295
 20
-3212.250641727042
 30
0.0
 11
-2246.502021809522
 21
-3207.898820332056
 31
0.0
  0
LINE
  5
1F4
330
1F
100
AcDbEntity
  8
0
  6
Continuous
 62
     5
100
AcDbLine
 10
-2263.764068933981
 20
-3212.698824382707
 30
0.0
 11
-2268.550798434736
 21
-3212.698820330845
 31
0.0
  0
LINE
  5
1F5
330
1F
100
AcDbEntity
  8
0
  6
Continuous
 62
     5
100
AcDbLine
 10
-2260.64291888099
 20
-3207.698820330849
 30
0.0
 11
-2259.989728554465
 21
-3207.69882033146
 31
0.0
  0
LINE
  5
1F6
330
1F
100
AcDbEntity
  8
0
  6
Continuous
 62
     5
100
AcDbLine
 10
-2259.989728554465
 20
-3207.69882033146
 30
0.0
 11
-2259.620641485135
 21
-3207.698820330847
 31
0.0
  0
LINE
  5
1F7
330
1F
100
AcDbEntity
  8
0
  6
Continuous
 62
     5
100
AcDbLine
 10
-2263.768353210669
 20
-3207.698820330847
 30
0.0
 11
-2263.764282220177
 21
-3207.698820330847
 31
0.0
  0
LINE
  5
1F8
330
1F
100
AcDbEntity
  8
0
  6
Continuous
 62
     5
100
AcDbLine
 10
-2259.620641485135
 20
-3207.698820330847
 30
0.0
 11
-2259.454192978314
 21
-3207.698820330847
 31
0.0
  0
LINE
  5
1F9
330
1F
100
AcDbEntity
  8
0
  6
Continuous
 62
     5
100
AcDbLine
 10
-2263.991243498554
 20
-3207.698820330847
 30
0.0
 11
-2263.768353210669
 21
-3207.698820330847
 31
0.0
  0
LINE
  5
1FA
330
1F
100
AcDbEntity
  8
0
  6
Continuous
 62
     5
100
AcDbLine
 10
-2264.560008137888
 20
-3207.698820330849
 30
0.0
 11
-2263.991243498554
 21
-3207.698820330847
 31
0.0
  0
LINE
  5
1FB
330
1F
100
AcDbEntity
  8
0
  6
Continuous
 62
     5
100
AcDbLine
 10
-2263.764282220177
 20
-3207.698820330847
 30
0.0
 11
-2260.64291888099
 21
-3207.698820330849
 31
0.0
  0
LINE
  5
1FC
330
1F
100
AcDbEntity
  8
0
  6
Continuous
 62
     5
100
AcDbLine
 10
-2264.646903827685
 20
-3207.698820330847
 30
0.0
 11
-2264.610300804161
 21
-3207.698820330847
 31
0.0
  0
LINE
  5
1FD
330
1F
100
AcDbEntity
  8
0
  6
Continuous
 62
     5
100
AcDbLine
 10
-2265.564322812414
 20
-3207.698820330847
 30
0.0
 11
-2265.451240301789
 21
-3207.698820330847
 31
0.0
  0
LINE
  5
1FE
330
1F
100
AcDbEntity
  8
0
  6
Continuous
 62
     5
100
AcDbLine
 10
-2265.451240301789
 20
-3207.698820330847
 30
0.0
 11
-2264.646903827685
 21
-3207.698820330847
 31
0.0
  0
LINE
  5
1FF
330
1F
100
AcDbEntity
  8
0
  6
Continuous
 62
     5
100
AcDbLine
 10
-2264.610300804161
 20
-3207.698820330847
 30
0.0
 11
-2264.560008137888
 21
-3207.698820330849
 31
0.0
  0
LINE
  5
200
330
1F
100
AcDbEntity
  8
0
  6
Continuous
 62
     5
100
AcDbLine
 10
-2266.27801606968
 20
-3207.698820330847
 30
0.0
 11
-2265.985210513662
 21
-3207.698820330847
 31
0.0
  0
LINE
  5
201
330
1F
100
AcDbEntity
  8
0
  6
Continuous
 62
     5
100
AcDbLine
 10
-2266.449336322005
 20
-3207.698820330847
 30
0.0
 11
-2266.27801606968
 21
-3207.698820330847
 31
0.0
  0
LINE
  5
202
330
1F
100
AcDbEntity
  8
0
  6
Continuous
 62
     5
100
AcDbLine
 10
-2265.985210513662
 20
-3207.698820330847
 30
0.0
 11
-2265.701453904438
 21
-3207.698820330847
 31
0.0
  0
LINE
  5
203
330
1F
100
AcDbEntity
  8
0
  6
Continuous
 62
     5
100
AcDbLine
 10
-2265.701453904438
 20
-3207.698820330847
 30
0.0
 11
-2265.564322812414
 21
-3207.698820330847
 31
0.0
  0
LINE
  5
204
330
1F
100
AcDbEntity
  8
0
  6
Continuous
 62
     5
100
AcDbLine
 10
-2251.752016012832
 20
-3207.698820330849
 30
0.0
 11
-2251.502230756057
 21
-3207.698820330847
 31
0.0
  0
LINE
  5
205
330
1F
100
AcDbEntity
  8
0
  6
Continuous
 62
     5
100
AcDbLine
 10
-2255.739905609044
 20
-3207.698820330847
 30
0.0
 11
-2254.717199609037
 21
-3207.698820330849
 31
0.0
  0
LINE
  5
206
330
1F
100
AcDbEntity
  8
0
  6
Continuous
 62
     5
100
AcDbLine
 10
-2250.552308417572
 20
-3207.698820330847
 30
0.0
 11
-2250.302516858622
 21
-3207.698820330847
 31
0.0
  0
LINE
  5
207
330
1F
100
AcDbEntity
  8
0
  6
Continuous
 62
     5
100
AcDbLine
 10
-2251.502230756057
 20
-3207.698820330847
 30
0.0
 11
-2250.552308417572
 21
-3207.698820330847
 31
0.0
  0
LINE
  5
208
330
1F
100
AcDbEntity
  8
0
  6
Continuous
 62
     5
100
AcDbLine
 10
-2250.302516858622
 20
-3207.698820330847
 30
0.0
 11
-2249.752025972434
 21
-3207.698820330847
 31
0.0
  0
LINE
  5
209
330
1F
100
AcDbEntity
  8
0
  6
Continuous
 62
     5
100
AcDbLine
 10
-2249.752025972434
 20
-3207.698820330847
 30
0.0
 11
-2247.395936922722
 21
-3207.698820330847
 31
0.0
  0
LINE
  5
20A
330
1F
100
AcDbEntity
  8
0
  6
Continuous
 62
     5
100
AcDbLine
 10
-2247.395936922722
 20
-3207.698820330847
 30
0.0
 11
-2247.168694760971
 21
-3207.698820371523
 31
0.0
  0
LINE
  5
20B
330
1F
100
AcDbEntity
  8
0
  6
Continuous
 62
     5
100
AcDbLine
 10
-2247.168694760971
 20
-3207.698820371523
 30
0.0
 11
-2246.502026321828
 21
-3207.698820330849
 31
0.0
  0
LINE
  5
20C
330
1F
100
AcDbEntity
  8
0
  6
Continuous
 62
     5
100
AcDbLine
 10
-2254.717199609037
 20
-3207.698820330849
 30
0.0
 11
-2251.752016012832
 21
-3207.698820330849
 31
0.0
  0
LINE
  5
20D
330
1F
100
AcDbEntity
  8
0
  6
Continuous
 62
     5
100
AcDbLine
 10
-2269.501734845406
 20
-3207.698820330847
 30
0.0
 11
-2266.449336322005
 21
-3207.698820330847
 31
0.0
  0
LINE
  5
20E
330
1F
100
AcDbEntity
  8
0
  6
Continuous
 62
     5
100
AcDbLine
 10
-2259.454192978314
 20
-3207.698820330847
 30
0.0
 11
-2255.906354115866
 21
-3207.698820330847
 31
0.0
  0
LINE
  5
20F
330
1F
100
AcDbEntity
  8
0
  6
Continuous
 62
     5
100
AcDbLine
 10
-2255.906354115866
 20
-3207.698820330847
 30
0.0
 11
-2255.739905609044
 21
-3207.698820330847
 31
0.0
  0
LINE
  5
210
330
1F
100
AcDbEntity
  8
0
  6
Continuous
 62
     5
100
AcDbLine
 10
-2260.64291888099
 20
-3207.698820330849
 30
0.0
 11
-2259.989728554465
 21
-3207.69882033146
 31
0.0
  0
LINE
  5
211
330
1F
100
AcDbEntity
  8
0
  6
Continuous
 62
     5
100
AcDbLine
 10
-2259.989728554465
 20
-3207.69882033146
 30
0.0
 11
-2259.620641485135
 21
-3207.698820330847
 31
0.0
  0
LINE
  5
212
330
1F
100
AcDbEntity
  8
0
  6
Continuous
 62
     5
100
AcDbLine
 10
-2263.768353210669
 20
-3207.698820330847
 30
0.0
 11
-2263.764282220177
 21
-3207.698820330847
 31
0.0
  0
LINE
  5
213
330
1F
100
AcDbEntity
  8
0
  6
Continuous
 62
     5
100
AcDbLine
 10
-2259.620641485135
 20
-3207.698820330847
 30
0.0
 11
-2259.454192978314
 21
-3207.698820330847
 31
0.0
  0
LINE
  5
214
330
1F
100
AcDbEntity
  8
0
  6
Continuous
 62
     5
100
AcDbLine
 10
-2263.991243499791
 20
-3207.698820331118
 30
0.0
 11
-2263.768353210669
 21
-3207.698820330847
 31
0.0
  0
LINE
  5
215
330
1F
100
AcDbEntity
  8
0
  6
Continuous
 62
     5
100
AcDbLine
 10
-2264.560008137888
 20
-3207.698820330849
 30
0.0
 11
-2263.991243499791
 21
-3207.698820331118
 31
0.0
  0
LINE
  5
216
330
1F
100
AcDbEntity
  8
0
  6
Continuous
 62
     5
100
AcDbLine
 10
-2263.764282220177
 20
-3207.698820330847
 30
0.0
 11
-2260.64291888099
 21
-3207.698820330849
 31
0.0
  0
LINE
  5
217
330
1F
100
AcDbEntity
  8
0
  6
Continuous
 62
     5
100
AcDbLine
 10
-2264.646903827685
 20
-3207.698820330847
 30
0.0
 11
-2264.61030080504
 21
-3207.698820330883
 31
0.0
  0
LINE
  5
218
330
1F
100
AcDbEntity
  8
0
  6
Continuous
 62
     5
100
AcDbLine
 10
-2265.564322812414
 20
-3207.698820330847
 30
0.0
 11
-2265.451240301789
 21
-3207.698820330847
 31
0.0
  0
LINE
  5
219
330
1F
100
AcDbEntity
  8
0
  6
Continuous
 62
     5
100
AcDbLine
 10
-2265.451240301789
 20
-3207.698820330847
 30
0.0
 11
-2264.646903827685
 21
-3207.698820330847
 31
0.0
  0
LINE
  5
21A
330
1F
100
AcDbEntity
  8
0
  6
Continuous
 62
     5
100
AcDbLine
 10
-2264.61030080504
 20
-3207.698820330883
 30
0.0
 11
-2264.560008137888
 21
-3207.698820330849
 31
0.0
  0
LINE
  5
21B
330
1F
100
AcDbEntity
  8
0
  6
Continuous
 62
     5
100
AcDbLine
 10
-2266.27801606968
 20
-3207.698820330847
 30
0.0
 11
-2265.985210513662
 21
-3207.698820330847
 31
0.0
  0
LINE
  5
21C
330
1F
100
AcDbEntity
  8
0
  6
Continuous
 62
     5
100
AcDbLine
 10
-2266.449336322005
 20
-3207.698820330847
 30
0.0
 11
-2266.27801606968
 21
-3207.698820330847
 31
0.0
  0
LINE
  5
21D
330
1F
100
AcDbEntity
  8
0
  6
Continuous
 62
     5
100
AcDbLine
 10
-2265.985210513662
 20
-3207.698820330847
 30
0.0
 11
-2265.701453904438
 21
-3207.698820330847
 31
0.0
  0
LINE
  5
21E
330
1F
100
AcDbEntity
  8
0
  6
Continuous
 62
     5
100
AcDbLine
 10
-2265.701453904438
 20
-3207.698820330847
 30
0.0
 11
-2265.564322812414
 21
-3207.698820330847
 31
0.0
  0
LINE
  5
21F
330
1F
100
AcDbEntity
  8
0
  6
Continuous
 62
     5
100
AcDbLine
 10
-2246.502230756057
 20
-3207.698820330847
 30
0.0
 11
-2246.502230756057
 21
-3041.698820330847
 31
0.0
  0
LINE
  5
220
330
1F
100
AcDbEntity
  8
0
  6
Continuous
 62
     5
100
AcDbLine
 10
-2251.752016012832
 20
-3207.698820330849
 30
0.0
 11
-2251.502230756057
 21
-3207.698820330847
 31
0.0
  0
LINE
  5
221
330
1F
100
AcDbEntity
  8
0
  6
Continuous
 62
     5
100
AcDbLine
 10
-2255.739905609044
 20
-3207.698820330847
 30
0.0
 11
-2254.717199609037
 21
-3207.698820330849
 31
0.0
  0
LINE
  5
222
330
1F
100
AcDbEntity
  8
0
  6
Continuous
 62
     5
100
AcDbLine
 10
-2250.552308417572
 20
-3207.698820330847
 30
0.0
 11
-2250.302516858622
 21
-3207.698820330847
 31
0.0
  0
LINE
  5
223
330
1F
100
AcDbEntity
  8
0
  6
Continuous
 62
     5
100
AcDbLine
 10
-2251.502230756057
 20
-3207.698820330847
 30
0.0
 11
-2250.552308417572
 21
-3207.698820330847
 31
0.0
  0
LINE
  5
224
330
1F
100
AcDbEntity
  8
0
  6
Continuous
 62
     5
100
AcDbLine
 10
-2250.302516858622
 20
-3207.698820330847
 30
0.0
 11
-2249.752025972434
 21
-3207.698820330847
 31
0.0
  0
LINE
  5
225
330
1F
100
AcDbEntity
  8
0
  6
Continuous
 62
     5
100
AcDbLine
 10
-2249.752025972434
 20
-3207.698820330847
 30
0.0
 11
-2247.395936922722
 21
-3207.698820330847
 31
0.0
  0
LINE
  5
226
330
1F
100
AcDbEntity
  8
0
  6
Continuous
 62
     5
100
AcDbLine
 10
-2247.395936922722
 20
-3207.698820330847
 30
0.0
 11
-2247.168694793622
 21
-3207.698820351186
 31
0.0
  0
LINE
  5
227
330
1F
100
AcDbEntity
  8
0
  6
Continuous
 62
     5
100
AcDbLine
 10
-2247.168694793622
 20
-3207.698820351186
 30
0.0
 11
-2246.502230756057
 21
-3207.698820330847
 31
0.0
  0
LINE
  5
228
330
1F
100
AcDbEntity
  8
0
  6
Continuous
 62
     5
100
AcDbLine
 10
-2254.717199609037
 20
-3207.698820330849
 30
0.0
 11
-2251.752016012832
 21
-3207.698820330849
 31
0.0
  0
LINE
  5
229
330
1F
100
AcDbEntity
  8
0
  6
Continuous
 62
     5
100
AcDbLine
 10
-2269.501734845406
 20
-3207.698820330847
 30
0.0
 11
-2266.449336322005
 21
-3207.698820330847
 31
0.0
  0
LINE
  5
22A
330
1F
100
AcDbEntity
  8
0
  6
Continuous
 62
     5
100
AcDbLine
 10
-2269.501734845406
 20
-3207.698820330847
 30
0.0
 11
-2269.501734845406
 21
-3064.698324420197
 31
0.0
  0
LINE
  5
22B
330
1F
100
AcDbEntity
  8
0
  6
Continuous
 62
     5
100
AcDbLine
 10
-2259.454192978314
 20
-3207.698820330847
 30
0.0
 11
-2255.906354115866
 21
-3207.698820330847
 31
0.0
  0
LINE
  5
22C
330
1F
100
AcDbEntity
  8
0
  6
Continuous
 62
     5
100
AcDbLine
 10
-2255.906354115866
 20
-3207.698820330847
 30
0.0
 11
-2255.739905609044
 21
-3207.698820330847
 31
0.0
  0
LINE
  5
22D
330
1F
100
AcDbEntity
  8
0
  6
Continuous
 62
     5
100
AcDbLine
 10
-3183.502726973858
 20
-3207.69882033085
 30
0.0
 11
-3183.502726973858
 21
-3064.698324420197
 31
0.0
  0
LINE
  5
22E
330
1F
100
AcDbEntity
  8
0
  6
Continuous
 62
     5
100
AcDbLine
 10
-3206.502238665235
 20
-3207.898820332058
 30
0.0
 11
-3206.049024607431
 21
-3212.250612333164
 31
0.0
  0
LINE
  5
22F
330
1F
100
AcDbEntity
  8
0
  6
Continuous
 62
     5
100
AcDbLine
 10
-3183.956139844485
 20
-3212.250634433807
 30
0.0
 11
-3183.502728091306
 21
-3207.898820332063
 31
0.0
  0
LINE
  5
230
330
1F
100
AcDbEntity
  8
0
  6
Continuous
 62
     5
100
AcDbLine
 10
-3183.502726973858
 20
-3207.69882033085
 30
0.0
 11
-3183.502728091306
 21
-3207.898820332063
 31
0.0
  0
LINE
  5
231
330
1F
100
AcDbEntity
  8
0
  6
Continuous
 62
     5
100
AcDbLine
 10
-5045.854608487048
 20
-3212.250623371113
 30
0.0
 11
-5045.401327485279
 21
-3207.898817013397
 31
0.0
  0
LINE
  5
232
330
1F
100
AcDbEntity
  8
0
  6
Continuous
 62
     5
100
AcDbLine
 10
-5045.854608487048
 20
-3212.250623371113
 30
0.0
 11
-5045.401327485279
 21
-3207.898817013397
 31
0.0
  0
LINE
  5
233
330
1F
100
AcDbEntity
  8
0
  6
Continuous
 62
     7
100
AcDbLine
 10
-2246.468232756037
 20
-3015.698820330849
 30
0.0
 11
-2246.468232756037
 21
-3021.698820330849
 31
0.0
  0
LINE
  5
234
330
1F
100
AcDbEntity
  8
0
  6
Continuous
 62
     7
100
AcDbLine
 10
-3205.468232756034
 20
-3022.698820330851
 30
0.0
 11
-3206.468232756037
 21
-3021.698820330851
 31
0.0
  0
LINE
  5
235
330
1F
100
AcDbEntity
  8
0
  6
Continuous
 62
     7
100
AcDbLine
 10
-2247.468232756037
 20
-3014.698820330849
 30
0.0
 11
-2246.468232756037
 21
-3015.698820330849
 31
0.0
  0
LINE
  5
236
330
1F
100
AcDbEntity
  8
0
  6
Continuous
 62
     7
100
AcDbLine
 10
-3205.468232756034
 20
-3014.698820330846
 30
0.0
 11
-3206.468232756037
 21
-3015.698820330846
 31
0.0
  0
LINE
  5
237
330
1F
100
AcDbEntity
  8
0
  6
Continuous
 62
     7
100
AcDbLine
 10
-2247.468232756037
 20
-3022.698820330849
 30
0.0
 11
-2246.468232756037
 21
-3021.698820330849
 31
0.0
  0
LINE
  5
238
330
1F
100
AcDbEntity
  8
0
  6
Continuous
 62
     7
100
AcDbLine
 10
-2246.468232756037
 20
-3015.698820330849
 30
0.0
 11
-2246.468232756037
 21
-3021.698820330849
 31
0.0
  0
LINE
  5
239
330
1F
100
AcDbEntity
  8
0
  6
Continuous
 62
     7
100
AcDbLine
 10
-3205.468232756034
 20
-3022.698820330851
 30
0.0
 11
-3206.468232756037
 21
-3021.698820330851
 31
0.0
  0
LINE
  5
23A
330
1F
100
AcDbEntity
  8
0
  6
Continuous
 62
     7
100
AcDbLine
 10
-2247.468232756037
 20
-3014.698820330849
 30
0.0
 11
-2246.468232756037
 21
-3015.698820330849
 31
0.0
  0
LINE
  5
23B
330
1F
100
AcDbEntity
  8
0
  6
Continuous
 62
     7
100
AcDbLine
 10
-3205.468232756034
 20
-3014.698820330846
 30
0.0
 11
-3206.468232756037
 21
-3015.698820330846
 31
0.0
  0
LINE
  5
23C
330
1F
100
AcDbEntity
  8
0
  6
Continuous
 62
     7
100
AcDbLine
 10
-2247.468232756037
 20
-3022.698820330849
 30
0.0
 11
-2246.468232756037
 21
-3021.698820330849
 31
0.0
  0
LINE
  5
23D
330
1F
100
AcDbEntity
  8
0
  6
Continuous
 62
     7
100
AcDbLine
 10
-3176.46823317251
 20
-3041.698820330849
 30
0.0
 11
-3176.46823317251
 21
-3022.698820330849
 31
0.0
  0
LINE
  5
23E
330
1F
100
AcDbEntity
  8
0
  6
Continuous
 62
     7
100
AcDbLine
 10
-2276.46823317251
 20
-3041.698820330849
 30
0.0
 11
-2276.46823317251
 21
-3022.698820330849
 31
0.0
  0
LINE
  5
23F
330
1F
100
AcDbEntity
  8
1
  6
Continuous
 62
     7
100
AcDbLine
 10
953.4637793378215
 20
-5412.698820330841
 30
0.0
 11
953.4637793378215
 21
-4212.698820330841
 31
0.0
  0
LINE
  5
240
330
1F
100
AcDbEntity
  8
1
  6
Continuous
 62
     7
100
AcDbLine
 10
1913.46378641344
 20
-5412.698820330841
 30
0.0
 11
953.4637793378215
 21
-5412.698820330841
 31
0.0
  0
LINE
  5
241
330
1F
100
AcDbEntity
  8
1
  6
Continuous
 62
     7
100
AcDbLine
 10
1913.46378641344
 20
-4212.698820330841
 30
0.0
 11
1913.46378641344
 21
-5412.698820330841
 31
0.0
  0
LINE
  5
242
330
1F
100
AcDbEntity
  8
1
  6
Continuous
 62
     7
100
AcDbLine
 10
953.4637793378215
 20
-4212.698820330841
 30
0.0
 11
1913.46378641344
 21
-4212.698820330841
 31
0.0
  0
LINE
  5
243
330
1F
100
AcDbEntity
  8
1
  6
Continuous
 62
     7
100
AcDbLine
 10
-3206.502231063208
 20
-5172.698820330841
 30
0.0
 11
-3206.502231063208
 21
-4212.698820330841
 31
0.0
  0
LINE
  5
244
330
1F
100
AcDbEntity
  8
1
  6
Continuous
 62
     7
100
AcDbLine
 10
-2246.502222662159
 20
-5172.698820330841
 30
0.0
 11
-3206.502231063208
 21
-5172.698820330841
 31
0.0
  0
LINE
  5
245
330
1F
100
AcDbEntity
  8
1
  6
Continuous
 62
     7
100
AcDbLine
 10
-2246.502222662159
 20
-4212.698820330841
 30
0.0
 11
-2246.502222662159
 21
-5172.698820330841
 31
0.0
  0
LINE
  5
246
330
1F
100
AcDbEntity
  8
1
  6
Continuous
 62
     7
100
AcDbLine
 10
-3206.502231063208
 20
-4212.698820330841
 30
0.0
 11
-2246.502222662159
 21
-4212.698820330841
 31
0.0
  0
LINE
  5
247
330
1F
100
AcDbEntity
  8
1
  6
Continuous
 62
     7
100
AcDbLine
 10
-6645.56916799008
 20
-5172.698820330841
 30
0.0
 11
-6645.56916799008
 21
-4212.698820330841
 31
0.0
  0
LINE
  5
248
330
1F
100
AcDbEntity
  8
1
  6
Continuous
 62
     7
100
AcDbLine
 10
-6165.56916799008
 20
-5172.698820330841
 30
0.0
 11
-6645.56916799008
 21
-5172.698820330841
 31
0.0
  0
LINE
  5
249
330
1F
100
AcDbEntity
  8
1
  6
Continuous
 62
     7
100
AcDbLine
 10
-6165.56916799008
 20
-4212.698820330841
 30
0.0
 11
-6165.56916799008
 21
-5172.698820330841
 31
0.0
  0
LINE
  5
24A
330
1F
100
AcDbEntity
  8
1
  6
Continuous
 62
     7
100
AcDbLine
 10
-6645.56916799008
 20
-4212.698820330841
 30
0.0
 11
-6165.56916799008
 21
-4212.698820330841
 31
0.0
  0
ARC
  5
24B
330
1F
100
AcDbEntity
  8
0
  6
Continuous
 62
     5
100
AcDbCircle
 10
6291.381219548923
 20
-3212.19882033085
 30
0.0
 40
0.4999999999960567
100
AcDbArc
 50
185.9481373907849
 51
270.0001358848709
  0
ARC
  5
24C
330
1F
100
AcDbEntity
  8
0
  6
Continuous
 62
     5
100
AcDbCircle
 10
6312.479477468783
 20
-3212.198813958096
 30
0.0
 40
0.5000063727703444
100
AcDbArc
 50
269.9994980751427
 51
354.0503642281241
  0
ARC
  5
24D
330
1F
100
AcDbEntity
  8
0
  6
Continuous
 62
     5
100
AcDbCircle
 10
4037.10243107416
 20
-3050.709267675078
 30
0.0
 40
76.36135533928018
100
AcDbArc
 50
0.0
 51
6.10171494971666
  0
ARC
  5
24E
330
1F
100
AcDbEntity
  8
0
  6
Continuous
 62
     5
100
AcDbCircle
 10
4112.03684647802
 20
-3042.698820330839
 30
0.0
 40
1.000000000000641
100
AcDbArc
 50
6.10171494974681
 51
90.0
  0
ARC
  5
24F
330
1F
100
AcDbEntity
  8
0
  6
Continuous
 62
     5
100
AcDbCircle
 10
3993.823789420043
 20
-3042.698820330839
 30
0.0
 40
1.0
100
AcDbArc
 50
90.00000000005213
 51
173.8982850502504
  0
ARC
  5
250
330
1F
100
AcDbEntity
  8
0
  6
Continuous
 62
     5
100
AcDbCircle
 10
4068.758204823904
 20
-3050.709267675079
 30
0.0
 40
76.36135533928056
100
AcDbArc
 50
173.8982850502827
 51
179.9999999999993
  0
ARC
  5
251
330
1F
100
AcDbEntity
  8
0
  6
Continuous
 62
     5
100
AcDbCircle
 10
4037.10243107416
 20
-3050.709267675078
 30
0.0
 40
76.36135533928018
100
AcDbArc
 50
0.0
 51
6.10171494971666
  0
ARC
  5
252
330
1F
100
AcDbEntity
  8
0
  6
Continuous
 62
     5
100
AcDbCircle
 10
4112.03684647802
 20
-3042.698820330839
 30
0.0
 40
1.000000000000641
100
AcDbArc
 50
6.10171494974681
 51
90.0
  0
ARC
  5
253
330
1F
100
AcDbEntity
  8
0
  6
Continuous
 62
     5
100
AcDbCircle
 10
3993.823789420043
 20
-3042.698820330839
 30
0.0
 40
1.0
100
AcDbArc
 50
90.00000000005213
 51
173.8982850502504
  0
ARC
  5
254
330
1F
100
AcDbEntity
  8
0
  6
Continuous
 62
     5
100
AcDbCircle
 10
4068.758204823904
 20
-3050.709267675079
 30
0.0
 40
76.36135533928056
100
AcDbArc
 50
173.8982850502827
 51
179.9999999999993
  0
ARC
  5
255
330
1F
100
AcDbEntity
  8
0
  6
Continuous
 62
     5
100
AcDbCircle
 10
4037.10243107416
 20
-3050.709267675078
 30
0.0
 40
76.36135533928018
100
AcDbArc
 50
0.0
 51
6.10171494971666
  0
ARC
  5
256
330
1F
100
AcDbEntity
  8
0
  6
Continuous
 62
     5
100
AcDbCircle
 10
4112.03684647802
 20
-3042.698820330839
 30
0.0
 40
1.000000000000641
100
AcDbArc
 50
6.10171494974681
 51
90.0
  0
ARC
  5
257
330
1F
100
AcDbEntity
  8
0
  6
Continuous
 62
     5
100
AcDbCircle
 10
3993.823789420043
 20
-3042.698820330839
 30
0.0
 40
1.0
100
AcDbArc
 50
90.00000000005213
 51
173.8982850502504
  0
ARC
  5
258
330
1F
100
AcDbEntity
  8
0
  6
Continuous
 62
     5
100
AcDbCircle
 10
4068.758204823904
 20
-3050.709267675079
 30
0.0
 40
76.36135533928056
100
AcDbArc
 50
173.8982850502827
 51
179.9999999999993
  0
ARC
  5
259
330
1F
100
AcDbEntity
  8
0
  6
Continuous
 62
     5
100
AcDbCircle
 10
4112.513164541124
 20
-3212.198820300807
 30
0.0
 40
0.5000000300342956
100
AcDbArc
 50
269.9999738567272
 51
354.0531552757495
  0
ARC
  5
25A
330
1F
100
AcDbEntity
  8
0
  6
Continuous
 62
     5
100
AcDbCircle
 10
4112.513164541124
 20
-3212.198820300807
 30
0.0
 40
0.5000000300342956
100
AcDbArc
 50
269.9999738567272
 51
354.0531552757495
  0
ARC
  5
25B
330
1F
100
AcDbEntity
  8
0
  6
Continuous
 62
     5
100
AcDbCircle
 10
3993.347470945524
 20
-3212.198820437821
 30
0.0
 40
0.4999998930213729
100
AcDbArc
 50
185.9468517915722
 51
270.0000109404884
  0
ARC
  5
25C
330
1F
100
AcDbEntity
  8
0
  6
Continuous
 62
     5
100
AcDbCircle
 10
3993.347470945524
 20
-3212.198820437821
 30
0.0
 40
0.4999998930213729
100
AcDbArc
 50
185.9468517915722
 51
270.0000109404884
  0
ARC
  5
25D
330
1F
100
AcDbEntity
  8
0
  6
Continuous
 62
     5
100
AcDbCircle
 10
3033.580101881356
 20
-3212.198820437821
 30
0.0
 40
0.4999998930202401
100
AcDbArc
 50
269.9999890595116
 51
354.0531482084278
  0
ARC
  5
25E
330
1F
100
AcDbEntity
  8
0
  6
Continuous
 62
     5
100
AcDbCircle
 10
3033.580101881356
 20
-3212.198820437821
 30
0.0
 40
0.4999998930202401
100
AcDbArc
 50
269.9999890595116
 51
354.0531482084278
  0
ARC
  5
25F
330
1F
100
AcDbEntity
  8
0
  6
Continuous
 62
     5
100
AcDbCircle
 10
5114.3803052235
 20
-3212.19882033085
 30
0.0
 40
0.5000000000010709
100
AcDbArc
 50
185.9455911408065
 51
270.0
  0
ARC
  5
260
330
1F
100
AcDbEntity
  8
0
  6
Continuous
 62
     5
100
AcDbCircle
 10
5135.478571579995
 20
-3212.198820330851
 30
0.0
 40
0.4999999999964039
100
AcDbArc
 50
269.9998641151291
 51
354.0518626092151
  0
ARC
  5
261
330
1F
100
AcDbEntity
  8
0
  6
Continuous
 62
     5
100
AcDbCircle
 10
2914.414408285756
 20
-3212.198820300807
 30
0.0
 40
0.5000000300336293
100
AcDbArc
 50
185.9468447242504
 51
270.0000261432728
  0
ARC
  5
262
330
1F
100
AcDbEntity
  8
0
  6
Continuous
 62
     5
100
AcDbCircle
 10
2914.414408285756
 20
-3212.198820300807
 30
0.0
 40
0.5000000300336293
100
AcDbArc
 50
185.9468447242504
 51
270.0000261432728
  0
ARC
  5
263
330
1F
100
AcDbEntity
  8
0
  6
Continuous
 62
     5
100
AcDbCircle
 10
2958.169368002976
 20
-3050.709267675078
 30
0.0
 40
76.36135533927882
100
AcDbArc
 50
0.0
 51
6.10171494971673
  0
ARC
  5
264
330
1F
100
AcDbEntity
  8
0
  6
Continuous
 62
     5
100
AcDbCircle
 10
3033.103783406837
 20
-3042.698820330839
 30
0.0
 40
0.9999999999992845
100
AcDbArc
 50
6.10171494975512
 51
90.0
  0
ARC
  5
265
330
1F
100
AcDbEntity
  8
0
  6
Continuous
 62
     5
100
AcDbCircle
 10
2914.890726348859
 20
-3042.698820330839
 30
0.0
 40
1.0
100
AcDbArc
 50
90.0
 51
173.8982850502504
  0
ARC
  5
266
330
1F
100
AcDbEntity
  8
0
  6
Continuous
 62
     5
100
AcDbCircle
 10
2989.825141752719
 20
-3050.709267675078
 30
0.0
 40
76.36135533927911
100
AcDbArc
 50
173.8982850502833
 51
180.0
  0
ARC
  5
267
330
1F
100
AcDbEntity
  8
0
  6
Continuous
 62
     5
100
AcDbCircle
 10
2958.169368002976
 20
-3050.709267675078
 30
0.0
 40
76.36135533927882
100
AcDbArc
 50
0.0
 51
6.10171494971673
  0
ARC
  5
268
330
1F
100
AcDbEntity
  8
0
  6
Continuous
 62
     5
100
AcDbCircle
 10
3033.103783406837
 20
-3042.698820330839
 30
0.0
 40
0.9999999999992845
100
AcDbArc
 50
6.10171494975512
 51
90.0
  0
ARC
  5
269
330
1F
100
AcDbEntity
  8
0
  6
Continuous
 62
     5
100
AcDbCircle
 10
2914.890726348859
 20
-3042.698820330839
 30
0.0
 40
1.0
100
AcDbArc
 50
90.0
 51
173.8982850502504
  0
ARC
  5
26A
330
1F
100
AcDbEntity
  8
0
  6
Continuous
 62
     5
100
AcDbCircle
 10
2989.825141752719
 20
-3050.709267675078
 30
0.0
 40
76.36135533927911
100
AcDbArc
 50
173.8982850502833
 51
180.0
  0
ARC
  5
26B
330
1F
100
AcDbEntity
  8
0
  6
Continuous
 62
     5
100
AcDbCircle
 10
2958.169368002976
 20
-3050.709267675078
 30
0.0
 40
76.36135533927882
100
AcDbArc
 50
0.0
 51
6.10171494971673
  0
ARC
  5
26C
330
1F
100
AcDbEntity
  8
0
  6
Continuous
 62
     5
100
AcDbCircle
 10
3033.103783406837
 20
-3042.698820330839
 30
0.0
 40
0.9999999999992845
100
AcDbArc
 50
6.10171494975512
 51
90.0
  0
ARC
  5
26D
330
1F
100
AcDbEntity
  8
0
  6
Continuous
 62
     5
100
AcDbCircle
 10
2914.890726348859
 20
-3042.698820330839
 30
0.0
 40
1.0
100
AcDbArc
 50
90.0
 51
173.8982850502504
  0
ARC
  5
26E
330
1F
100
AcDbEntity
  8
0
  6
Continuous
 62
     5
100
AcDbCircle
 10
2989.825141752719
 20
-3050.709267675078
 30
0.0
 40
76.36135533927911
100
AcDbArc
 50
173.8982850502833
 51
180.0
  0
ARC
  5
26F
330
1F
100
AcDbEntity
  8
0
  6
Continuous
 62
     5
100
AcDbCircle
 10
-1170.140867322879
 20
-3050.709267675078
 30
0.0
 40
76.36135533928024
100
AcDbArc
 50
173.8982850502834
 51
180.0
  0
ARC
  5
270
330
1F
100
AcDbEntity
  8
0
  6
Continuous
 62
     5
100
AcDbCircle
 10
-1245.07528272674
 20
-3042.698820330839
 30
0.0
 40
1.0
100
AcDbArc
 50
90.0
 51
173.8982850502518
  0
ARC
  5
271
330
1F
100
AcDbEntity
  8
0
  6
Continuous
 62
     5
100
AcDbCircle
 10
-1126.862225668762
 20
-3042.698820330839
 30
0.0
 40
1.000000000000415
100
AcDbArc
 50
6.1017149497482
 51
90.0
  0
ARC
  5
272
330
1F
100
AcDbEntity
  8
0
  6
Continuous
 62
     5
100
AcDbCircle
 10
-1201.796641072623
 20
-3050.709267675078
 30
0.0
 40
76.36135533927904
100
AcDbArc
 50
0.0
 51
6.10171494971662
  0
ARC
  5
273
330
1F
100
AcDbEntity
  8
0
  6
Continuous
 62
     5
100
AcDbCircle
 10
-1170.140867322879
 20
-3050.709267675078
 30
0.0
 40
76.36135533928024
100
AcDbArc
 50
173.8982850502834
 51
180.0
  0
ARC
  5
274
330
1F
100
AcDbEntity
  8
0
  6
Continuous
 62
     5
100
AcDbCircle
 10
-1245.07528272674
 20
-3042.698820330839
 30
0.0
 40
1.0
100
AcDbArc
 50
90.0
 51
173.8982850502518
  0
ARC
  5
275
330
1F
100
AcDbEntity
  8
0
  6
Continuous
 62
     5
100
AcDbCircle
 10
-1126.862225668762
 20
-3042.698820330839
 30
0.0
 40
1.000000000000415
100
AcDbArc
 50
6.1017149497482
 51
90.0
  0
ARC
  5
276
330
1F
100
AcDbEntity
  8
0
  6
Continuous
 62
     5
100
AcDbCircle
 10
-1201.796641072623
 20
-3050.709267675078
 30
0.0
 40
76.36135533927904
100
AcDbArc
 50
0.0
 51
6.10171494971662
  0
ARC
  5
277
330
1F
100
AcDbEntity
  8
0
  6
Continuous
 62
     5
100
AcDbCircle
 10
-1170.140867322879
 20
-3050.709267675078
 30
0.0
 40
76.36135533928024
100
AcDbArc
 50
173.8982850502834
 51
180.0
  0
ARC
  5
278
330
1F
100
AcDbEntity
  8
0
  6
Continuous
 62
     5
100
AcDbCircle
 10
-1245.07528272674
 20
-3042.698820330839
 30
0.0
 40
1.0
100
AcDbArc
 50
90.0
 51
173.8982850502518
  0
ARC
  5
279
330
1F
100
AcDbEntity
  8
0
  6
Continuous
 62
     5
100
AcDbCircle
 10
-1126.862225668762
 20
-3042.698820330839
 30
0.0
 40
1.000000000000415
100
AcDbArc
 50
6.1017149497482
 51
90.0
  0
ARC
  5
27A
330
1F
100
AcDbEntity
  8
0
  6
Continuous
 62
     5
100
AcDbCircle
 10
-1201.796641072623
 20
-3050.709267675078
 30
0.0
 40
76.36135533927904
100
AcDbArc
 50
0.0
 51
6.10171494971662
  0
ARC
  5
27B
330
1F
100
AcDbEntity
  8
0
  6
Continuous
 62
     5
100
AcDbCircle
 10
-1245.551600789843
 20
-3212.198820300807
 30
0.0
 40
0.5000000300338554
100
AcDbArc
 50
185.9468447242477
 51
270.0000261432468
  0
ARC
  5
27C
330
1F
100
AcDbEntity
  8
0
  6
Continuous
 62
     5
100
AcDbCircle
 10
-1245.551600789843
 20
-3212.198820300807
 30
0.0
 40
0.5000000300338554
100
AcDbArc
 50
185.9468447242477
 51
270.0000261432468
  0
ARC
  5
27D
330
1F
100
AcDbEntity
  8
0
  6
Continuous
 62
     5
100
AcDbCircle
 10
975.5125625043961
 20
-3212.198820330851
 30
0.0
 40
0.4999999999964039
100
AcDbArc
 50
269.9998641151291
 51
354.0518626092205
  0
ARC
  5
27E
330
1F
100
AcDbEntity
  8
0
  6
Continuous
 62
     5
100
AcDbCircle
 10
954.4142961479015
 20
-3212.19882033085
 30
0.0
 40
0.5000000000010709
100
AcDbArc
 50
185.9455911408065
 51
270.0
  0
ARC
  5
27F
330
1F
100
AcDbEntity
  8
0
  6
Continuous
 62
     5
100
AcDbCircle
 10
1891.415210780475
 20
-3212.19882033085
 30
0.0
 40
0.499999999996509
100
AcDbArc
 50
185.9481373907795
 51
270.000135884845
  0
ARC
  5
280
330
1F
100
AcDbEntity
  8
0
  6
Continuous
 62
     5
100
AcDbCircle
 10
1912.513468700336
 20
-3212.198813958096
 30
0.0
 40
0.5000063727703444
100
AcDbArc
 50
269.9994980750906
 51
354.0503642281106
  0
ARC
  5
281
330
1F
100
AcDbEntity
  8
0
  6
Continuous
 62
     5
100
AcDbCircle
 10
-1126.385907194243
 20
-3212.198820437821
 30
0.0
 40
0.4999998930202401
100
AcDbArc
 50
269.9999890594855
 51
354.0531482084251
  0
ARC
  5
282
330
1F
100
AcDbEntity
  8
0
  6
Continuous
 62
     5
100
AcDbCircle
 10
-1126.385907194243
 20
-3212.198820437821
 30
0.0
 40
0.4999998930202401
100
AcDbArc
 50
269.9999890594855
 51
354.0531482084251
  0
ARC
  5
283
330
1F
100
AcDbEntity
  8
0
  6
Continuous
 62
     5
100
AcDbCircle
 10
-166.6185381300752
 20
-3212.198820437821
 30
0.0
 40
0.4999998930208924
100
AcDbArc
 50
185.9468517915779
 51
270.0000109405404
  0
ARC
  5
284
330
1F
100
AcDbEntity
  8
0
  6
Continuous
 62
     5
100
AcDbCircle
 10
-166.6185381300752
 20
-3212.198820437821
 30
0.0
 40
0.4999998930208924
100
AcDbArc
 50
185.9468517915779
 51
270.0000109405404
  0
ARC
  5
285
330
1F
100
AcDbEntity
  8
0
  6
Continuous
 62
     5
100
AcDbCircle
 10
-47.45284453447539
 20
-3212.198820300807
 30
0.0
 40
0.5000000300342956
100
AcDbArc
 50
269.9999738567272
 51
354.0531552757495
  0
ARC
  5
286
330
1F
100
AcDbEntity
  8
0
  6
Continuous
 62
     5
100
AcDbCircle
 10
-47.45284453447539
 20
-3212.198820300807
 30
0.0
 40
0.5000000300342956
100
AcDbArc
 50
269.9999738567272
 51
354.0531552757495
  0
ARC
  5
287
330
1F
100
AcDbEntity
  8
0
  6
Continuous
 62
     5
100
AcDbCircle
 10
-91.2078042516946
 20
-3050.709267675079
 30
0.0
 40
76.36135533928054
100
AcDbArc
 50
173.8982850502827
 51
179.9999999999993
  0
ARC
  5
288
330
1F
100
AcDbEntity
  8
0
  6
Continuous
 62
     5
100
AcDbCircle
 10
-166.1422196555554
 20
-3042.698820330839
 30
0.0
 40
1.0
100
AcDbArc
 50
90.000000000057
 51
173.8982850502532
  0
ARC
  5
289
330
1F
100
AcDbEntity
  8
0
  6
Continuous
 62
     5
100
AcDbCircle
 10
-47.92916259757794
 20
-3042.698820330839
 30
0.0
 40
1.000000000000648
100
AcDbArc
 50
6.10171494974677
 51
90.0
  0
ARC
  5
28A
330
1F
100
AcDbEntity
  8
0
  6
Continuous
 62
     5
100
AcDbCircle
 10
-122.8635780014388
 20
-3050.709267675078
 30
0.0
 40
76.36135533927973
100
AcDbArc
 50
0.0
 51
6.10171494971662
  0
ARC
  5
28B
330
1F
100
AcDbEntity
  8
0
  6
Continuous
 62
     5
100
AcDbCircle
 10
-91.2078042516946
 20
-3050.709267675079
 30
0.0
 40
76.36135533928054
100
AcDbArc
 50
173.8982850502827
 51
179.9999999999993
  0
ARC
  5
28C
330
1F
100
AcDbEntity
  8
0
  6
Continuous
 62
     5
100
AcDbCircle
 10
-166.1422196555554
 20
-3042.698820330839
 30
0.0
 40
1.0
100
AcDbArc
 50
90.000000000057
 51
173.8982850502532
  0
ARC
  5
28D
330
1F
100
AcDbEntity
  8
0
  6
Continuous
 62
     5
100
AcDbCircle
 10
-47.92916259757794
 20
-3042.698820330839
 30
0.0
 40
1.000000000000648
100
AcDbArc
 50
6.10171494974677
 51
90.0
  0
ARC
  5
28E
330
1F
100
AcDbEntity
  8
0
  6
Continuous
 62
     5
100
AcDbCircle
 10
-122.8635780014388
 20
-3050.709267675078
 30
0.0
 40
76.36135533927973
100
AcDbArc
 50
0.0
 51
6.10171494971662
  0
ARC
  5
28F
330
1F
100
AcDbEntity
  8
0
  6
Continuous
 62
     5
100
AcDbCircle
 10
-91.2078042516946
 20
-3050.709267675079
 30
0.0
 40
76.36135533928054
100
AcDbArc
 50
173.8982850502827
 51
179.9999999999993
  0
ARC
  5
290
330
1F
100
AcDbEntity
  8
0
  6
Continuous
 62
     5
100
AcDbCircle
 10
-166.1422196555554
 20
-3042.698820330839
 30
0.0
 40
1.0
100
AcDbArc
 50
90.000000000057
 51
173.8982850502532
  0
ARC
  5
291
330
1F
100
AcDbEntity
  8
0
  6
Continuous
 62
     5
100
AcDbCircle
 10
-47.92916259757794
 20
-3042.698820330839
 30
0.0
 40
1.000000000000648
100
AcDbArc
 50
6.10171494974677
 51
90.0
  0
ARC
  5
292
330
1F
100
AcDbEntity
  8
0
  6
Continuous
 62
     5
100
AcDbCircle
 10
-122.8635780014388
 20
-3050.709267675078
 30
0.0
 40
76.36135533927973
100
AcDbArc
 50
0.0
 51
6.10171494971662
  0
ARC
  5
293
330
1F
100
AcDbEntity
  8
0
  6
Continuous
 62
     5
100
AcDbCircle
 10
-6166.519478934718
 20
-3212.198813958097
 30
0.0
 40
0.5000063727698897
100
AcDbArc
 50
269.9994980751427
 51
354.0503642282796
  0
ARC
  5
294
330
1F
100
AcDbEntity
  8
0
  6
Continuous
 62
     5
100
AcDbCircle
 10
-6187.617736854579
 20
-3212.19882033085
 30
0.0
 40
0.4999999999960567
100
AcDbArc
 50
185.9481373907849
 51
270.0001358847667
  0
ARC
  5
295
330
1F
100
AcDbEntity
  8
0
  6
Continuous
 62
     5
100
AcDbCircle
 10
-8529.173814650781
 20
-3050.709267675078
 30
0.0
 40
76.36135533927866
100
AcDbArc
 50
173.8982850502832
 51
180.0
  0
ARC
  5
296
330
1F
100
AcDbEntity
  8
0
  6
Continuous
 62
     5
100
AcDbCircle
 10
-8604.108230054642
 20
-3042.698820330839
 30
0.0
 40
1.0
100
AcDbArc
 50
90.0
 51
173.8982850502421
  0
ARC
  5
297
330
1F
100
AcDbEntity
  8
0
  6
Continuous
 62
     5
100
AcDbCircle
 10
-8485.895172996663
 20
-3042.698820330839
 30
0.0
 40
0.9999999999988323
100
AcDbArc
 50
6.10171494975789
 51
90.0
  0
ARC
  5
298
330
1F
100
AcDbEntity
  8
0
  6
Continuous
 62
     5
100
AcDbCircle
 10
-8560.829588400524
 20
-3050.709267675078
 30
0.0
 40
76.36135533927882
100
AcDbArc
 50
0.0
 51
6.10171494971677
  0
ARC
  5
299
330
1F
100
AcDbEntity
  8
0
  6
Continuous
 62
     5
100
AcDbCircle
 10
-8529.173814650781
 20
-3050.709267675078
 30
0.0
 40
76.36135533927866
100
AcDbArc
 50
173.8982850502832
 51
180.0
  0
ARC
  5
29A
330
1F
100
AcDbEntity
  8
0
  6
Continuous
 62
     5
100
AcDbCircle
 10
-8604.108230054642
 20
-3042.698820330839
 30
0.0
 40
1.0
100
AcDbArc
 50
90.0
 51
173.8982850502421
  0
ARC
  5
29B
330
1F
100
AcDbEntity
  8
0
  6
Continuous
 62
     5
100
AcDbCircle
 10
-8485.895172996663
 20
-3042.698820330839
 30
0.0
 40
0.9999999999988323
100
AcDbArc
 50
6.10171494975789
 51
90.0
  0
ARC
  5
29C
330
1F
100
AcDbEntity
  8
0
  6
Continuous
 62
     5
100
AcDbCircle
 10
-8560.829588400524
 20
-3050.709267675078
 30
0.0
 40
76.36135533927882
100
AcDbArc
 50
0.0
 51
6.10171494971677
  0
ARC
  5
29D
330
1F
100
AcDbEntity
  8
0
  6
Continuous
 62
     5
100
AcDbCircle
 10
-8529.173814650781
 20
-3050.709267675078
 30
0.0
 40
76.36135533927866
100
AcDbArc
 50
173.8982850502832
 51
180.0
  0
ARC
  5
29E
330
1F
100
AcDbEntity
  8
0
  6
Continuous
 62
     5
100
AcDbCircle
 10
-8604.108230054642
 20
-3042.698820330839
 30
0.0
 40
1.0
100
AcDbArc
 50
90.0
 51
173.8982850502421
  0
ARC
  5
29F
330
1F
100
AcDbEntity
  8
0
  6
Continuous
 62
     5
100
AcDbCircle
 10
-8485.895172996663
 20
-3042.698820330839
 30
0.0
 40
0.9999999999988323
100
AcDbArc
 50
6.10171494975789
 51
90.0
  0
ARC
  5
2A0
330
1F
100
AcDbEntity
  8
0
  6
Continuous
 62
     5
100
AcDbCircle
 10
-8560.829588400524
 20
-3050.709267675078
 30
0.0
 40
76.36135533927882
100
AcDbArc
 50
0.0
 51
6.10171494971677
  0
ARC
  5
2A1
330
1F
100
AcDbEntity
  8
0
  6
Continuous
 62
     5
100
AcDbCircle
 10
-8604.584548117744
 20
-3212.198820300807
 30
0.0
 40
0.5000000300336293
100
AcDbArc
 50
185.9468447242504
 51
270.0000261432728
  0
ARC
  5
2A2
330
1F
100
AcDbEntity
  8
0
  6
Continuous
 62
     5
100
AcDbCircle
 10
-8604.584548117744
 20
-3212.198820300807
 30
0.0
 40
0.5000000300336293
100
AcDbArc
 50
185.9468447242504
 51
270.0000261432728
  0
ARC
  5
2A3
330
1F
100
AcDbEntity
  8
0
  6
Continuous
 62
     5
100
AcDbCircle
 10
-6623.520384823505
 20
-3212.198820330851
 30
0.0
 40
0.4999999999964039
100
AcDbArc
 50
269.9998641151291
 51
354.0518626092151
  0
ARC
  5
2A4
330
1F
100
AcDbEntity
  8
0
  6
Continuous
 62
     5
100
AcDbCircle
 10
-6644.618651180001
 20
-3212.19882033085
 30
0.0
 40
0.5000000000010709
100
AcDbArc
 50
185.9455911408065
 51
270.0
  0
ARC
  5
2A5
330
1F
100
AcDbEntity
  8
0
  6
Continuous
 62
     5
100
AcDbCircle
 10
-8485.418854522144
 20
-3212.198820437821
 30
0.0
 40
0.4999998930202401
100
AcDbArc
 50
269.9999890593553
 51
354.0531482084224
  0
ARC
  5
2A6
330
1F
100
AcDbEntity
  8
0
  6
Continuous
 62
     5
100
AcDbCircle
 10
-8485.418854522144
 20
-3212.198820437821
 30
0.0
 40
0.4999998930202401
100
AcDbArc
 50
269.9999890593553
 51
354.0531482084224
  0
ARC
  5
2A7
330
1F
100
AcDbEntity
  8
0
  6
Continuous
 62
     5
100
AcDbCircle
 10
-7765.685483457995
 20
-3212.198820437821
 30
0.0
 40
0.4999998930209206
100
AcDbArc
 50
185.9468517915776
 51
270.0000109404363
  0
ARC
  5
2A8
330
1F
100
AcDbEntity
  8
0
  6
Continuous
 62
     5
100
AcDbCircle
 10
-7765.685483457995
 20
-3212.198820437821
 30
0.0
 40
0.4999998930209206
100
AcDbArc
 50
185.9468517915776
 51
270.0000109404363
  0
ARC
  5
2A9
330
1F
100
AcDbEntity
  8
0
  6
Continuous
 62
     5
100
AcDbCircle
 10
-7646.519789862396
 20
-3212.198820300807
 30
0.0
 40
0.5000000300342956
100
AcDbArc
 50
269.9999738567272
 51
354.0531552757495
  0
ARC
  5
2AA
330
1F
100
AcDbEntity
  8
0
  6
Continuous
 62
     5
100
AcDbCircle
 10
-7646.519789862396
 20
-3212.198820300807
 30
0.0
 40
0.5000000300342956
100
AcDbArc
 50
269.9999738567272
 51
354.0531552757495
  0
ARC
  5
2AB
330
1F
100
AcDbEntity
  8
0
  6
Continuous
 62
     5
100
AcDbCircle
 10
-7690.274749579616
 20
-3050.709267675079
 30
0.0
 40
76.36135533928056
100
AcDbArc
 50
173.8982850502827
 51
179.9999999999993
  0
ARC
  5
2AC
330
1F
100
AcDbEntity
  8
0
  6
Continuous
 62
     5
100
AcDbCircle
 10
-7765.209164983477
 20
-3042.698820330839
 30
0.0
 40
1.0
100
AcDbArc
 50
90.0
 51
173.8982850502477
  0
ARC
  5
2AD
330
1F
100
AcDbEntity
  8
0
  6
Continuous
 62
     5
100
AcDbCircle
 10
-7646.996107925499
 20
-3042.698820330839
 30
0.0
 40
1.000000000000641
100
AcDbArc
 50
6.10171494974681
 51
90.0
  0
ARC
  5
2AE
330
1F
100
AcDbEntity
  8
0
  6
Continuous
 62
     5
100
AcDbCircle
 10
-7721.93052332936
 20
-3050.709267675078
 30
0.0
 40
76.36135533928064
100
AcDbArc
 50
0.0
 51
6.10171494971662
  0
ARC
  5
2AF
330
1F
100
AcDbEntity
  8
0
  6
Continuous
 62
     5
100
AcDbCircle
 10
-7690.274749579616
 20
-3050.709267675079
 30
0.0
 40
76.36135533928056
100
AcDbArc
 50
173.8982850502827
 51
179.9999999999993
  0
ARC
  5
2B0
330
1F
100
AcDbEntity
  8
0
  6
Continuous
 62
     5
100
AcDbCircle
 10
-7765.209164983477
 20
-3042.698820330839
 30
0.0
 40
1.0
100
AcDbArc
 50
90.0
 51
173.8982850502477
  0
ARC
  5
2B1
330
1F
100
AcDbEntity
  8
0
  6
Continuous
 62
     5
100
AcDbCircle
 10
-7646.996107925499
 20
-3042.698820330839
 30
0.0
 40
1.000000000000641
100
AcDbArc
 50
6.10171494974681
 51
90.0
  0
ARC
  5
2B2
330
1F
100
AcDbEntity
  8
0
  6
Continuous
 62
     5
100
AcDbCircle
 10
-7721.93052332936
 20
-3050.709267675078
 30
0.0
 40
76.36135533928064
100
AcDbArc
 50
0.0
 51
6.10171494971662
  0
ARC
  5
2B3
330
1F
100
AcDbEntity
  8
0
  6
Continuous
 62
     5
100
AcDbCircle
 10
-7690.274749579616
 20
-3050.709267675079
 30
0.0
 40
76.36135533928056
100
AcDbArc
 50
173.8982850502827
 51
179.9999999999993
  0
ARC
  5
2B4
330
1F
100
AcDbEntity
  8
0
  6
Continuous
 62
     5
100
AcDbCircle
 10
-7765.209164983477
 20
-3042.698820330839
 30
0.0
 40
1.0
100
AcDbArc
 50
90.0
 51
173.8982850502477
  0
ARC
  5
2B5
330
1F
100
AcDbEntity
  8
0
  6
Continuous
 62
     5
100
AcDbCircle
 10
-7646.996107925499
 20
-3042.698820330839
 30
0.0
 40
1.000000000000641
100
AcDbArc
 50
6.10171494974681
 51
90.0
  0
ARC
  5
2B6
330
1F
100
AcDbEntity
  8
0
  6
Continuous
 62
     5
100
AcDbCircle
 10
-7721.93052332936
 20
-3050.709267675078
 30
0.0
 40
76.36135533928064
100
AcDbArc
 50
0.0
 51
6.10171494971662
  0
ARC
  5
2B7
330
1F
100
AcDbEntity
  8
0
  6
Continuous
 62
     5
100
AcDbCircle
 10
-4282.863586402487
 20
-3050.709267675078
 30
0.0
 40
76.36135533927973
100
AcDbArc
 50
0.0
 51
6.10171494971662
  0
ARC
  5
2B8
330
1F
100
AcDbEntity
  8
0
  6
Continuous
 62
     5
100
AcDbCircle
 10
-4207.929170998626
 20
-3042.698820330839
 30
0.0
 40
1.000000000000641
100
AcDbArc
 50
6.10171494974681
 51
90.0
  0
ARC
  5
2B9
330
1F
100
AcDbEntity
  8
0
  6
Continuous
 62
     5
100
AcDbCircle
 10
-4326.142228056604
 20
-3042.698820330839
 30
0.0
 40
1.0
100
AcDbArc
 50
90.00000000005213
 51
173.8982850502532
  0
ARC
  5
2BA
330
1F
100
AcDbEntity
  8
0
  6
Continuous
 62
     5
100
AcDbCircle
 10
-4251.207812652743
 20
-3050.709267675079
 30
0.0
 40
76.36135533928056
100
AcDbArc
 50
173.8982850502827
 51
179.9999999999993
  0
ARC
  5
2BB
330
1F
100
AcDbEntity
  8
0
  6
Continuous
 62
     5
100
AcDbCircle
 10
-4282.863586402487
 20
-3050.709267675078
 30
0.0
 40
76.36135533927973
100
AcDbArc
 50
0.0
 51
6.10171494971662
  0
ARC
  5
2BC
330
1F
100
AcDbEntity
  8
0
  6
Continuous
 62
     5
100
AcDbCircle
 10
-4207.929170998626
 20
-3042.698820330839
 30
0.0
 40
1.000000000000641
100
AcDbArc
 50
6.10171494974681
 51
90.0
  0
ARC
  5
2BD
330
1F
100
AcDbEntity
  8
0
  6
Continuous
 62
     5
100
AcDbCircle
 10
-4326.142228056604
 20
-3042.698820330839
 30
0.0
 40
1.0
100
AcDbArc
 50
90.00000000005213
 51
173.8982850502532
  0
ARC
  5
2BE
330
1F
100
AcDbEntity
  8
0
  6
Continuous
 62
     5
100
AcDbCircle
 10
-4251.207812652743
 20
-3050.709267675079
 30
0.0
 40
76.36135533928056
100
AcDbArc
 50
173.8982850502827
 51
179.9999999999993
  0
ARC
  5
2BF
330
1F
100
AcDbEntity
  8
0
  6
Continuous
 62
     5
100
AcDbCircle
 10
-4282.863586402487
 20
-3050.709267675078
 30
0.0
 40
76.36135533927973
100
AcDbArc
 50
0.0
 51
6.10171494971662
  0
ARC
  5
2C0
330
1F
100
AcDbEntity
  8
0
  6
Continuous
 62
     5
100
AcDbCircle
 10
-4207.929170998626
 20
-3042.698820330839
 30
0.0
 40
1.000000000000641
100
AcDbArc
 50
6.10171494974681
 51
90.0
  0
ARC
  5
2C1
330
1F
100
AcDbEntity
  8
0
  6
Continuous
 62
     5
100
AcDbCircle
 10
-4326.142228056604
 20
-3042.698820330839
 30
0.0
 40
1.0
100
AcDbArc
 50
90.00000000005213
 51
173.8982850502532
  0
ARC
  5
2C2
330
1F
100
AcDbEntity
  8
0
  6
Continuous
 62
     5
100
AcDbCircle
 10
-4251.207812652743
 20
-3050.709267675079
 30
0.0
 40
76.36135533928056
100
AcDbArc
 50
173.8982850502827
 51
179.9999999999993
  0
ARC
  5
2C3
330
1F
100
AcDbEntity
  8
0
  6
Continuous
 62
     5
100
AcDbCircle
 10
-4207.452852935524
 20
-3212.198820300807
 30
0.0
 40
0.5000000300342956
100
AcDbArc
 50
269.9999738567272
 51
354.0531552757495
  0
ARC
  5
2C4
330
1F
100
AcDbEntity
  8
0
  6
Continuous
 62
     5
100
AcDbCircle
 10
-4207.452852935524
 20
-3212.198820300807
 30
0.0
 40
0.5000000300342956
100
AcDbArc
 50
269.9999738567272
 51
354.0531552757495
  0
ARC
  5
2C5
330
1F
100
AcDbEntity
  8
0
  6
Continuous
 62
     5
100
AcDbCircle
 10
-4326.618546531124
 20
-3212.198820437821
 30
0.0
 40
0.4999998930209206
100
AcDbArc
 50
185.9468517915776
 51
270.0000109404363
  0
ARC
  5
2C6
330
1F
100
AcDbEntity
  8
0
  6
Continuous
 62
     5
100
AcDbCircle
 10
-4326.618546531124
 20
-3212.198820437821
 30
0.0
 40
0.4999998930209206
100
AcDbArc
 50
185.9468517915776
 51
270.0000109404363
  0
ARC
  5
2C7
330
1F
100
AcDbEntity
  8
0
  6
Continuous
 62
     5
100
AcDbCircle
 10
-5046.351917595272
 20
-3212.198820437821
 30
0.0
 40
0.4999998930202401
100
AcDbArc
 50
269.9999890594596
 51
354.0531482084224
  0
ARC
  5
2C8
330
1F
100
AcDbEntity
  8
0
  6
Continuous
 62
     5
100
AcDbCircle
 10
-5046.351917595272
 20
-3212.198820437821
 30
0.0
 40
0.4999998930202401
100
AcDbArc
 50
269.9999890594596
 51
354.0531482084224
  0
ARC
  5
2C9
330
1F
100
AcDbEntity
  8
0
  6
Continuous
 62
     5
100
AcDbCircle
 10
-2247.452541700694
 20
-3212.198813958096
 30
0.0
 40
0.5000063727703444
100
AcDbArc
 50
269.9994980751948
 51
354.0503642281187
  0
ARC
  5
2CA
330
1F
100
AcDbEntity
  8
0
  6
Continuous
 62
     5
100
AcDbCircle
 10
-2268.550799620554
 20
-3212.19882033085
 30
0.0
 40
0.499999999996509
100
AcDbArc
 50
185.9481373907795
 51
270.0001358847147
  0
ARC
  5
2CB
330
1F
100
AcDbEntity
  8
0
  6
Continuous
 62
     5
100
AcDbCircle
 10
-3205.551714253128
 20
-3212.19882033085
 30
0.0
 40
0.5000000000006186
100
AcDbArc
 50
185.9455911408119
 51
270.0
  0
ARC
  5
2CC
330
1F
100
AcDbEntity
  8
0
  6
Continuous
 62
     5
100
AcDbCircle
 10
-3184.453447896633
 20
-3212.198820330851
 30
0.0
 40
0.4999999999964039
100
AcDbArc
 50
269.9998641150248
 51
354.0518626092205
  0
ARC
  5
2CD
330
1F
100
AcDbEntity
  8
0
  6
Continuous
 62
     5
100
AcDbCircle
 10
-5165.517611190872
 20
-3212.198820300807
 30
0.0
 40
0.5000000300336293
100
AcDbArc
 50
185.9468447242504
 51
270.0000261432728
  0
ARC
  5
2CE
330
1F
100
AcDbEntity
  8
0
  6
Continuous
 62
     5
100
AcDbCircle
 10
-5165.517611190872
 20
-3212.198820300807
 30
0.0
 40
0.5000000300336293
100
AcDbArc
 50
185.9468447242504
 51
270.0000261432728
  0
ARC
  5
2CF
330
1F
100
AcDbEntity
  8
0
  6
Continuous
 62
     5
100
AcDbCircle
 10
-5121.762651473652
 20
-3050.709267675078
 30
0.0
 40
76.36135533927882
100
AcDbArc
 50
0.0
 51
6.10171494971669
  0
ARC
  5
2D0
330
1F
100
AcDbEntity
  8
0
  6
Continuous
 62
     5
100
AcDbCircle
 10
-5046.828236069791
 20
-3042.698820330839
 30
0.0
 40
0.9999999999997367
100
AcDbArc
 50
6.10171494975235
 51
90.0
  0
ARC
  5
2D1
330
1F
100
AcDbEntity
  8
0
  6
Continuous
 62
     5
100
AcDbCircle
 10
-5165.04129312777
 20
-3042.698820330839
 30
0.0
 40
1.0
100
AcDbArc
 50
90.0
 51
173.8982850502477
  0
ARC
  5
2D2
330
1F
100
AcDbEntity
  8
0
  6
Continuous
 62
     5
100
AcDbCircle
 10
-5090.106877723909
 20
-3050.709267675078
 30
0.0
 40
76.36135533927956
100
AcDbArc
 50
173.8982850502833
 51
180.0
  0
ARC
  5
2D3
330
1F
100
AcDbEntity
  8
0
  6
Continuous
 62
     5
100
AcDbCircle
 10
-5121.762651473652
 20
-3050.709267675078
 30
0.0
 40
76.36135533927882
100
AcDbArc
 50
0.0
 51
6.10171494971669
  0
ARC
  5
2D4
330
1F
100
AcDbEntity
  8
0
  6
Continuous
 62
     5
100
AcDbCircle
 10
-5046.828236069791
 20
-3042.698820330839
 30
0.0
 40
0.9999999999997367
100
AcDbArc
 50
6.10171494975235
 51
90.0
  0
ARC
  5
2D5
330
1F
100
AcDbEntity
  8
0
  6
Continuous
 62
     5
100
AcDbCircle
 10
-5165.04129312777
 20
-3042.698820330839
 30
0.0
 40
1.0
100
AcDbArc
 50
90.0
 51
173.8982850502477
  0
ARC
  5
2D6
330
1F
100
AcDbEntity
  8
0
  6
Continuous
 62
     5
100
AcDbCircle
 10
-5090.106877723909
 20
-3050.709267675078
 30
0.0
 40
76.36135533927956
100
AcDbArc
 50
173.8982850502833
 51
180.0
  0
ARC
  5
2D7
330
1F
100
AcDbEntity
  8
0
  6
Continuous
 62
     5
100
AcDbCircle
 10
-5121.762651473652
 20
-3050.709267675078
 30
0.0
 40
76.36135533927882
100
AcDbArc
 50
0.0
 51
6.10171494971669
  0
ARC
  5
2D8
330
1F
100
AcDbEntity
  8
0
  6
Continuous
 62
     5
100
AcDbCircle
 10
-5046.828236069791
 20
-3042.698820330839
 30
0.0
 40
0.9999999999997367
100
AcDbArc
 50
6.10171494975235
 51
90.0
  0
ARC
  5
2D9
330
1F
100
AcDbEntity
  8
0
  6
Continuous
 62
     5
100
AcDbCircle
 10
-5165.04129312777
 20
-3042.698820330839
 30
0.0
 40
1.0
100
AcDbArc
 50
90.0
 51
173.8982850502477
  0
ARC
  5
2DA
330
1F
100
AcDbEntity
  8
0
  6
Continuous
 62
     5
100
AcDbCircle
 10
-5090.106877723909
 20
-3050.709267675078
 30
0.0
 40
76.36135533927956
100
AcDbArc
 50
173.8982850502833
 51
180.0
  0
SPLINE
  5
2DB
330
1F
100
AcDbEntity
  8
0
  6
Continuous
 62
     5
100
AcDbSpline
210
0.0
220
0.0
230
1.0
 70
     8
 71
     3
 72
    13
 73
     9
 74
     7
 42
0.0000000001
 43
0.0000000001
 44
0.00000001
 40
0.0
 40
0.0
 40
0.0
 40
0.0
 40
0.0322734933209221
 40
0.0642955845818079
 40
0.1124976518099829
 40
0.1542975652139556
 40
0.224254945778509
 40
0.310154765272421
 40
0.310154765272421
 40
0.310154765272421
 40
0.310154765272421
 10
6312.541164012398
 20
-3207.898819851306
 30
0.0
 10
6312.551945701581
 20
-3207.897816715299
 30
0.0
 10
6312.573425093409
 20
-3207.895818257451
 30
0.0
 10
6312.608055033665
 20
-3207.880135626082
 30
0.0
 10
6312.641241065872
 20
-3207.856290629744
 30
0.0
 10
6312.679285490948
 20
-3207.818767212527
 30
0.0
 10
6312.720687177247
 20
-3207.767265369723
 30
0.0
 10
6312.74817477407
 20
-3207.723139884568
 30
0.0
 10
6312.763324408506
 20
-3207.698820371523
 30
0.0
 11
6312.541164012398
 21
-3207.898819851306
 31
0.0
 11
6312.573083923754
 21
-3207.89405564831
 31
0.0
 11
6312.602615959031
 21
-3207.88167529205
 31
0.0
 11
6312.642101265264
 21
-3207.854028413803
 31
0.0
 11
6312.672144939656
 21
-3207.824966232372
 31
0.0
 11
6312.716308531481
 21
-3207.770711165765
 31
0.0
 11
6312.763324408506
 21
-3207.698820371523
 31
0.0
  0
SPLINE
  5
2DC
330
1F
100
AcDbEntity
  8
0
  6
Continuous
 62
     5
100
AcDbSpline
210
0.0
220
0.0
230
1.0
 70
     8
 71
     3
 72
    13
 73
     9
 74
     7
 42
0.0000000001
 43
0.0000000001
 44
0.00000001
 40
0.0
 40
0.0
 40
0.0
 40
0.0
 40
0.0087016094144147
 40
0.0174032188283369
 40
0.0445122861461605
 40
0.0739825983949566
 40
0.1391761865493435
 40
0.2000000012580754
 40
0.2000000012580754
 40
0.2000000012580754
 40
0.2000000012580754
 10
6313.429997359956
 20
-3207.898820332056
 30
0.0
 10
6313.429997293333
 20
-3207.895919795585
 30
0.0
 10
6313.429997160086
 20
-3207.890118722643
 30
0.0
 10
6313.429996823256
 20
-3207.875281293933
 30
0.0
 10
6313.429996332303
 20
-3207.853520964277
 30
0.0
 10
6313.429995416749
 20
-3207.812929975048
 30
0.0
 10
6313.429994249467
 20
-3207.76110073669
 30
0.0
 10
6313.429993303995
 20
-3207.719094935746
 30
0.0
 10
6313.42999284765
 20
-3207.698820330849
 30
0.0
 11
6313.429997359956
 21
-3207.898820332056
 31
0.0
 11
6313.429997160476
 21
-3207.890118722644
 31
0.0
 11
6313.429996962646
 21
-3207.881417113232
 31
0.0
 11
6313.429996350089
 21
-3207.854308045921
 31
0.0
 11
6313.429995685439
 21
-3207.82483773368
 31
0.0
 11
6313.429994216815
 21
-3207.759644145542
 31
0.0
 11
6313.42999284765
 21
-3207.698820330849
 31
0.0
  0
SPLINE
  5
2DD
330
1F
100
AcDbEntity
  8
0
  6
Continuous
 62
     5
100
AcDbSpline
210
0.0
220
0.0
230
1.0
 70
     8
 71
     3
 72
    19
 73
    15
 74
    13
 42
0.0000000001
 43
0.0000000001
 44
0.00000001
 40
0.0
 40
0.0
 40
0.0
 40
0.0
 40
0.0020992444039825
 40
0.0041985112874075
 40
0.0218774794170146
 40
0.0420848573425538
 40
0.065521740254162
 40
0.094106664179462
 40
0.1237129174444349
 40
0.1539106608692071
 40
0.1930291974070981
 40
0.2325912723602585
 40
0.2714221180133424
 40
0.3082580689251332
 40
0.3082580689251332
 40
0.3082580689251332
 40
0.3082580689251332
 10
6296.159758280603
 20
-3207.898820332106
 30
0.0
 10
6296.159058511497
 20
-3207.898816162437
 30
0.0
 10
6296.157658965795
 20
-3207.898807823055
 30
0.0
 10
6296.150369824638
 20
-3207.898580457238
 30
0.0
 10
6296.137077477801
 20
-3207.896928398767
 30
0.0
 10
6296.117395412203
 20
-3207.891097040126
 30
0.0
 10
6296.095579365101
 20
-3207.880699746286
 30
0.0
 10
6296.072891069109
 20
-3207.865524653992
 30
0.0
 10
6296.050457567943
 20
-3207.846347970214
 30
0.0
 10
6296.027386021076
 20
-3207.822743768993
 30
0.0
 10
6296.004107734338
 20
-3207.794850736073
 30
0.0
 10
6295.981034203673
 20
-3207.763175072374
 30
0.0
 10
6295.959910949108
 20
-3207.731075954845
 30
0.0
 10
6295.947040994961
 20
-3207.709381553652
 30
0.0
 10
6295.940775670924
 20
-3207.698820330847
 30
0.0
 11
6296.159758280603
 21
-3207.898820332106
 31
0.0
 11
6296.157659144592
 21
-3207.898798999586
 31
0.0
 11
6296.155560838858
 21
-3207.89873548191
 31
0.0
 11
6296.138012632608
 21
-3207.89658923599
 31
0.0
 11
6296.118608929088
 21
-3207.890947036746
 31
0.0
 11
6296.097388657467
 21
-3207.880997787883
 31
0.0
 11
6296.073513948846
 21
-3207.865278495148
 31
0.0
 11
6296.050909267671
 21
-3207.846158907773
 31
0.0
 11
6296.029722186643
 21
-3207.824641210279
 31
0.0
 11
6296.004541939483
 21
-3207.794704359178
 31
0.0
 11
6295.981150890468
 21
-3207.762797986765
 31
0.0
 11
6295.959808860611
 21
-3207.730358006252
 31
0.0
 11
6295.940775670924
 21
-3207.698820330847
 31
0.0
  0
SPLINE
  5
2DE
330
1F
100
AcDbEntity
  8
0
  6
Continuous
 62
     5
100
AcDbSpline
210
0.0
220
0.0
230
1.0
 70
     8
 71
     3
 72
    13
 73
     9
 74
     7
 42
0.0000000001
 43
0.0000000001
 44
0.00000001
 40
0.0
 40
0.0
 40
0.0
 40
0.0
 40
0.0081033646182441
 40
0.021173650985169
 40
0.0487764033726616
 40
0.078508003580605
 40
0.1411083917461531
 40
0.2050577351984132
 40
0.2050577351984132
 40
0.2050577351984132
 40
0.2050577351984132
 10
6295.285991753646
 20
-3207.898820332274
 30
0.0
 10
6295.288055155931
 20
-3207.897002167661
 30
0.0
 10
6295.293446713868
 20
-3207.892251402423
 30
0.0
 10
6295.297425490832
 20
-3207.875788522028
 30
0.0
 10
6295.302851894359
 20
-3207.853339406584
 30
0.0
 10
6295.308977948065
 20
-3207.813636603928
 30
0.0
 10
6295.315501690714
 20
-3207.762040726248
 30
0.0
 10
6295.319631466683
 20
-3207.720043020653
 30
0.0
 10
6295.321718365316
 20
-3207.698820330847
 30
0.0
 11
6295.285991753646
 21
-3207.898820332274
 31
0.0
 11
6295.291645249526
 21
-3207.89301494663
 31
0.0
 11
6295.296221162998
 21
-3207.880771850551
 31
0.0
 11
6295.302342351662
 21
-3207.853856371943
 31
0.0
 11
6295.3072097007
 21
-3207.824525893524
 31
0.0
 11
6295.315163276412
 21
-3207.762432824411
 31
0.0
 11
6295.321718365316
 21
-3207.698820330847
 31
0.0
  0
SPLINE
  5
2DF
330
1F
100
AcDbEntity
  8
0
  6
Continuous
 62
     5
100
AcDbSpline
210
0.0
220
0.0
230
1.0
 70
     8
 71
     3
 72
    13
 73
     9
 74
     7
 42
0.0000000001
 43
0.0000000001
 44
0.00000001
 40
0.0
 40
0.0
 40
0.0
 40
0.0
 40
0.0087016094087685
 40
0.0174032188175733
 40
0.0444563065894154
 40
0.0739825983665728
 40
0.1382797309886788
 40
0.2000000012578934
 40
0.2000000012578934
 40
0.2000000012578934
 40
0.2000000012578934
 10
5113.429780811393
 20
-3207.898820332058
 30
0.0
 10
5113.429780874946
 20
-3207.895919795589
 30
0.0
 10
5113.429781002054
 20
-3207.890118722652
 30
0.0
 10
5113.429781330707
 20
-3207.875299953791
 30
0.0
 10
5113.429781816351
 20
-3207.853539624145
 30
0.0
 10
5113.429782715841
 20
-3207.813247453431
 30
0.0
 10
5113.429783875055
 20
-3207.76139955522
 30
0.0
 10
5113.429784814794
 20
-3207.719393754268
 30
0.0
 10
5113.429785275055
 20
-3207.69882033085
 30
0.0
 11
5113.429780811393
 21
-3207.898820332058
 31
0.0
 11
5113.429781002441
 21
-3207.890118722652
 31
0.0
 11
5113.429781195138
 21
-3207.881417113245
 31
0.0
 11
5113.42978179798
 21
-3207.85436402548
 31
0.0
 11
5113.429782457202
 21
-3207.82483773371
 31
0.0
 11
5113.42978389441
 21
-3207.760540601104
 31
0.0
 11
5113.429785275055
 21
-3207.69882033085
 31
0.0
  0
SPLINE
  5
2E0
330
1F
100
AcDbEntity
  8
0
  6
Continuous
 62
     5
100
AcDbSpline
210
0.0
220
0.0
230
1.0
 70
     8
 71
     3
 72
    13
 73
     9
 74
     7
 42
0.0000000001
 43
0.0000000001
 44
0.00000001
 40
0.0
 40
0.0
 40
0.0
 40
0.0
 40
0.0087016094087685
 40
0.0174032188175733
 40
0.0444563065894155
 40
0.0739825983665728
 40
0.1382797309886788
 40
0.2000000012578933
 40
0.2000000012578933
 40
0.2000000012578933
 40
0.2000000012578933
 10
953.4637717357941
 20
-3207.898820332058
 30
0.0
 10
953.4637717993476
 20
-3207.895919795589
 30
0.0
 10
953.4637719264543
 20
-3207.890118722652
 30
0.0
 10
953.4637722551083
 20
-3207.875299953793
 30
0.0
 10
953.463772740755
 20
-3207.853539624145
 30
0.0
 10
953.4637736402411
 20
-3207.81324745343
 30
0.0
 10
953.463774799458
 20
-3207.761399555222
 30
0.0
 10
953.4637757391952
 20
-3207.719393754268
 30
0.0
 10
953.4637761994559
 20
-3207.69882033085
 30
0.0
 11
953.4637717357941
 21
-3207.898820332058
 31
0.0
 11
953.4637719268419
 21
-3207.890118722652
 31
0.0
 11
953.463772119539
 21
-3207.881417113245
 31
0.0
 11
953.4637727223824
 21
-3207.85436402548
 31
0.0
 11
953.4637733816039
 21
-3207.82483773371
 31
0.0
 11
953.4637748188109
 21
-3207.760540601104
 31
0.0
 11
953.4637761994559
 21
-3207.69882033085
 31
0.0
  0
SPLINE
  5
2E1
330
1F
100
AcDbEntity
  8
0
  6
Continuous
 62
     5
100
AcDbSpline
210
0.0
220
0.0
230
1.0
 70
     8
 71
     3
 72
    13
 73
     9
 74
     7
 42
0.0000000001
 43
0.0000000001
 44
0.00000001
 40
0.0
 40
0.0
 40
0.0
 40
0.0
 40
0.0322734933197977
 40
0.0642955845811029
 40
0.1124976518100229
 40
0.1542975652131785
 40
0.2242549457785931
 40
0.3101547652722563
 40
0.3101547652722563
 40
0.3101547652722563
 40
0.3101547652722563
 10
1912.575155243951
 20
-3207.898819851306
 30
0.0
 10
1912.585936933132
 20
-3207.897816715299
 30
0.0
 10
1912.60741632496
 20
-3207.895818257451
 30
0.0
 10
1912.642046265217
 20
-3207.880135626082
 30
0.0
 10
1912.675232297427
 20
-3207.856290629746
 30
0.0
 10
1912.713276722498
 20
-3207.818767212525
 30
0.0
 10
1912.754678408803
 20
-3207.767265369725
 30
0.0
 10
1912.782166005622
 20
-3207.723139884568
 30
0.0
 10
1912.797315640059
 20
-3207.698820371523
 30
0.0
 11
1912.575155243951
 21
-3207.898819851306
 31
0.0
 11
1912.607075155305
 21
-3207.89405564831
 31
0.0
 11
1912.636607190583
 21
-3207.88167529205
 31
0.0
 11
1912.676092496816
 21
-3207.854028413803
 31
0.0
 11
1912.706136171208
 21
-3207.824966232372
 31
0.0
 11
1912.750299763034
 21
-3207.770711165765
 31
0.0
 11
1912.797315640059
 21
-3207.698820371523
 31
0.0
  0
SPLINE
  5
2E2
330
1F
100
AcDbEntity
  8
0
  6
Continuous
 62
     5
100
AcDbSpline
210
0.0
220
0.0
230
1.0
 70
     8
 71
     3
 72
    13
 73
     9
 74
     7
 42
0.0000000001
 43
0.0000000001
 44
0.00000001
 40
0.0
 40
0.0
 40
0.0
 40
0.0
 40
0.0087016094144146
 40
0.0174032188283369
 40
0.0445122861461605
 40
0.0739825983949566
 40
0.1391761865493434
 40
0.2000000012580754
 40
0.2000000012580754
 40
0.2000000012580754
 40
0.2000000012580754
 10
1913.463988591508
 20
-3207.898820332056
 30
0.0
 10
1913.463988524886
 20
-3207.895919795585
 30
0.0
 10
1913.463988391641
 20
-3207.890118722644
 30
0.0
 10
1913.463988054807
 20
-3207.875281293933
 30
0.0
 10
1913.463987563857
 20
-3207.853520964277
 30
0.0
 10
1913.463986648298
 20
-3207.812929975049
 30
0.0
 10
1913.463985481022
 20
-3207.761100736691
 30
0.0
 10
1913.463984535547
 20
-3207.719094935746
 30
0.0
 10
1913.463984079202
 20
-3207.698820330849
 30
0.0
 11
1913.463988591508
 21
-3207.898820332056
 31
0.0
 11
1913.463988392029
 21
-3207.890118722644
 31
0.0
 11
1913.463988194199
 21
-3207.881417113232
 31
0.0
 11
1913.463987581642
 21
-3207.854308045921
 31
0.0
 11
1913.463986916991
 21
-3207.82483773368
 31
0.0
 11
1913.463985448367
 21
-3207.759644145542
 31
0.0
 11
1913.463984079202
 21
-3207.698820330849
 31
0.0
  0
SPLINE
  5
2E3
330
1F
100
AcDbEntity
  8
0
  6
Continuous
 62
     5
100
AcDbSpline
210
0.0
220
0.0
230
1.0
 70
     8
 71
     3
 72
    19
 73
    15
 74
    13
 42
0.0000000001
 43
0.0000000001
 44
0.00000001
 40
0.0
 40
0.0
 40
0.0
 40
0.0
 40
0.0020992444046646
 40
0.0041985112878624
 40
0.021877479417018
 40
0.0420848573432122
 40
0.0655217402550263
 40
0.0941066641803263
 40
0.1237129174447784
 40
0.1539106608697101
 40
0.1930291974074548
 40
0.232591272360884
 40
0.2714221180142179
 40
0.3082580689257737
 40
0.3082580689257737
 40
0.3082580689257737
 40
0.3082580689257737
 10
1896.193749512155
 20
-3207.898820332106
 30
0.0
 10
1896.19304974305
 20
-3207.898816162437
 30
0.0
 10
1896.191650197347
 20
-3207.898807823056
 30
0.0
 10
1896.184361056193
 20
-3207.898580457241
 30
0.0
 10
1896.17106870935
 20
-3207.896928398765
 30
0.0
 10
1896.151386643755
 20
-3207.891097040126
 30
0.0
 10
1896.129570596654
 20
-3207.880699746286
 30
0.0
 10
1896.10688230066
 20
-3207.865524653992
 30
0.0
 10
1896.084448799494
 20
-3207.846347970212
 30
0.0
 10
1896.06137725263
 20
-3207.822743768995
 30
0.0
 10
1896.038098965889
 20
-3207.794850736072
 30
0.0
 10
1896.015025435224
 20
-3207.763175072374
 30
0.0
 10
1895.993902180661
 20
-3207.731075954847
 30
0.0
 10
1895.981032226512
 20
-3207.709381553652
 30
0.0
 10
1895.974766902476
 20
-3207.698820330847
 30
0.0
 11
1896.193749512155
 21
-3207.898820332106
 31
0.0
 11
1896.191650376144
 21
-3207.898798999586
 31
0.0
 11
1896.18955207041
 21
-3207.89873548191
 31
0.0
 11
1896.172003864161
 21
-3207.89658923599
 31
0.0
 11
1896.152600160639
 21
-3207.890947036746
 31
0.0
 11
1896.131379889018
 21
-3207.880997787883
 31
0.0
 11
1896.107505180398
 21
-3207.865278495148
 31
0.0
 11
1896.084900499223
 21
-3207.846158907773
 31
0.0
 11
1896.063713418195
 21
-3207.824641210279
 31
0.0
 11
1896.038533171035
 21
-3207.794704359178
 31
0.0
 11
1896.015142122019
 21
-3207.762797986765
 31
0.0
 11
1895.993800092162
 21
-3207.730358006252
 31
0.0
 11
1895.974766902476
 21
-3207.698820330847
 31
0.0
  0
SPLINE
  5
2E4
330
1F
100
AcDbEntity
  8
0
  6
Continuous
 62
     5
100
AcDbSpline
210
0.0
220
0.0
230
1.0
 70
     8
 71
     3
 72
    13
 73
     9
 74
     7
 42
0.0000000001
 43
0.0000000001
 44
0.00000001
 40
0.0
 40
0.0
 40
0.0
 40
0.0
 40
0.0081033646180855
 40
0.0211736509850103
 40
0.048776403372503
 40
0.0785080035805209
 40
0.1411083917459822
 40
0.2050577351983123
 40
0.2050577351983123
 40
0.2050577351983123
 40
0.2050577351983123
 10
1895.319982985198
 20
-3207.898820332274
 30
0.0
 10
1895.322046387484
 20
-3207.897002167662
 30
0.0
 10
1895.327437945421
 20
-3207.892251402423
 30
0.0
 10
1895.331416722381
 20
-3207.875788522027
 30
0.0
 10
1895.336843125912
 20
-3207.853339406585
 30
0.0
 10
1895.342969179618
 20
-3207.813636603928
 30
0.0
 10
1895.349492922268
 20
-3207.76204072625
 30
0.0
 10
1895.353622698236
 20
-3207.720043020654
 30
0.0
 10
1895.355709596868
 20
-3207.698820330847
 30
0.0
 11
1895.319982985198
 21
-3207.898820332274
 31
0.0
 11
1895.325636481077
 21
-3207.89301494663
 31
0.0
 11
1895.33021239455
 21
-3207.880771850551
 31
0.0
 11
1895.336333583213
 21
-3207.853856371943
 31
0.0
 11
1895.341200932252
 21
-3207.824525893524
 31
0.0
 11
1895.349154507963
 21
-3207.762432824411
 31
0.0
 11
1895.355709596868
 21
-3207.698820330847
 31
0.0
  0
SPLINE
  5
2E5
330
1F
100
AcDbEntity
  8
0
  6
Continuous
 62
     5
100
AcDbSpline
210
0.0
220
0.0
230
1.0
 70
     8
 71
     3
 72
    13
 73
     9
 74
     7
 42
0.0000000001
 43
0.0000000001
 44
0.00000001
 40
0.0
 40
0.0
 40
0.0
 40
0.0
 40
0.0322734933200226
 40
0.0642955845817472
 40
0.1124976518114122
 40
0.1542975652127915
 40
0.2242549457790673
 40
0.3101547652727449
 40
0.3101547652727449
 40
0.3101547652727449
 40
0.3101547652727449
 10
-6166.457792391103
 20
-3207.898819851306
 30
0.0
 10
-6166.447010701921
 20
-3207.897816715299
 30
0.0
 10
-6166.425531310095
 20
-3207.895818257452
 30
0.0
 10
-6166.390901369836
 20
-3207.880135626082
 30
0.0
 10
-6166.357715337625
 20
-3207.856290629745
 30
0.0
 10
-6166.319670912554
 20
-3207.818767212525
 30
0.0
 10
-6166.278269226247
 20
-3207.767265369725
 30
0.0
 10
-6166.250781629431
 20
-3207.723139884569
 30
0.0
 10
-6166.235631994995
 20
-3207.698820371523
 30
0.0
 11
-6166.457792391103
 21
-3207.898819851306
 31
0.0
 11
-6166.425872479748
 21
-3207.89405564831
 31
0.0
 11
-6166.39634044447
 21
-3207.88167529205
 31
0.0
 11
-6166.356855138236
 21
-3207.854028413803
 31
0.0
 11
-6166.326811463846
 21
-3207.824966232373
 31
0.0
 11
-6166.282647872018
 21
-3207.770711165766
 31
0.0
 11
-6166.235631994995
 21
-3207.698820371523
 31
0.0
  0
SPLINE
  5
2E6
330
1F
100
AcDbEntity
  8
0
  6
Continuous
 62
     5
100
AcDbSpline
210
0.0
220
0.0
230
1.0
 70
     8
 71
     3
 72
    13
 73
     9
 74
     7
 42
0.0000000001
 43
0.0000000001
 44
0.00000001
 40
0.0
 40
0.0
 40
0.0
 40
0.0
 40
0.0087016094153241
 40
0.0174032188292464
 40
0.0445122861470699
 40
0.0739825983958661
 40
0.139176186550253
 40
0.2000000012589849
 40
0.2000000012589849
 40
0.2000000012589849
 40
0.2000000012589849
 10
-6165.568959043546
 20
-3207.898820332057
 30
0.0
 10
-6165.568959110167
 20
-3207.895919795586
 30
0.0
 10
-6165.568959243412
 20
-3207.890118722645
 30
0.0
 10
-6165.568959580248
 20
-3207.875281293932
 30
0.0
 10
-6165.568960071194
 20
-3207.853520964277
 30
0.0
 10
-6165.568960986757
 20
-3207.812929975049
 30
0.0
 10
-6165.568962154031
 20
-3207.761100736689
 30
0.0
 10
-6165.568963099506
 20
-3207.719094935745
 30
0.0
 10
-6165.568963555851
 20
-3207.698820330849
 30
0.0
 11
-6165.568959043546
 21
-3207.898820332057
 31
0.0
 11
-6165.568959243024
 21
-3207.890118722644
 31
0.0
 11
-6165.568959440855
 21
-3207.881417113232
 31
0.0
 11
-6165.568960053412
 21
-3207.854308045921
 31
0.0
 11
-6165.568960718062
 21
-3207.82483773368
 31
0.0
 11
-6165.568962186687
 21
-3207.759644145542
 31
0.0
 11
-6165.568963555851
 21
-3207.698820330849
 31
0.0
  0
SPLINE
  5
2E7
330
1F
100
AcDbEntity
  8
0
  6
Continuous
 62
     5
100
AcDbSpline
210
0.0
220
0.0
230
1.0
 70
     8
 71
     3
 72
    19
 73
    15
 74
    13
 42
0.0000000001
 43
0.0000000001
 44
0.00000001
 40
0.0
 40
0.0
 40
0.0
 40
0.0
 40
0.002099244404892
 40
0.0041985112874079
 40
0.0218774794161122
 40
0.042084857343398
 40
0.0655217402541828
 40
0.094106664181002
 40
0.1237129174459749
 40
0.1539106608694709
 40
0.1930291974079473
 40
0.2325912723611077
 40
0.2714221180134318
 40
0.3082580689247526
 40
0.3082580689247526
 40
0.3082580689247526
 40
0.3082580689247526
 10
-6182.839198122899
 20
-3207.898820332106
 30
0.0
 10
-6182.839897892003
 20
-3207.898816162437
 30
0.0
 10
-6182.841297437705
 20
-3207.898807823055
 30
0.0
 10
-6182.848586578862
 20
-3207.898580457243
 30
0.0
 10
-6182.861878925703
 20
-3207.896928398763
 30
0.0
 10
-6182.881560991296
 20
-3207.891097040126
 30
0.0
 10
-6182.903377038399
 20
-3207.880699746284
 30
0.0
 10
-6182.926065334392
 20
-3207.865524653993
 30
0.0
 10
-6182.948498835562
 20
-3207.846347970213
 30
0.0
 10
-6182.971570382426
 20
-3207.822743768994
 30
0.0
 10
-6182.994848669163
 20
-3207.794850736072
 30
0.0
 10
-6183.017922199831
 20
-3207.763175072373
 30
0.0
 10
-6183.039045454394
 20
-3207.731075954848
 30
0.0
 10
-6183.051915408541
 20
-3207.709381553653
 30
0.0
 10
-6183.058180732577
 20
-3207.698820330848
 30
0.0
 11
-6182.839198122899
 21
-3207.898820332106
 31
0.0
 11
-6182.84129725891
 21
-3207.898798999586
 31
0.0
 11
-6182.843395564643
 21
-3207.89873548191
 31
0.0
 11
-6182.860943770892
 21
-3207.89658923599
 31
0.0
 11
-6182.880347474415
 21
-3207.890947036746
 31
0.0
 11
-6182.901567746035
 21
-3207.880997787883
 31
0.0
 11
-6182.925442454657
 21
-3207.865278495148
 31
0.0
 11
-6182.948047135832
 21
-3207.846158907773
 31
0.0
 11
-6182.969234216858
 21
-3207.824641210279
 31
0.0
 11
-6182.994414464019
 21
-3207.794704359178
 31
0.0
 11
-6183.017805513035
 21
-3207.762797986765
 31
0.0
 11
-6183.039147542891
 21
-3207.730358006253
 31
0.0
 11
-6183.058180732577
 21
-3207.698820330848
 31
0.0
  0
SPLINE
  5
2E8
330
1F
100
AcDbEntity
  8
0
  6
Continuous
 62
     5
100
AcDbSpline
210
0.0
220
0.0
230
1.0
 70
     8
 71
     3
 72
    13
 73
     9
 74
     7
 42
0.0000000001
 43
0.0000000001
 44
0.00000001
 40
0.0
 40
0.0
 40
0.0
 40
0.0
 40
0.0081033646176096
 40
0.0211736509840009
 40
0.0487764033721787
 40
0.0785080035801222
 40
0.1411083917456702
 40
0.2050577351971189
 40
0.2050577351971189
 40
0.2050577351971189
 40
0.2050577351971189
 10
-6183.712964649855
 20
-3207.898820332274
 30
0.0
 10
-6183.71090124757
 20
-3207.897002167661
 30
0.0
 10
-6183.705509689633
 20
-3207.892251402423
 30
0.0
 10
-6183.701530912669
 20
-3207.875788522028
 30
0.0
 10
-6183.696104509145
 20
-3207.853339406585
 30
0.0
 10
-6183.689978455435
 20
-3207.813636603927
 30
0.0
 10
-6183.683454712787
 20
-3207.76204072625
 30
0.0
 10
-6183.679324936818
 20
-3207.720043020655
 30
0.0
 10
-6183.677238038185
 20
-3207.698820330848
 30
0.0
 11
-6183.712964649855
 21
-3207.898820332274
 31
0.0
 11
-6183.707311153977
 21
-3207.89301494663
 31
0.0
 11
-6183.702735240503
 21
-3207.880771850552
 31
0.0
 11
-6183.696614051841
 21
-3207.853856371943
 31
0.0
 11
-6183.691746702802
 21
-3207.824525893524
 31
0.0
 11
-6183.68379312709
 21
-3207.762432824411
 31
0.0
 11
-6183.677238038185
 21
-3207.698820330848
 31
0.0
  0
SPLINE
  5
2E9
330
1F
100
AcDbEntity
  8
0
  6
Continuous
 62
     5
100
AcDbSpline
210
0.0
220
0.0
230
1.0
 70
     8
 71
     3
 72
    13
 73
     9
 74
     7
 42
0.0000000001
 43
0.0000000001
 44
0.00000001
 40
0.0
 40
0.0
 40
0.0
 40
0.0
 40
0.0087016094087684
 40
0.0174032188175733
 40
0.0444563065894154
 40
0.0739825983665728
 40
0.1382797309886788
 40
0.2000000012578934
 40
0.2000000012578934
 40
0.2000000012578934
 40
0.2000000012578934
 10
-6645.569175592107
 20
-3207.898820332058
 30
0.0
 10
-6645.569175528554
 20
-3207.895919795589
 30
0.0
 10
-6645.569175401448
 20
-3207.890118722651
 30
0.0
 10
-6645.569175072791
 20
-3207.875299953792
 30
0.0
 10
-6645.569174587152
 20
-3207.853539624146
 30
0.0
 10
-6645.569173687658
 20
-3207.81324745343
 30
0.0
 10
-6645.569172528441
 20
-3207.761399555221
 30
0.0
 10
-6645.569171588706
 20
-3207.719393754269
 30
0.0
 10
-6645.569171128445
 20
-3207.69882033085
 30
0.0
 11
-6645.569175592107
 21
-3207.898820332058
 31
0.0
 11
-6645.56917540106
 21
-3207.890118722652
 31
0.0
 11
-6645.569175208362
 21
-3207.881417113245
 31
0.0
 11
-6645.569174605521
 21
-3207.85436402548
 31
0.0
 11
-6645.569173946298
 21
-3207.82483773371
 31
0.0
 11
-6645.56917250909
 21
-3207.760540601104
 31
0.0
 11
-6645.569171128445
 21
-3207.69882033085
 31
0.0
  0
SPLINE
  5
2EA
330
1F
100
AcDbEntity
  8
0
  6
Continuous
 62
     5
100
AcDbSpline
210
0.0
220
0.0
230
1.0
 70
     8
 71
     3
 72
    13
 73
     9
 74
     7
 42
0.0000000001
 43
0.0000000001
 44
0.00000001
 40
0.0
 40
0.0
 40
0.0
 40
0.0
 40
0.0087016094087685
 40
0.0174032188175733
 40
0.0444563065894155
 40
0.0739825983665728
 40
0.1382797309886788
 40
0.2000000012578933
 40
0.2000000012578933
 40
0.2000000012578933
 40
0.2000000012578933
 10
-3206.502238665235
 20
-3207.898820332058
 30
0.0
 10
-3206.502238601682
 20
-3207.895919795589
 30
0.0
 10
-3206.502238474575
 20
-3207.890118722652
 30
0.0
 10
-3206.502238145922
 20
-3207.87529995379
 30
0.0
 10
-3206.502237660274
 20
-3207.853539624145
 30
0.0
 10
-3206.502236760789
 20
-3207.813247453431
 30
0.0
 10
-3206.502235601571
 20
-3207.761399555221
 30
0.0
 10
-3206.502234661834
 20
-3207.719393754268
 30
0.0
 10
-3206.502234201574
 20
-3207.69882033085
 30
0.0
 11
-3206.502238665235
 21
-3207.898820332058
 31
0.0
 11
-3206.502238474187
 21
-3207.890118722652
 31
0.0
 11
-3206.502238281491
 21
-3207.881417113245
 31
0.0
 11
-3206.502237678647
 21
-3207.85436402548
 31
0.0
 11
-3206.502237019426
 21
-3207.82483773371
 31
0.0
 11
-3206.502235582219
 21
-3207.760540601104
 31
0.0
 11
-3206.502234201574
 21
-3207.69882033085
 31
0.0
  0
SPLINE
  5
2EB
330
1F
100
AcDbEntity
  8
0
  6
Continuous
 62
     5
100
AcDbSpline
210
0.0
220
0.0
230
1.0
 70
     8
 71
     3
 72
    13
 73
     9
 74
     7
 42
0.0000000001
 43
0.0000000001
 44
0.00000001
 40
0.0
 40
0.0
 40
0.0
 40
0.0
 40
0.0322734933204723
 40
0.0642955845821969
 40
0.112497651811862
 40
0.1542975652142004
 40
0.2242549457799021
 40
0.3101547652728185
 40
0.3101547652728185
 40
0.3101547652728185
 40
0.3101547652728185
 10
-2247.390855157079
 20
-3207.898819851306
 30
0.0
 10
-2247.380073467897
 20
-3207.897816715299
 30
0.0
 10
-2247.358594076069
 20
-3207.895818257451
 30
0.0
 10
-2247.323964135813
 20
-3207.880135626083
 30
0.0
 10
-2247.290778103601
 20
-3207.856290629745
 30
0.0
 10
-2247.252733678531
 20
-3207.818767212525
 30
0.0
 10
-2247.211331992226
 20
-3207.767265369725
 30
0.0
 10
-2247.183844395407
 20
-3207.723139884568
 30
0.0
 10
-2247.168694760971
 20
-3207.698820371523
 30
0.0
 11
-2247.390855157079
 21
-3207.898819851306
 31
0.0
 11
-2247.358935245724
 21
-3207.89405564831
 31
0.0
 11
-2247.329403210446
 21
-3207.88167529205
 31
0.0
 11
-2247.289917904212
 21
-3207.854028413803
 31
0.0
 11
-2247.259874229821
 21
-3207.824966232372
 31
0.0
 11
-2247.215710637994
 21
-3207.770711165765
 31
0.0
 11
-2247.168694760971
 21
-3207.698820371523
 31
0.0
  0
SPLINE
  5
2EC
330
1F
100
AcDbEntity
  8
0
  6
Continuous
 62
     5
100
AcDbSpline
210
0.0
220
0.0
230
1.0
 70
     8
 71
     3
 72
    13
 73
     9
 74
     7
 42
0.0000000001
 43
0.0000000001
 44
0.00000001
 40
0.0
 40
0.0
 40
0.0
 40
0.0
 40
0.0087016094144146
 40
0.0174032188283369
 40
0.0445122861461604
 40
0.0739825983949566
 40
0.1391761865493434
 40
0.2000000012580754
 40
0.2000000012580754
 40
0.2000000012580754
 40
0.2000000012580754
 10
-2246.502021809522
 20
-3207.898820332056
 30
0.0
 10
-2246.502021876144
 20
-3207.895919795586
 30
0.0
 10
-2246.502022009388
 20
-3207.890118722644
 30
0.0
 10
-2246.502022346225
 20
-3207.875281293933
 30
0.0
 10
-2246.50202283717
 20
-3207.853520964278
 30
0.0
 10
-2246.502023752733
 20
-3207.812929975049
 30
0.0
 10
-2246.502024920007
 20
-3207.76110073669
 30
0.0
 10
-2246.502025865483
 20
-3207.719094935746
 30
0.0
 10
-2246.502026321828
 20
-3207.698820330849
 30
0.0
 11
-2246.502021809522
 21
-3207.898820332056
 31
0.0
 11
-2246.502022009
 21
-3207.890118722644
 31
0.0
 11
-2246.502022206831
 21
-3207.881417113232
 31
0.0
 11
-2246.502022819388
 21
-3207.854308045921
 31
0.0
 11
-2246.502023484039
 21
-3207.82483773368
 31
0.0
 11
-2246.502024952662
 21
-3207.759644145542
 31
0.0
 11
-2246.502026321828
 21
-3207.698820330849
 31
0.0
  0
SPLINE
  5
2ED
330
1F
100
AcDbEntity
  8
0
  6
Continuous
 62
     5
100
AcDbSpline
210
0.0
220
0.0
230
1.0
 70
     8
 71
     3
 72
    19
 73
    15
 74
    13
 42
0.0000000001
 43
0.0000000001
 44
0.00000001
 40
0.0
 40
0.0
 40
0.0
 40
0.0
 40
0.002099244404892
 40
0.0041985112878625
 40
0.0218774794179209
 40
0.0420848573443334
 40
0.0655217402551182
 40
0.0941066641811778
 40
0.1237129174464979
 40
0.1539106608699939
 40
0.1930291974078849
 40
0.2325912723613141
 40
0.2714221180151478
 40
0.3082580689267036
 40
0.3082580689267036
 40
0.3082580689267036
 40
0.3082580689267036
 10
-2263.772260888874
 20
-3207.898820332106
 30
0.0
 10
-2263.772960657979
 20
-3207.898816162437
 30
0.0
 10
-2263.774360203682
 20
-3207.898807823055
 30
0.0
 10
-2263.781649344836
 20
-3207.898580457241
 30
0.0
 10
-2263.79494169168
 20
-3207.896928398764
 30
0.0
 10
-2263.814623757275
 20
-3207.891097040126
 30
0.0
 10
-2263.836439804376
 20
-3207.880699746285
 30
0.0
 10
-2263.85912810037
 20
-3207.865524653992
 30
0.0
 10
-2263.881561601537
 20
-3207.846347970213
 30
0.0
 10
-2263.904633148399
 20
-3207.822743768993
 30
0.0
 10
-2263.927911435141
 20
-3207.794850736073
 30
0.0
 10
-2263.950984965804
 20
-3207.763175072373
 30
0.0
 10
-2263.97210822037
 20
-3207.731075954847
 30
0.0
 10
-2263.984978174518
 20
-3207.709381553652
 30
0.0
 10
-2263.991243498554
 20
-3207.698820330847
 30
0.0
 11
-2263.772260888874
 21
-3207.898820332106
 31
0.0
 11
-2263.774360024885
 21
-3207.898798999586
 31
0.0
 11
-2263.776458330619
 21
-3207.89873548191
 31
0.0
 11
-2263.794006536869
 21
-3207.89658923599
 31
0.0
 11
-2263.813410240391
 21
-3207.890947036746
 31
0.0
 11
-2263.834630512011
 21
-3207.880997787883
 31
0.0
 11
-2263.858505220632
 21
-3207.865278495148
 31
0.0
 11
-2263.881109901808
 21
-3207.846158907773
 31
0.0
 11
-2263.902296982834
 21
-3207.824641210279
 31
0.0
 11
-2263.927477229994
 21
-3207.794704359178
 31
0.0
 11
-2263.95086827901
 21
-3207.762797986765
 31
0.0
 11
-2263.972210308868
 21
-3207.730358006252
 31
0.0
 11
-2263.991243498554
 21
-3207.698820330847
 31
0.0
  0
SPLINE
  5
2EE
330
1F
100
AcDbEntity
  8
0
  6
Continuous
 62
     5
100
AcDbSpline
210
0.0
220
0.0
230
1.0
 70
     8
 71
     3
 72
    13
 73
     9
 74
     7
 42
0.0000000001
 43
0.0000000001
 44
0.00000001
 40
0.0
 40
0.0
 40
0.0
 40
0.0
 40
0.0081033646182441
 40
0.0211736509848505
 40
0.0487764033724441
 40
0.0785080035803875
 40
0.1411083917459355
 40
0.2050577351982889
 40
0.2050577351982889
 40
0.2050577351982889
 40
0.2050577351982889
 10
-2264.646027415831
 20
-3207.898820332274
 30
0.0
 10
-2264.643964013546
 20
-3207.897002167662
 30
0.0
 10
-2264.638572455608
 20
-3207.892251402424
 30
0.0
 10
-2264.634593678648
 20
-3207.875788522025
 30
0.0
 10
-2264.629167275117
 20
-3207.853339406585
 30
0.0
 10
-2264.623041221413
 20
-3207.813636603927
 30
0.0
 10
-2264.616517478762
 20
-3207.76204072625
 30
0.0
 10
-2264.612387702793
 20
-3207.720043020654
 30
0.0
 10
-2264.610300804161
 20
-3207.698820330847
 30
0.0
 11
-2264.646027415831
 21
-3207.898820332274
 31
0.0
 11
-2264.640373919952
 21
-3207.89301494663
 31
0.0
 11
-2264.63579800648
 21
-3207.880771850551
 31
0.0
 11
-2264.629676817816
 21
-3207.853856371943
 31
0.0
 11
-2264.624809468778
 21
-3207.824525893524
 31
0.0
 11
-2264.616855893066
 21
-3207.762432824411
 31
0.0
 11
-2264.610300804161
 21
-3207.698820330847
 31
0.0
  0
ENDSEC
  0
SECTION
  2
OBJECTS
  0
DICTIONARY
  5
C
330
0
100
AcDbDictionary
281
     1
  3
ACAD_GROUP
350
D
  3
ACAD_LAYOUT
350
1A
  3
ACAD_MATERIAL
350
3B
  3
ACAD_MLEADERSTYLE
350
2F1
  3
ACAD_MLINESTYLE
350
17
  3
ACAD_PLOTSETTINGS
350
19
  3
ACAD_PLOTSTYLENAME
350
E
  3
ACAD_VISUALSTYLE
350
2A
  3
AcDbVariableDictionary
350
2EF
  0
DICTIONARY
  5
D
102
{ACAD_REACTORS
330
C
102
}
330
C
100
AcDbDictionary
281
     1
  0
DICTIONARY
  5
1A
102
{ACAD_REACTORS
330
C
102
}
330
C
100
AcDbDictionary
281
     1
  3
Layout1
350
1E
  3
Layout2
350
26
  3
Model
350
22
  0
DICTIONARY
  5
3B
102
{ACAD_REACTORS
330
C
102
}
330
C
100
AcDbDictionary
281
     1
  3
ByBlock
350
3D
  3
ByLayer
350
3C
  3
Global
350
3E
  0
DICTIONARY
  5
2F1
102
{ACAD_REACTORS
330
C
102
}
330
C
100
AcDbDictionary
281
     1
  0
DICTIONARY
  5
17
102
{ACAD_REACTORS
330
C
102
}
330
C
100
AcDbDictionary
281
     1
  3
Standard
350
18
  0
DICTIONARY
  5
19
102
{ACAD_REACTORS
330
C
102
}
330
C
100
AcDbDictionary
281
     1
  0
ACDBDICTIONARYWDFLT
  5
E
102
{ACAD_REACTORS
330
C
102
}
330
C
100
AcDbDictionary
281
     1
  3
Normal
350
F
100
AcDbDictionaryWithDefault
340
F
  0
DICTIONARY
  5
2A
102
{ACAD_REACTORS
330
C
102
}
330
C
100
AcDbDictionary
281
     1
  3
2dWireframe
350
2F
  3
3D Hidden
350
31
  3
3dWireframe
350
30
  3
Basic
350
32
  3
Brighten
350
36
  3
ColorChange
350
3A
  3
Conceptual
350
34
  3
Dim
350
35
  3
Facepattern
350
39
  3
Flat
350
2B
  3
FlatWithEdges
350
2C
  3
Gouraud
350
2D
  3
GouraudWithEdges
350
2E
  3
Linepattern
350
38
  3
Realistic
350
33
  3
Thicken
350
37
  0
DICTIONARY
  5
2EF
102
{ACAD_REACTORS
330
C
102
}
330
C
100
AcDbDictionary
281
     1
  3
DIMASSOC
350
2F2
  3
HIDETEXT
350
2F3
  0
LAYOUT
  5
1E
102
{ACAD_REACTORS
330
1A
102
}
330
1A
100
AcDbPlotSettings
  1

  2
none_device
  4

  6

 40
0.0
 41
0.0
 42
0.0
 43
0.0
 44
0.0
 45
0.0
 46
0.0
 47
0.0
 48
0.0
 49
0.0
140
0.0
141
0.0
142
1.0
143
1.0
 70
   688
 72
     0
 73
     0
 74
     5
  7

 75
    16
147
1.0
148
0.0
149
0.0
100
AcDbLayout
  1
Layout1
 70
     1
 71
     1
 10
0.0
 20
0.0
 11
12.0
 21
9.0
 12
0.0
 22
0.0
 32
0.0
 14
1.00000000000000E+20
 24
1.00000000000000E+20
 34
1.00000000000000E+20
 15
-1.00000000000000E+20
 25
-1.00000000000000E+20
 35
-1.00000000000000E+20
146
0.0
 13
0.0
 23
0.0
 33
0.0
 16
1.0
 26
0.0
 36
0.0
 17
0.0
 27
1.0
 37
0.0
 76
     0
330
1B
  0
LAYOUT
  5
26
102
{ACAD_REACTORS
330
1A
102
}
330
1A
100
AcDbPlotSettings
  1

  2
none_device
  4

  6

 40
0.0
 41
0.0
 42
0.0
 43
0.0
 44
0.0
 45
0.0
 46
0.0
 47
0.0
 48
0.0
 49
0.0
140
0.0
141
0.0
142
1.0
143
1.0
 70
   688
 72
     0
 73
     0
 74
     5
  7

 75
    16
147
1.0
148
0.0
149
0.0
100
AcDbLayout
  1
Layout2
 70
     1
 71
     2
 10
0.0
 20
0.0
 11
0.0
 21
0.0
 12
0.0
 22
0.0
 32
0.0
 14
0.0
 24
0.0
 34
0.0
 15
0.0
 25
0.0
 35
0.0
146
0.0
 13
0.0
 23
0.0
 33
0.0
 16
1.0
 26
0.0
 36
0.0
 17
0.0
 27
1.0
 37
0.0
 76
     0
330
23
  0
LAYOUT
  5
22
102
{ACAD_REACTORS
330
1A
102
}
330
1A
100
AcDbPlotSettings
  1

  2
none_device
  4

  6

 40
0.0
 41
0.0
 42
0.0
 43
0.0
 44
0.0
 45
0.0
 46
0.0
 47
0.0
 48
0.0
 49
0.0
140
0.0
141
0.0
142
1.0
143
1.0
 70
  1712
 72
     0
 73
     0
 74
     0
  7

 75
     0
147
1.0
148
0.0
149
0.0
100
AcDbLayout
  1
Model
 70
     1
 71
     0
 10
0.0
 20
0.0
 11
12.0
 21
9.0
 12
0.0
 22
0.0
 32
0.0
 14
-8605.53516999006
 24
-5412.698820330841
 34
0.0
 15
6313.46378641344
 25
-3014.698820330838
 35
0.0
146
0.0
 13
0.0
 23
0.0
 33
0.0
 16
1.0
 26
0.0
 36
0.0
 17
0.0
 27
1.0
 37
0.0
 76
     0
330
1F
331
29
  0
MATERIAL
  5
3D
102
{ACAD_REACTORS
330
3B
102
}
102
{ACAD_XDICTIONARY
360
316
102
}
330
3B
100
AcDbMaterial
  1
ByBlock
  0
MATERIAL
  5
3C
102
{ACAD_REACTORS
330
3B
102
}
102
{ACAD_XDICTIONARY
360
314
102
}
330
3B
100
AcDbMaterial
  1
ByLayer
  0
MATERIAL
  5
3E
102
{ACAD_REACTORS
330
3B
102
}
102
{ACAD_XDICTIONARY
360
318
102
}
330
3B
100
AcDbMaterial
  1
Global
  0
MLINESTYLE
  5
18
102
{ACAD_REACTORS
330
17
102
}
330
17
100
AcDbMlineStyle
  2
Standard
 70
     0
  3

 62
   256
 51
90.0
 52
90.0
 71
     2
 49
0.5
 62
   256
  6
BYLAYER
 49
-0.5
 62
   256
  6
BYLAYER
  0
ACDBPLACEHOLDER
  5
F
102
{ACAD_REACTORS
330
E
102
}
330
E
  0
VISUALSTYLE
  5
2F
102
{ACAD_REACTORS
330
2A
102
}
102
{ACAD_XDICTIONARY
360
2FC
102
}
330
2A
100
AcDbVisualStyle
  2
2dWireframe
 70
     4
 71
     0
 72
     2
 73
     0
 90
        0
 40
-0.6
 41
-30.0
 62
     5
 63
     7
 74
     1
 91
        4
 64
     7
 65
   257
 75
     1
175
     1
 42
1.0
 92
        0
 66
   257
 43
1.0
 76
     1
 77
     6
 78
     2
 67
     7
 79
     5
170
     0
171
     0
290
     0
174
     0
 93
        1
 44
0.0
173
     0
291
     0
 45
0.0
1001
ACAD
1000
AcDbSavedByObjectVersion
1070
     0
  0
VISUALSTYLE
  5
31
102
{ACAD_REACTORS
330
2A
102
}
102
{ACAD_XDICTIONARY
360
300
102
}
330
2A
100
AcDbVisualStyle
  2
3D Hidden
 70
     6
 71
     1
 72
     2
 73
     2
 90
        0
 40
-0.6
 41
-30.0
 62
     5
 63
     7
 74
     2
 91
        2
 64
     7
 65
   257
 75
     2
175
     1
 42
40.0
 92
        0
 66
   257
 43
1.0
 76
     1
 77
     6
 78
     2
 67
     7
 79
     3
170
     0
171
     0
290
     0
174
     0
 93
        1
 44
0.0
173
     0
291
     0
 45
0.0
1001
ACAD
1000
AcDbSavedByObjectVersion
1070
     0
  0
VISUALSTYLE
  5
30
102
{ACAD_REACTORS
330
2A
102
}
102
{ACAD_XDICTIONARY
360
2FE
102
}
330
2A
100
AcDbVisualStyle
  2
3dWireframe
 70
     5
 71
     0
 72
     2
 73
     0
 90
        0
 40
-0.6
 41
-30.0
 62
     5
 63
     7
 74
     1
 91
        4
 64
     7
 65
   257
 75
     1
175
     1
 42
1.0
 92
        0
 66
   257
 43
1.0
 76
     1
 77
     6
 78
     2
 67
     7
 79
     5
170
     0
171
     0
290
     0
174
     0
 93
        1
 44
0.0
173
     0
291
     0
 45
0.0
1001
ACAD
1000
AcDbSavedByObjectVersion
1070
     0
  0
VISUALSTYLE
  5
32
102
{ACAD_REACTORS
330
2A
102
}
102
{ACAD_XDICTIONARY
360
302
102
}
330
2A
100
AcDbVisualStyle
  2
Basic
 70
     7
 71
     1
 72
     0
 73
     1
 90
        0
 40
-0.6
 41
-30.0
 62
     5
 63
     7
 74
     0
 91
        4
 64
     7
 65
   257
 75
     1
175
     1
 42
1.0
 92
        8
 66
     7
 43
1.0
 76
     1
 77
     6
 78
     2
 67
     7
 79
     5
170
     0
171
     0
290
     0
174
     0
 93
        1
 44
0.0
173
     0
291
     1
 45
0.0
1001
ACAD
1000
AcDbSavedByObjectVersion
1070
     0
  0
VISUALSTYLE
  5
36
102
{ACAD_REACTORS
330
2A
102
}
102
{ACAD_XDICTIONARY
360
30A
102
}
330
2A
100
AcDbVisualStyle
  2
Brighten
 70
    12
 71
     2
 72
     2
 73
     0
 90
        0
 40
-0.6
 41
-30.0
 62
     5
 63
     7
 74
     1
 91
        4
 64
     7
 65
   257
 75
     1
175
     1
 42
1.0
 92
        8
 66
     7
 43
1.0
 76
     1
 77
     6
 78
     2
 67
     7
 79
     5
170
     0
171
     0
290
     0
174
     0
 93
        1
 44
50.0
173
     0
291
     1
 45
0.0
1001
ACAD
1000
AcDbSavedByObjectVersion
1070
     0
  0
VISUALSTYLE
  5
3A
102
{ACAD_REACTORS
330
2A
102
}
102
{ACAD_XDICTIONARY
360
312
102
}
330
2A
100
AcDbVisualStyle
  2
ColorChange
 70
    16
 71
     2
 72
     2
 73
     3
 90
        0
 40
-0.6
 41
-30.0
 62
     5
 63
     8
 74
     1
 91
        4
 64
     7
 65
   257
 75
     1
175
     1
 42
1.0
 92
        8
 66
     8
 43
1.0
 76
     1
 77
     6
 78
     2
 67
     7
 79
     5
170
     0
171
     0
290
     0
174
     0
 93
        1
 44
0.0
173
     0
291
     1
 45
0.0
1001
ACAD
1000
AcDbSavedByObjectVersion
1070
     0
  0
VISUALSTYLE
  5
34
102
{ACAD_REACTORS
330
2A
102
}
102
{ACAD_XDICTIONARY
360
306
102
}
330
2A
100
AcDbVisualStyle
  2
Conceptual
 70
     9
 71
     3
 72
     2
 73
     0
 90
        0
 40
-0.6
 41
-30.0
 62
     5
 63
     7
 74
     2
 91
        2
 64
     7
 65
   257
 75
     1
175
     1
 42
40.0
 92
        8
 66
     7
 43
1.0
 76
     1
 77
     6
 78
     2
 67
     7
 79
     3
170
     0
171
     0
290
     0
174
     0
 93
        1
 44
0.0
173
     0
291
     0
 45
0.0
1001
ACAD
1000
AcDbSavedByObjectVersion
1070
     0
  0
VISUALSTYLE
  5
35
102
{ACAD_REACTORS
330
2A
102
}
102
{ACAD_XDICTIONARY
360
308
102
}
330
2A
100
AcDbVisualStyle
  2
Dim
 70
    11
 71
     2
 72
     2
 73
     0
 90
        0
 40
-0.6
 41
-30.0
 62
     5
 63
     7
 74
     1
 91
        4
 64
     7
 65
   257
 75
     1
175
     1
 42
1.0
 92
        8
 66
     7
 43
1.0
 76
     1
 77
     6
 78
     2
 67
     7
 79
     5
170
     0
171
     0
290
     0
174
     0
 93
        1
 44
-50.0
173
     0
291
     1
 45
0.0
1001
ACAD
1000
AcDbSavedByObjectVersion
1070
     0
  0
VISUALSTYLE
  5
39
102
{ACAD_REACTORS
330
2A
102
}
102
{ACAD_XDICTIONARY
360
310
102
}
330
2A
100
AcDbVisualStyle
  2
Facepattern
 70
    15
 71
     2
 72
     2
 73
     0
 90
        0
 40
-0.6
 41
-30.0
 62
     5
 63
     7
 74
     1
 91
        4
 64
     7
 65
   257
 75
     1
175
     1
 42
1.0
 92
        8
 66
     7
 43
1.0
 76
     1
 77
     6
 78
     2
 67
     7
 79
     5
170
     0
171
     0
290
     0
174
     0
 93
        1
 44
0.0
173
     0
291
     1
 45
0.0
1001
ACAD
1000
AcDbSavedByObjectVersion
1070
     0
  0
VISUALSTYLE
  5
2B
102
{ACAD_REACTORS
330
2A
102
}
102
{ACAD_XDICTIONARY
360
2F4
102
}
330
2A
100
AcDbVisualStyle
  2
Flat
 70
     0
 71
     2
 72
     1
 73
     1
 90
        2
 40
-0.6
 41
30.0
 62
     5
 63
     7
 74
     0
 91
        4
 64
     7
 65
   257
 75
     1
175
     1
 42
1.0
 92
        8
 66
     7
 43
1.0
 76
     1
 77
     6
 78
     2
 67
     7
 79
     5
170
     0
171
     0
290
     0
174
     0
 93
       13
 44
0.0
173
     0
291
     1
 45
0.0
1001
ACAD
1000
AcDbSavedByObjectVersion
1070
     0
  0
VISUALSTYLE
  5
2C
102
{ACAD_REACTORS
330
2A
102
}
102
{ACAD_XDICTIONARY
360
2F6
102
}
330
2A
100
AcDbVisualStyle
  2
FlatWithEdges
 70
     1
 71
     2
 72
     1
 73
     1
 90
        2
 40
-0.6
 41
30.0
 62
     5
 63
     7
 74
     1
 91
        4
 64
     7
 65
   257
 75
     1
175
     1
 42
1.0
 92
        0
 66
   257
 43
1.0
 76
     1
 77
     6
 78
     2
 67
     7
 79
     5
170
     0
171
     0
290
     0
174
     0
 93
       13
 44
0.0
173
     0
291
     1
 45
0.0
1001
ACAD
1000
AcDbSavedByObjectVersion
1070
     0
  0
VISUALSTYLE
  5
2D
102
{ACAD_REACTORS
330
2A
102
}
102
{ACAD_XDICTIONARY
360
2F8
102
}
330
2A
100
AcDbVisualStyle
  2
Gouraud
 70
     2
 71
     2
 72
     2
 73
     1
 90
        2
 40
-0.6
 41
30.0
 62
     5
 63
     7
 74
     0
 91
        4
 64
     7
 65
   257
 75
     1
175
     1
 42
1.0
 92
        0
 66
     7
 43
1.0
 76
     1
 77
     6
 78
     2
 67
     7
 79
     5
170
     0
171
     0
290
     0
174
     0
 93
       13
 44
0.0
173
     0
291
     1
 45
0.0
1001
ACAD
1000
AcDbSavedByObjectVersion
1070
     0
  0
VISUALSTYLE
  5
2E
102
{ACAD_REACTORS
330
2A
102
}
102
{ACAD_XDICTIONARY
360
2FA
102
}
330
2A
100
AcDbVisualStyle
  2
GouraudWithEdges
 70
     3
 71
     2
 72
     2
 73
     1
 90
        2
 40
-0.6
 41
30.0
 62
     5
 63
     7
 74
     1
 91
        4
 64
     7
 65
   257
 75
     1
175
     1
 42
1.0
 92
        0
 66
   257
 43
1.0
 76
     1
 77
     6
 78
     2
 67
     7
 79
     5
170
     0
171
     0
290
     0
174
     0
 93
       13
 44
0.0
173
     0
291
     1
 45
0.0
1001
ACAD
1000
AcDbSavedByObjectVersion
1070
     0
  0
VISUALSTYLE
  5
38
102
{ACAD_REACTORS
330
2A
102
}
102
{ACAD_XDICTIONARY
360
30E
102
}
330
2A
100
AcDbVisualStyle
  2
Linepattern
 70
    14
 71
     2
 72
     2
 73
     0
 90
        0
 40
-0.6
 41
-30.0
 62
     5
 63
     7
 74
     1
 91
        4
 64
     7
 65
   257
 75
     7
175
     7
 42
1.0
 92
        8
 66
     7
 43
1.0
 76
     1
 77
     6
 78
     2
 67
     7
 79
     5
170
     0
171
     0
290
     0
174
     0
 93
        1
 44
0.0
173
     0
291
     1
 45
0.0
1001
ACAD
1000
AcDbSavedByObjectVersion
1070
     0
  0
VISUALSTYLE
  5
33
102
{ACAD_REACTORS
330
2A
102
}
102
{ACAD_XDICTIONARY
360
304
102
}
330
2A
100
AcDbVisualStyle
  2
Realistic
 70
     8
 71
     2
 72
     2
 73
     0
 90
        0
 40
-0.6
 41
-30.0
 62
     5
 63
     7
 74
     1
 91
        0
 64
     7
 65
   257
 75
     1
175
     1
 42
1.0
 92
        8
 66
     8
 43
1.0
 76
     1
 77
     6
 78
     2
 67
     7
 79
     5
170
     0
171
     0
290
     0
174
     0
 93
       13
 44
0.0
173
     0
291
     0
 45
0.0
1001
ACAD
1000
AcDbSavedByObjectVersion
1070
     0
  0
VISUALSTYLE
  5
37
102
{ACAD_REACTORS
330
2A
102
}
102
{ACAD_XDICTIONARY
360
30C
102
}
330
2A
100
AcDbVisualStyle
  2
Thicken
 70
    13
 71
     2
 72
     2
 73
     0
 90
        0
 40
-0.6
 41
-30.0
 62
     5
 63
     7
 74
     1
 91
        4
 64
     7
 65
   257
 75
     1
175
     1
 42
1.0
 92
       12
 66
     7
 43
1.0
 76
     1
 77
     6
 78
     2
 67
     7
 79
     5
170
     0
171
     0
290
     0
174
     0
 93
        1
 44
0.0
173
     0
291
     1
 45
0.0
1001
ACAD
1000
AcDbSavedByObjectVersion
1070
     0
  0
DICTIONARYVAR
  5
2F2
102
{ACAD_REACTORS
330
2EF
102
}
330
2EF
100
DictionaryVariables
280
     0
  1
2
  0
DICTIONARYVAR
  5
2F3
102
{ACAD_REACTORS
330
2EF
102
}
330
2EF
100
DictionaryVariables
280
     0
  1
1
  0
DICTIONARY
  5
316
330
3D
100
AcDbDictionary
280
     1
281
     1
  3
ACAD_XREC_ROUNDTRIP
360
317
  0
DICTIONARY
  5
314
330
3C
100
AcDbDictionary
280
     1
281
     1
  3
ACAD_XREC_ROUNDTRIP
360
315
  0
DICTIONARY
  5
318
330
3E
100
AcDbDictionary
280
     1
281
     1
  3
ACAD_XREC_ROUNDTRIP
360
319
  0
DICTIONARY
  5
2FC
330
2F
100
AcDbDictionary
280
     1
281
     1
  3
ACAD_XREC_ROUNDTRIP
360
2FD
  0
DICTIONARY
  5
300
330
31
100
AcDbDictionary
280
     1
281
     1
  3
ACAD_XREC_ROUNDTRIP
360
301
  0
DICTIONARY
  5
2FE
330
30
100
AcDbDictionary
280
     1
281
     1
  3
ACAD_XREC_ROUNDTRIP
360
2FF
  0
DICTIONARY
  5
302
330
32
100
AcDbDictionary
280
     1
281
     1
  3
ACAD_XREC_ROUNDTRIP
360
303
  0
DICTIONARY
  5
30A
330
36
100
AcDbDictionary
280
     1
281
     1
  3
ACAD_XREC_ROUNDTRIP
360
30B
  0
DICTIONARY
  5
312
330
3A
100
AcDbDictionary
280
     1
281
     1
  3
ACAD_XREC_ROUNDTRIP
360
313
  0
DICTIONARY
  5
306
330
34
100
AcDbDictionary
280
     1
281
     1
  3
ACAD_XREC_ROUNDTRIP
360
307
  0
DICTIONARY
  5
308
330
35
100
AcDbDictionary
280
     1
281
     1
  3
ACAD_XREC_ROUNDTRIP
360
309
  0
DICTIONARY
  5
310
330
39
100
AcDbDictionary
280
     1
281
     1
  3
ACAD_XREC_ROUNDTRIP
360
311
  0
DICTIONARY
  5
2F4
330
2B
100
AcDbDictionary
280
     1
281
     1
  3
ACAD_XREC_ROUNDTRIP
360
2F5
  0
DICTIONARY
  5
2F6
330
2C
100
AcDbDictionary
280
     1
281
     1
  3
ACAD_XREC_ROUNDTRIP
360
2F7
  0
DICTIONARY
  5
2F8
330
2D
100
AcDbDictionary
280
     1
281
     1
  3
ACAD_XREC_ROUNDTRIP
360
2F9
  0
DICTIONARY
  5
2FA
330
2E
100
AcDbDictionary
280
     1
281
     1
  3
ACAD_XREC_ROUNDTRIP
360
2FB
  0
DICTIONARY
  5
30E
330
38
100
AcDbDictionary
280
     1
281
     1
  3
ACAD_XREC_ROUNDTRIP
360
30F
  0
DICTIONARY
  5
304
330
33
100
AcDbDictionary
280
     1
281
     1
  3
ACAD_XREC_ROUNDTRIP
360
305
  0
DICTIONARY
  5
30C
330
37
100
AcDbDictionary
280
     1
281
     1
  3
ACAD_XREC_ROUNDTRIP
360
30D
  0
XRECORD
  5
317
102
{ACAD_REACTORS
330
316
102
}
330
316
100
AcDbXrecord
280
     1
102
MATERIAL
148
0.0
149
0.0
149
0.0
 93
        0
 94
      127
282
     0
 72
     1
 77
     1
171
     1
175
     1
179
     1
273
     0
  0
XRECORD
  5
315
102
{ACAD_REACTORS
330
314
102
}
330
314
100
AcDbXrecord
280
     1
102
MATERIAL
148
0.0
149
0.0
149
0.0
 93
        0
 94
      127
282
     0
 72
     1
 77
     1
171
     1
175
     1
179
     1
273
     0
  0
XRECORD
  5
319
102
{ACAD_REACTORS
330
318
102
}
330
318
100
AcDbXrecord
280
     1
102
MATERIAL
148
0.0
149
0.0
149
0.0
 93
        0
 94
      127
282
     0
 72
     1
 77
     1
171
     1
175
     1
179
     1
273
     0
  0
XRECORD
  5
2FD
102
{ACAD_REACTORS
330
2FC
102
}
330
2FC
100
AcDbXrecord
280
     1
102
RTVSPropertyOp0
 70
     1
102
RTVSPropertyOp1
 70
     1
102
RTVSPropertyOp2
 70
     1
102
RTVSPropertyOp3
 70
     1
102
RTVSPropertyOp4
 70
     1
102
RTVSPropertyOp5
 70
     1
102
RTVSPropertyOp6
 70
     1
102
RTVSPropertyOp7
 70
     1
102
RTVSPropertyOp8
 70
     1
102
RTVSPropertyOp9
 70
     1
102
RTVSPropertyOp10
 70
     1
102
RTVSPropertyOp11
 70
     1
102
RTVSPropertyOp12
 70
     1
102
RTVSPropertyOp13
 70
     1
102
RTVSPropertyOp14
 70
     1
102
RTVSPropertyOp15
 70
     1
102
RTVSPropertyOp16
 70
     1
102
RTVSPropertyOp17
 70
     1
102
RTVSPropertyOp18
 70
     1
102
RTVSPropertyOp19
 70
     1
102
RTVSPropertyOp20
 70
     1
102
RTVSPropertyOp21
 70
     1
102
RTVSPropertyOp22
 70
     1
102
RTVSPropertyOp23
 70
     1
102
RTVSPropertyOp24
 70
     1
102
RTVSPropertyOp25
 70
     1
102
RTVSPropertyOp26
 70
     1
102
RTVSPropertyOp27
 70
     1
  0
XRECORD
  5
301
102
{ACAD_REACTORS
330
300
102
}
330
300
100
AcDbXrecord
280
     1
102
RTVSPropertyOp0
 70
     1
102
RTVSPropertyOp1
 70
     1
102
RTVSPropertyOp2
 70
     1
102
RTVSPropertyOp3
 70
     1
102
RTVSPropertyOp4
 70
     1
102
RTVSPropertyOp5
 70
     1
102
RTVSPropertyOp6
 70
     1
102
RTVSPropertyOp7
 70
     1
102
RTVSPropertyOp8
 70
     1
102
RTVSPropertyOp9
 70
     1
102
RTVSPropertyOp10
 70
     1
102
RTVSPropertyOp11
 70
     1
102
RTVSPropertyOp12
 70
     1
102
RTVSPropertyOp13
 70
     1
102
RTVSPropertyOp14
 70
     1
102
RTVSPropertyOp15
 70
     1
102
RTVSPropertyOp16
 70
     1
102
RTVSPropertyOp17
 70
     1
102
RTVSPropertyOp18
 70
     1
102
RTVSPropertyOp19
 70
     1
102
RTVSPropertyOp20
 70
     1
102
RTVSPropertyOp21
 70
     1
102
RTVSPropertyOp22
 70
     1
102
RTVSPropertyOp23
 70
     1
102
RTVSPropertyOp24
 70
     1
102
RTVSPropertyOp25
 70
     1
102
RTVSPropertyOp26
 70
     1
102
RTVSPropertyOp27
 70
     1
  0
XRECORD
  5
2FF
102
{ACAD_REACTORS
330
2FE
102
}
330
2FE
100
AcDbXrecord
280
     1
102
RTVSPropertyOp0
 70
     1
102
RTVSPropertyOp1
 70
     1
102
RTVSPropertyOp2
 70
     1
102
RTVSPropertyOp3
 70
     1
102
RTVSPropertyOp4
 70
     1
102
RTVSPropertyOp5
 70
     1
102
RTVSPropertyOp6
 70
     1
102
RTVSPropertyOp7
 70
     1
102
RTVSPropertyOp8
 70
     1
102
RTVSPropertyOp9
 70
     1
102
RTVSPropertyOp10
 70
     1
102
RTVSPropertyOp11
 70
     1
102
RTVSPropertyOp12
 70
     1
102
RTVSPropertyOp13
 70
     1
102
RTVSPropertyOp14
 70
     1
102
RTVSPropertyOp15
 70
     1
102
RTVSPropertyOp16
 70
     1
102
RTVSPropertyOp17
 70
     1
102
RTVSPropertyOp18
 70
     1
102
RTVSPropertyOp19
 70
     1
102
RTVSPropertyOp20
 70
     1
102
RTVSPropertyOp21
 70
     1
102
RTVSPropertyOp22
 70
     1
102
RTVSPropertyOp23
 70
     1
102
RTVSPropertyOp24
 70
     1
102
RTVSPropertyOp25
 70
     1
102
RTVSPropertyOp26
 70
     1
102
RTVSPropertyOp27
 70
     1
  0
XRECORD
  5
303
102
{ACAD_REACTORS
330
302
102
}
330
302
100
AcDbXrecord
280
     1
102
RTVSPropertyOp0
 70
     1
102
RTVSPropertyOp1
 70
     1
102
RTVSPropertyOp2
 70
     1
102
RTVSPropertyOp3
 70
     1
102
RTVSPropertyOp4
 70
     1
102
RTVSPropertyOp5
 70
     1
102
RTVSPropertyOp6
 70
     1
102
RTVSPropertyOp7
 70
     1
102
RTVSPropertyOp8
 70
     1
102
RTVSPropertyOp9
 70
     1
102
RTVSPropertyOp10
 70
     1
102
RTVSPropertyOp11
 70
     1
102
RTVSPropertyOp12
 70
     1
102
RTVSPropertyOp13
 70
     1
102
RTVSPropertyOp14
 70
     1
102
RTVSPropertyOp15
 70
     1
102
RTVSPropertyOp16
 70
     1
102
RTVSPropertyOp17
 70
     1
102
RTVSPropertyOp18
 70
     1
102
RTVSPropertyOp19
 70
     1
102
RTVSPropertyOp20
 70
     1
102
RTVSPropertyOp21
 70
     1
102
RTVSPropertyOp22
 70
     1
102
RTVSPropertyOp23
 70
     1
102
RTVSPropertyOp24
 70
     1
102
RTVSPropertyOp25
 70
     1
102
RTVSPropertyOp26
 70
     1
102
RTVSPropertyOp27
 70
     1
  0
XRECORD
  5
30B
102
{ACAD_REACTORS
330
30A
102
}
330
30A
100
AcDbXrecord
280
     1
102
RTVSPropertyOp0
 70
     1
102
RTVSPropertyOp1
 70
     1
102
RTVSPropertyOp2
 70
     1
102
RTVSPropertyOp3
 70
     1
102
RTVSPropertyOp4
 70
     1
102
RTVSPropertyOp5
 70
     1
102
RTVSPropertyOp6
 70
     1
102
RTVSPropertyOp7
 70
     1
102
RTVSPropertyOp8
 70
     1
102
RTVSPropertyOp9
 70
     1
102
RTVSPropertyOp10
 70
     1
102
RTVSPropertyOp11
 70
     1
102
RTVSPropertyOp12
 70
     1
102
RTVSPropertyOp13
 70
     1
102
RTVSPropertyOp14
 70
     1
102
RTVSPropertyOp15
 70
     1
102
RTVSPropertyOp16
 70
     1
102
RTVSPropertyOp17
 70
     1
102
RTVSPropertyOp18
 70
     1
102
RTVSPropertyOp19
 70
     1
102
RTVSPropertyOp20
 70
     1
102
RTVSPropertyOp21
 70
     1
102
RTVSPropertyOp22
 70
     1
102
RTVSPropertyOp23
 70
     1
102
RTVSPropertyOp24
 70
     1
102
RTVSPropertyOp25
 70
     1
102
RTVSPropertyOp26
 70
     1
102
RTVSPropertyOp27
 70
     1
  0
XRECORD
  5
313
102
{ACAD_REACTORS
330
312
102
}
330
312
100
AcDbXrecord
280
     1
102
RTVSPropertyOp0
 70
     1
102
RTVSPropertyOp1
 70
     1
102
RTVSPropertyOp2
 70
     1
102
RTVSPropertyOp3
 70
     1
102
RTVSPropertyOp4
 70
     1
102
RTVSPropertyOp5
 70
     1
102
RTVSPropertyOp6
 70
     1
102
RTVSPropertyOp7
 70
     1
102
RTVSPropertyOp8
 70
     1
102
RTVSPropertyOp9
 70
     1
102
RTVSPropertyOp10
 70
     1
102
RTVSPropertyOp11
 70
     1
102
RTVSPropertyOp12
 70
     1
102
RTVSPropertyOp13
 70
     1
102
RTVSPropertyOp14
 70
     1
102
RTVSPropertyOp15
 70
     1
102
RTVSPropertyOp16
 70
     1
102
RTVSPropertyOp17
 70
     1
102
RTVSPropertyOp18
 70
     1
102
RTVSPropertyOp19
 70
     1
102
RTVSPropertyOp20
 70
     1
102
RTVSPropertyOp21
 70
     1
102
RTVSPropertyOp22
 70
     1
102
RTVSPropertyOp23
 70
     1
102
RTVSPropertyOp24
 70
     1
102
RTVSPropertyOp25
 70
     1
102
RTVSPropertyOp26
 70
     1
102
RTVSPropertyOp27
 70
     1
  0
XRECORD
  5
307
102
{ACAD_REACTORS
330
306
102
}
330
306
100
AcDbXrecord
280
     1
102
RTVSPropertyOp0
 70
     1
102
RTVSPropertyOp1
 70
     1
102
RTVSPropertyOp2
 70
     1
102
RTVSPropertyOp3
 70
     1
102
RTVSPropertyOp4
 70
     1
102
RTVSPropertyOp5
 70
     1
102
RTVSPropertyOp6
 70
     1
102
RTVSPropertyOp7
 70
     1
102
RTVSPropertyOp8
 70
     1
102
RTVSPropertyOp9
 70
     1
102
RTVSPropertyOp10
 70
     1
102
RTVSPropertyOp11
 70
     1
102
RTVSPropertyOp12
 70
     1
102
RTVSPropertyOp13
 70
     1
102
RTVSPropertyOp14
 70
     1
102
RTVSPropertyOp15
 70
     1
102
RTVSPropertyOp16
 70
     1
102
RTVSPropertyOp17
 70
     1
102
RTVSPropertyOp18
 70
     1
102
RTVSPropertyOp19
 70
     1
102
RTVSPropertyOp20
 70
     1
102
RTVSPropertyOp21
 70
     1
102
RTVSPropertyOp22
 70
     1
102
RTVSPropertyOp23
 70
     1
102
RTVSPropertyOp24
 70
     1
102
RTVSPropertyOp25
 70
     1
102
RTVSPropertyOp26
 70
     1
102
RTVSPropertyOp27
 70
     1
  0
XRECORD
  5
309
102
{ACAD_REACTORS
330
308
102
}
330
308
100
AcDbXrecord
280
     1
102
RTVSPropertyOp0
 70
     1
102
RTVSPropertyOp1
 70
     1
102
RTVSPropertyOp2
 70
     1
102
RTVSPropertyOp3
 70
     1
102
RTVSPropertyOp4
 70
     1
102
RTVSPropertyOp5
 70
     1
102
RTVSPropertyOp6
 70
     1
102
RTVSPropertyOp7
 70
     1
102
RTVSPropertyOp8
 70
     1
102
RTVSPropertyOp9
 70
     1
102
RTVSPropertyOp10
 70
     1
102
RTVSPropertyOp11
 70
     1
102
RTVSPropertyOp12
 70
     1
102
RTVSPropertyOp13
 70
     1
102
RTVSPropertyOp14
 70
     1
102
RTVSPropertyOp15
 70
     1
102
RTVSPropertyOp16
 70
     1
102
RTVSPropertyOp17
 70
     1
102
RTVSPropertyOp18
 70
     1
102
RTVSPropertyOp19
 70
     1
102
RTVSPropertyOp20
 70
     1
102
RTVSPropertyOp21
 70
     1
102
RTVSPropertyOp22
 70
     1
102
RTVSPropertyOp23
 70
     1
102
RTVSPropertyOp24
 70
     1
102
RTVSPropertyOp25
 70
     1
102
RTVSPropertyOp26
 70
     1
102
RTVSPropertyOp27
 70
     1
  0
XRECORD
  5
311
102
{ACAD_REACTORS
330
310
102
}
330
310
100
AcDbXrecord
280
     1
102
RTVSPropertyOp0
 70
     1
102
RTVSPropertyOp1
 70
     1
102
RTVSPropertyOp2
 70
     1
102
RTVSPropertyOp3
 70
     1
102
RTVSPropertyOp4
 70
     1
102
RTVSPropertyOp5
 70
     1
102
RTVSPropertyOp6
 70
     1
102
RTVSPropertyOp7
 70
     1
102
RTVSPropertyOp8
 70
     1
102
RTVSPropertyOp9
 70
     1
102
RTVSPropertyOp10
 70
     1
102
RTVSPropertyOp11
 70
     1
102
RTVSPropertyOp12
 70
     1
102
RTVSPropertyOp13
 70
     1
102
RTVSPropertyOp14
 70
     1
102
RTVSPropertyOp15
 70
     1
102
RTVSPropertyOp16
 70
     1
102
RTVSPropertyOp17
 70
     1
102
RTVSPropertyOp18
 70
     1
102
RTVSPropertyOp19
 70
     1
102
RTVSPropertyOp20
 70
     1
102
RTVSPropertyOp21
 70
     1
102
RTVSPropertyOp22
 70
     1
102
RTVSPropertyOp23
 70
     1
102
RTVSPropertyOp24
 70
     1
102
RTVSPropertyOp25
 70
     1
102
RTVSPropertyOp26
 70
     1
102
RTVSPropertyOp27
 70
     1
  0
XRECORD
  5
2F5
102
{ACAD_REACTORS
330
2F4
102
}
330
2F4
100
AcDbXrecord
280
     1
102
RTVSPropertyOp0
 70
     1
102
RTVSPropertyOp1
 70
     1
102
RTVSPropertyOp2
 70
     1
102
RTVSPropertyOp3
 70
     1
102
RTVSPropertyOp4
 70
     1
102
RTVSPropertyOp5
 70
     1
102
RTVSPropertyOp6
 70
     1
102
RTVSPropertyOp7
 70
     1
102
RTVSPropertyOp8
 70
     1
102
RTVSPropertyOp9
 70
     1
102
RTVSPropertyOp10
 70
     1
102
RTVSPropertyOp11
 70
     1
102
RTVSPropertyOp12
 70
     1
102
RTVSPropertyOp13
 70
     1
102
RTVSPropertyOp14
 70
     1
102
RTVSPropertyOp15
 70
     1
102
RTVSPropertyOp16
 70
     1
102
RTVSPropertyOp17
 70
     1
102
RTVSPropertyOp18
 70
     1
102
RTVSPropertyOp19
 70
     1
102
RTVSPropertyOp20
 70
     1
102
RTVSPropertyOp21
 70
     1
102
RTVSPropertyOp22
 70
     1
102
RTVSPropertyOp23
 70
     1
102
RTVSPropertyOp24
 70
     1
102
RTVSPropertyOp25
 70
     1
102
RTVSPropertyOp26
 70
     1
102
RTVSPropertyOp27
 70
     1
  0
XRECORD
  5
2F7
102
{ACAD_REACTORS
330
2F6
102
}
330
2F6
100
AcDbXrecord
280
     1
102
RTVSPropertyOp0
 70
     1
102
RTVSPropertyOp1
 70
     1
102
RTVSPropertyOp2
 70
     1
102
RTVSPropertyOp3
 70
     1
102
RTVSPropertyOp4
 70
     1
102
RTVSPropertyOp5
 70
     1
102
RTVSPropertyOp6
 70
     1
102
RTVSPropertyOp7
 70
     1
102
RTVSPropertyOp8
 70
     1
102
RTVSPropertyOp9
 70
     1
102
RTVSPropertyOp10
 70
     1
102
RTVSPropertyOp11
 70
     1
102
RTVSPropertyOp12
 70
     1
102
RTVSPropertyOp13
 70
     1
102
RTVSPropertyOp14
 70
     1
102
RTVSPropertyOp15
 70
     1
102
RTVSPropertyOp16
 70
     1
102
RTVSPropertyOp17
 70
     1
102
RTVSPropertyOp18
 70
     1
102
RTVSPropertyOp19
 70
     1
102
RTVSPropertyOp20
 70
     1
102
RTVSPropertyOp21
 70
     1
102
RTVSPropertyOp22
 70
     1
102
RTVSPropertyOp23
 70
     1
102
RTVSPropertyOp24
 70
     1
102
RTVSPropertyOp25
 70
     1
102
RTVSPropertyOp26
 70
     1
102
RTVSPropertyOp27
 70
     1
  0
XRECORD
  5
2F9
102
{ACAD_REACTORS
330
2F8
102
}
330
2F8
100
AcDbXrecord
280
     1
102
RTVSPropertyOp0
 70
     1
102
RTVSPropertyOp1
 70
     1
102
RTVSPropertyOp2
 70
     1
102
RTVSPropertyOp3
 70
     1
102
RTVSPropertyOp4
 70
     1
102
RTVSPropertyOp5
 70
     1
102
RTVSPropertyOp6
 70
     1
102
RTVSPropertyOp7
 70
     1
102
RTVSPropertyOp8
 70
     1
102
RTVSPropertyOp9
 70
     1
102
RTVSPropertyOp10
 70
     1
102
RTVSPropertyOp11
 70
     1
102
RTVSPropertyOp12
 70
     1
102
RTVSPropertyOp13
 70
     1
102
RTVSPropertyOp14
 70
     1
102
RTVSPropertyOp15
 70
     1
102
RTVSPropertyOp16
 70
     1
102
RTVSPropertyOp17
 70
     1
102
RTVSPropertyOp18
 70
     1
102
RTVSPropertyOp19
 70
     1
102
RTVSPropertyOp20
 70
     1
102
RTVSPropertyOp21
 70
     1
102
RTVSPropertyOp22
 70
     1
102
RTVSPropertyOp23
 70
     1
102
RTVSPropertyOp24
 70
     1
102
RTVSPropertyOp25
 70
     1
102
RTVSPropertyOp26
 70
     1
102
RTVSPropertyOp27
 70
     1
  0
XRECORD
  5
2FB
102
{ACAD_REACTORS
330
2FA
102
}
330
2FA
100
AcDbXrecord
280
     1
102
RTVSPropertyOp0
 70
     1
102
RTVSPropertyOp1
 70
     1
102
RTVSPropertyOp2
 70
     1
102
RTVSPropertyOp3
 70
     1
102
RTVSPropertyOp4
 70
     1
102
RTVSPropertyOp5
 70
     1
102
RTVSPropertyOp6
 70
     1
102
RTVSPropertyOp7
 70
     1
102
RTVSPropertyOp8
 70
     1
102
RTVSPropertyOp9
 70
     1
102
RTVSPropertyOp10
 70
     1
102
RTVSPropertyOp11
 70
     1
102
RTVSPropertyOp12
 70
     1
102
RTVSPropertyOp13
 70
     1
102
RTVSPropertyOp14
 70
     1
102
RTVSPropertyOp15
 70
     1
102
RTVSPropertyOp16
 70
     1
102
RTVSPropertyOp17
 70
     1
102
RTVSPropertyOp18
 70
     1
102
RTVSPropertyOp19
 70
     1
102
RTVSPropertyOp20
 70
     1
102
RTVSPropertyOp21
 70
     1
102
RTVSPropertyOp22
 70
     1
102
RTVSPropertyOp23
 70
     1
102
RTVSPropertyOp24
 70
     1
102
RTVSPropertyOp25
 70
     1
102
RTVSPropertyOp26
 70
     1
102
RTVSPropertyOp27
 70
     1
  0
XRECORD
  5
30F
102
{ACAD_REACTORS
330
30E
102
}
330
30E
100
AcDbXrecord
280
     1
102
RTVSPropertyOp0
 70
     1
102
RTVSPropertyOp1
 70
     1
102
RTVSPropertyOp2
 70
     1
102
RTVSPropertyOp3
 70
     1
102
RTVSPropertyOp4
 70
     1
102
RTVSPropertyOp5
 70
     1
102
RTVSPropertyOp6
 70
     1
102
RTVSPropertyOp7
 70
     1
102
RTVSPropertyOp8
 70
     1
102
RTVSPropertyOp9
 70
     1
102
RTVSPropertyOp10
 70
     1
102
RTVSPropertyOp11
 70
     1
102
RTVSPropertyOp12
 70
     1
102
RTVSPropertyOp13
 70
     1
102
RTVSPropertyOp14
 70
     1
102
RTVSPropertyOp15
 70
     1
102
RTVSPropertyOp16
 70
     1
102
RTVSPropertyOp17
 70
     1
102
RTVSPropertyOp18
 70
     1
102
RTVSPropertyOp19
 70
     1
102
RTVSPropertyOp20
 70
     1
102
RTVSPropertyOp21
 70
     1
102
RTVSPropertyOp22
 70
     1
102
RTVSPropertyOp23
 70
     1
102
RTVSPropertyOp24
 70
     1
102
RTVSPropertyOp25
 70
     1
102
RTVSPropertyOp26
 70
     1
102
RTVSPropertyOp27
 70
     1
  0
XRECORD
  5
305
102
{ACAD_REACTORS
330
304
102
}
330
304
100
AcDbXrecord
280
     1
102
RTVSPropertyOp0
 70
     1
102
RTVSPropertyOp1
 70
     1
102
RTVSPropertyOp2
 70
     1
102
RTVSPropertyOp3
 70
     1
102
RTVSPropertyOp4
 70
     1
102
RTVSPropertyOp5
 70
     1
102
RTVSPropertyOp6
 70
     1
102
RTVSPropertyOp7
 70
     1
102
RTVSPropertyOp8
 70
     1
102
RTVSPropertyOp9
 70
     1
102
RTVSPropertyOp10
 70
     1
102
RTVSPropertyOp11
 70
     1
102
RTVSPropertyOp12
 70
     1
102
RTVSPropertyOp13
 70
     1
102
RTVSPropertyOp14
 70
     1
102
RTVSPropertyOp15
 70
     1
102
RTVSPropertyOp16
 70
     1
102
RTVSPropertyOp17
 70
     1
102
RTVSPropertyOp18
 70
     1
102
RTVSPropertyOp19
 70
     1
102
RTVSPropertyOp20
 70
     1
102
RTVSPropertyOp21
 70
     1
102
RTVSPropertyOp22
 70
     1
102
RTVSPropertyOp23
 70
     1
102
RTVSPropertyOp24
 70
     1
102
RTVSPropertyOp25
 70
     1
102
RTVSPropertyOp26
 70
     1
102
RTVSPropertyOp27
 70
     1
  0
XRECORD
  5
30D
102
{ACAD_REACTORS
330
30C
102
}
330
30C
100
AcDbXrecord
280
     1
102
RTVSPropertyOp0
 70
     1
102
RTVSPropertyOp1
 70
     1
102
RTVSPropertyOp2
 70
     1
102
RTVSPropertyOp3
 70
     1
102
RTVSPropertyOp4
 70
     1
102
RTVSPropertyOp5
 70
     1
102
RTVSPropertyOp6
 70
     1
102
RTVSPropertyOp7
 70
     1
102
RTVSPropertyOp8
 70
     1
102
RTVSPropertyOp9
 70
     1
102
RTVSPropertyOp10
 70
     1
102
RTVSPropertyOp11
 70
     1
102
RTVSPropertyOp12
 70
     1
102
RTVSPropertyOp13
 70
     1
102
RTVSPropertyOp14
 70
     1
102
RTVSPropertyOp15
 70
     1
102
RTVSPropertyOp16
 70
     1
102
RTVSPropertyOp17
 70
     1
102
RTVSPropertyOp18
 70
     1
102
RTVSPropertyOp19
 70
     1
102
RTVSPropertyOp20
 70
     1
102
RTVSPropertyOp21
 70
     1
102
RTVSPropertyOp22
 70
     1
102
RTVSPropertyOp23
 70
     1
102
RTVSPropertyOp24
 70
     1
102
RTVSPropertyOp25
 70
     1
102
RTVSPropertyOp26
 70
     1
102
RTVSPropertyOp27
 70
     1
  0
ENDSEC
  0
EOF
