  0
SECTION
  2
HEADER
  9
$ACADVER
  1
AC1015
  9
$ACADMAINTVER
 70
     6
  9
$DWGCODEPAGE
  3
ANSI_1252
  9
$INSBASE
 10
0.0
 20
0.0
 30
0.0
  9
$EXTMIN
 10
6398.80563360855
 20
17416.4879789668
 30
0.0
  9
$EXTMAX
 10
26103.80563360855
 20
20670.4879789668
 30
0.0
  9
$LIMMIN
 10
0.0
 20
0.0
  9
$LIMMAX
 10
12.0
 20
9.0
  9
$ORTHOMODE
 70
     0
  9
$REGENMODE
 70
     1
  9
$FILLMODE
 70
     1
  9
$QTEXTMODE
 70
     0
  9
$MIRRTEXT
 70
     1
  9
$LTSCALE
 40
1.0
  9
$ATTMODE
 70
     1
  9
$TEXTSIZE
 40
0.2
  9
$TRACEWID
 40
0.05
  9
$TEXTSTYLE
  7
Standard
  9
$CLAYER
  8
0
  9
$CELTYPE
  6
ByLayer
  9
$CECOLOR
 62
   256
  9
$CELTSCALE
 40
1.0
  9
$DISPSILH
 70
     0
  9
$DIMSCALE
 40
1.0
  9
$DIMASZ
 40
0.18
  9
$DIMEXO
 40
0.0625
  9
$DIMDLI
 40
0.38
  9
$DIMRND
 40
0.0
  9
$DIMDLE
 40
0.0
  9
$DIMEXE
 40
0.18
  9
$DIMTP
 40
0.0
  9
$DIMTM
 40
0.0
  9
$DIMTXT
 40
0.18
  9
$DIMCEN
 40
0.09
  9
$DIMTSZ
 40
0.0
  9
$DIMTOL
 70
     0
  9
$DIMLIM
 70
     0
  9
$DIMTIH
 70
     1
  9
$DIMTOH
 70
     1
  9
$DIMSE1
 70
     0
  9
$DIMSE2
 70
     0
  9
$DIMTAD
 70
     0
  9
$DIMZIN
 70
     0
  9
$DIMBLK
  1

  9
$DIMASO
 70
     1
  9
$DIMSHO
 70
     1
  9
$DIMPOST
  1

  9
$DIMAPOST
  1

  9
$DIMALT
 70
     0
  9
$DIMALTD
 70
     2
  9
$DIMALTF
 40
25.4
  9
$DIMLFAC
 40
1.0
  9
$DIMTOFL
 70
     0
  9
$DIMTVP
 40
0.0
  9
$DIMTIX
 70
     0
  9
$DIMSOXD
 70
     0
  9
$DIMSAH
 70
     0
  9
$DIMBLK1
  1

  9
$DIMBLK2
  1

  9
$DIMSTYLE
  2
Standard
  9
$DIMCLRD
 70
     0
  9
$DIMCLRE
 70
     0
  9
$DIMCLRT
 70
     0
  9
$DIMTFAC
 40
1.0
  9
$DIMGAP
 40
0.09
  9
$DIMJUST
 70
     0
  9
$DIMSD1
 70
     0
  9
$DIMSD2
 70
     0
  9
$DIMTOLJ
 70
     1
  9
$DIMTZIN
 70
     0
  9
$DIMALTZ
 70
     0
  9
$DIMALTTZ
 70
     0
  9
$DIMUPT
 70
     0
  9
$DIMDEC
 70
     4
  9
$DIMTDEC
 70
     4
  9
$DIMALTU
 70
     2
  9
$DIMALTTD
 70
     2
  9
$DIMTXSTY
  7
Standard
  9
$DIMAUNIT
 70
     0
  9
$DIMADEC
 70
     0
  9
$DIMALTRND
 40
0.0
  9
$DIMAZIN
 70
     0
  9
$DIMDSEP
 70
    46
  9
$DIMATFIT
 70
     3
  9
$DIMFRAC
 70
     0
  9
$DIMLDRBLK
  1

  9
$DIMLUNIT
 70
     2
  9
$DIMLWD
 70
    -2
  9
$DIMLWE
 70
    -2
  9
$DIMTMOVE
 70
     0
  9
$LUNITS
 70
     2
  9
$LUPREC
 70
     4
  9
$SKETCHINC
 40
0.1
  9
$FILLETRAD
 40
0.5
  9
$AUNITS
 70
     0
  9
$AUPREC
 70
     0
  9
$MENU
  1
.
  9
$ELEVATION
 40
0.0
  9
$PELEVATION
 40
0.0
  9
$THICKNESS
 40
0.0
  9
$LIMCHECK
 70
     0
  9
$CHAMFERA
 40
0.5
  9
$CHAMFERB
 40
0.5
  9
$CHAMFERC
 40
1.0
  9
$CHAMFERD
 40
0.0
  9
$SKPOLY
 70
     0
  9
$TDCREATE
 40
2455064.549244248
  9
$TDUCREATE
 40
2455064.507577581
  9
$TDUPDATE
 40
2455064.590910926
  9
$TDUUPDATE
 40
2455064.507577593
  9
$TDINDWG
 40
0.0000000116
  9
$TDUSRTIMER
 40
0.0000000116
  9
$USRTIMER
 70
     1
  9
$ANGBASE
 50
0.0
  9
$ANGDIR
 70
     0
  9
$PDMODE
 70
     0
  9
$PDSIZE
 40
0.0
  9
$PLINEWID
 40
0.0
  9
$SPLFRAME
 70
     0
  9
$SPLINETYPE
 70
     6
  9
$SPLINESEGS
 70
     8
  9
$HANDSEED
  5
19A
  9
$SURFTAB1
 70
     6
  9
$SURFTAB2
 70
     6
  9
$SURFTYPE
 70
     6
  9
$SURFU
 70
     6
  9
$SURFV
 70
     6
  9
$UCSBASE
  2

  9
$UCSNAME
  2

  9
$UCSORG
 10
0.0
 20
0.0
 30
0.0
  9
$UCSXDIR
 10
1.0
 20
0.0
 30
0.0
  9
$UCSYDIR
 10
0.0
 20
1.0
 30
0.0
  9
$UCSORTHOREF
  2

  9
$UCSORTHOVIEW
 70
     0
  9
$UCSORGTOP
 10
0.0
 20
0.0
 30
0.0
  9
$UCSORGBOTTOM
 10
0.0
 20
0.0
 30
0.0
  9
$UCSORGLEFT
 10
0.0
 20
0.0
 30
0.0
  9
$UCSORGRIGHT
 10
0.0
 20
0.0
 30
0.0
  9
$UCSORGFRONT
 10
0.0
 20
0.0
 30
0.0
  9
$UCSORGBACK
 10
0.0
 20
0.0
 30
0.0
  9
$PUCSBASE
  2

  9
$PUCSNAME
  2

  9
$PUCSORG
 10
0.0
 20
0.0
 30
0.0
  9
$PUCSXDIR
 10
1.0
 20
0.0
 30
0.0
  9
$PUCSYDIR
 10
0.0
 20
1.0
 30
0.0
  9
$PUCSORTHOREF
  2

  9
$PUCSORTHOVIEW
 70
     0
  9
$PUCSORGTOP
 10
0.0
 20
0.0
 30
0.0
  9
$PUCSORGBOTTOM
 10
0.0
 20
0.0
 30
0.0
  9
$PUCSORGLEFT
 10
0.0
 20
0.0
 30
0.0
  9
$PUCSORGRIGHT
 10
0.0
 20
0.0
 30
0.0
  9
$PUCSORGFRONT
 10
0.0
 20
0.0
 30
0.0
  9
$PUCSORGBACK
 10
0.0
 20
0.0
 30
0.0
  9
$USERI1
 70
     0
  9
$USERI2
 70
     0
  9
$USERI3
 70
     0
  9
$USERI4
 70
     0
  9
$USERI5
 70
     0
  9
$USERR1
 40
13.01
  9
$USERR2
 40
0.0
  9
$USERR3
 40
0.0
  9
$USERR4
 40
0.0
  9
$USERR5
 40
0.0
  9
$WORLDVIEW
 70
     1
  9
$SHADEDGE
 70
     3
  9
$SHADEDIF
 70
    70
  9
$TILEMODE
 70
     1
  9
$MAXACTVP
 70
    64
  9
$PINSBASE
 10
0.0
 20
0.0
 30
0.0
  9
$PLIMCHECK
 70
     0
  9
$PEXTMIN
 10
1.00000000000000E+20
 20
1.00000000000000E+20
 30
1.00000000000000E+20
  9
$PEXTMAX
 10
-1.00000000000000E+20
 20
-1.00000000000000E+20
 30
-1.00000000000000E+20
  9
$PLIMMIN
 10
0.0
 20
0.0
  9
$PLIMMAX
 10
12.0
 20
9.0
  9
$UNITMODE
 70
     0
  9
$VISRETAIN
 70
     1
  9
$PLINEGEN
 70
     0
  9
$PSLTSCALE
 70
     1
  9
$TREEDEPTH
 70
  3020
  9
$CMLSTYLE
  2
Standard
  9
$CMLJUST
 70
     0
  9
$CMLSCALE
 40
1.0
  9
$PROXYGRAPHICS
 70
     1
  9
$MEASUREMENT
 70
     1
  9
$CELWEIGHT
370
    -1
  9
$ENDCAPS
280
     0
  9
$JOINSTYLE
280
     0
  9
$LWDISPLAY
290
     0
  9
$INSUNITS
 70
     1
  9
$HYPERLINKBASE
  1

  9
$STYLESHEET
  1

  9
$XEDIT
290
     1
  9
$CEPSNTYPE
380
     0
  9
$PSTYLEMODE
290
     0
  9
$FINGERPRINTGUID
  2
{FAEB1C30-E019-11D5-929B-00C0DF256EC4}
  9
$VERSIONGUID
  2
{FAEB1C32-E019-11D5-929B-00C0DF256EC4}
  9
$EXTNAMES
290
     1
  9
$PSVPSCALE
 40
0.0
  9
$OLESTARTUP
290
     0
  0
ENDSEC
  0
SECTION
  2
CLASSES
  0
CLASS
  1
ACDBDICTIONARYWDFLT
  2
AcDbDictionaryWithDefault
  3
ObjectDBX Classes
 90
        0
280
     0
281
     0
  0
CLASS
  1
TABLESTYLE
  2
AcDbTableStyle
  3
ObjectDBX Classes
 90
     2047
280
     0
281
     0
  0
CLASS
  1
DICTIONARYVAR
  2
AcDbDictionaryVar
  3
ObjectDBX Classes
 90
        0
280
     0
281
     0
  0
CLASS
  1
ACDBPLACEHOLDER
  2
AcDbPlaceHolder
  3
ObjectDBX Classes
 90
        0
280
     0
281
     0
  0
CLASS
  1
LAYOUT
  2
AcDbLayout
  3
ObjectDBX Classes
 90
        0
280
     0
281
     0
  0
ENDSEC
  0
SECTION
  2
TABLES
  0
TABLE
  2
VPORT
  5
8
330
0
100
AcDbSymbolTable
 70
     2
  0
VPORT
  5
29
330
8
100
AcDbSymbolTableRecord
100
AcDbViewportTableRecord
  2
*Active
 70
     0
 10
0.0
 20
0.0
 11
1.0
 21
1.0
 12
16251.30563360855
 22
19043.4879789668
 13
0.0
 23
0.0
 14
0.5
 24
0.5
 15
0.5
 25
0.5
 16
0.0
 26
0.0
 36
1.0
 17
0.0
 27
0.0
 37
0.0
 40
13524.54596100279
 41
1.60267857142857
 42
50.0
 43
0.0
 44
0.0
 50
0.0
 51
0.0
 71
     0
 72
   100
 73
     1
 74
     3
 75
     0
 76
     0
 77
     0
 78
     0
281
     0
 65
     1
110
0.0
120
0.0
130
0.0
111
1.0
121
0.0
131
0.0
112
0.0
122
1.0
132
0.0
 79
     0
146
0.0
  0
ENDTAB
  0
TABLE
  2
LTYPE
  5
5
330
0
100
AcDbSymbolTable
 70
     8
  0
LTYPE
  5
14
330
5
100
AcDbSymbolTableRecord
100
AcDbLinetypeTableRecord
  2
ByBlock
 70
     0
  3

 72
    65
 73
     0
 40
0.0
  0
LTYPE
  5
15
330
5
100
AcDbSymbolTableRecord
100
AcDbLinetypeTableRecord
  2
ByLayer
 70
     0
  3

 72
    65
 73
     0
 40
0.0
  0
LTYPE
  5
16
330
5
100
AcDbSymbolTableRecord
100
AcDbLinetypeTableRecord
  2
Continuous
 70
     0
  3
Solid line
 72
    65
 73
     0
 40
0.0
  0
LTYPE
  5
2E
330
5
100
AcDbSymbolTableRecord
100
AcDbLinetypeTableRecord
  2
DASHED
 70
     0
  3
Dashed
 72
    65
 73
     2
 40
15.0
 49
7.0
 74
     0
 49
-8.0
 74
     0
  0
LTYPE
  5
2F
330
5
100
AcDbSymbolTableRecord
100
AcDbLinetypeTableRecord
  2
DOTTED
 70
     0
  3
Dotted
 72
    65
 73
     2
 40
1.0
 49
0.0
 74
     0
 49
-1.0
 74
     0
  0
LTYPE
  5
30
330
5
100
AcDbSymbolTableRecord
100
AcDbLinetypeTableRecord
  2
DOT_CENTER
 70
     0
  3
Dot_Center
 72
    65
 73
     4
 40
14.0
 49
12.0
 74
     0
 49
-1.0
 74
     0
 49
0.0
 74
     0
 49
-1.0
 74
     0
  0
LTYPE
  5
31
330
5
100
AcDbSymbolTableRecord
100
AcDbLinetypeTableRecord
  2
LONG_DASHED
 70
     0
  3
Long_Dashed
 72
    65
 73
     2
 40
15.0
 49
10.0
 74
     0
 49
-5.0
 74
     0
  0
LTYPE
  5
32
330
5
100
AcDbSymbolTableRecord
100
AcDbLinetypeTableRecord
  2
DASH_CENTER
 70
     0
  3
Dash_Center
 72
    65
 73
     4
 40
14.0
 49
11.0
 74
     0
 49
-1.0
 74
     0
 49
1.0
 74
     0
 49
-1.0
 74
     0
  0
LTYPE
  5
33
330
5
100
AcDbSymbolTableRecord
100
AcDbLinetypeTableRecord
  2
PHANTOM
 70
     0
  3
Phantom
 72
    65
 73
     6
 40
13.0
 49
10.0
 74
     0
 49
-1.0
 74
     0
 49
0.0
 74
     0
 49
-1.0
 74
     0
 49
0.0
 74
     0
 49
-1.0
 74
     0
  0
LTYPE
  5
34
330
5
100
AcDbSymbolTableRecord
100
AcDbLinetypeTableRecord
  2
CENTER_DASH_DASH
 70
     0
  3
Center_Dash_Dash
 72
    65
 73
     6
 40
14.0
 49
9.0
 74
     0
 49
-1.0
 74
     0
 49
1.0
 74
     0
 49
-1.0
 74
     0
 49
1.0
 74
     0
 49
-1.0
 74
     0
  0
ENDTAB
  0
TABLE
  2
LAYER
  5
2
330
0
100
AcDbSymbolTable
 70
     2
  0
LAYER
  5
10
330
2
100
AcDbSymbolTableRecord
100
AcDbLayerTableRecord
  2
0
 70
     0
 62
     7
  6
Continuous
370
    -3
390
F
  0
LAYER
  5
35
330
2
100
AcDbSymbolTableRecord
100
AcDbLayerTableRecord
  2
1
 70
     0
 62
     7
  6
Continuous
370
    -3
390
F
  0
ENDTAB
  0
TABLE
  2
STYLE
  5
3
330
0
100
AcDbSymbolTable
 70
     2
  0
STYLE
  5
11
330
3
100
AcDbSymbolTableRecord
100
AcDbTextStyleTableRecord
  2
Standard
 70
     0
 40
0.0
 41
1.0
 50
0.0
 71
     0
 42
0.2
  3
txt
  4

  0
STYLE
  5
193
330
3
100
AcDbSymbolTableRecord
100
AcDbTextStyleTableRecord
  2
CONVERTER_1
 70
     0
 40
0.0
 41
0.9
 50
0.0
 71
     0
 42
0.2
  3
txt.shx
  4

  0
ENDTAB
  0
TABLE
  2
VIEW
  5
6
330
0
100
AcDbSymbolTable
 70
     0
  0
ENDTAB
  0
TABLE
  2
UCS
  5
7
330
0
100
AcDbSymbolTable
 70
     0
  0
ENDTAB
  0
TABLE
  2
APPID
  5
9
330
0
100
AcDbSymbolTable
 70
     1
  0
APPID
  5
12
330
9
100
AcDbSymbolTableRecord
100
AcDbRegAppTableRecord
  2
ACAD
 70
     0
  0
ENDTAB
  0
TABLE
  2
DIMSTYLE
  5
A
330
0
100
AcDbSymbolTable
 70
     1
100
AcDbDimStyleTable
  0
DIMSTYLE
105
27
330
A
100
AcDbSymbolTableRecord
100
AcDbDimStyleTableRecord
  2
Standard
 70
     0
340
11
  0
ENDTAB
  0
TABLE
  2
BLOCK_RECORD
  5
1
330
0
100
AcDbSymbolTable
 70
     1
  0
BLOCK_RECORD
  5
1F
330
1
100
AcDbSymbolTableRecord
100
AcDbBlockTableRecord
  2
*Model_Space
340
22
  0
BLOCK_RECORD
  5
1B
330
1
100
AcDbSymbolTableRecord
100
AcDbBlockTableRecord
  2
*Paper_Space
340
1E
  0
BLOCK_RECORD
  5
23
330
1
100
AcDbSymbolTableRecord
100
AcDbBlockTableRecord
  2
*Paper_Space0
340
26
  0
ENDTAB
  0
ENDSEC
  0
SECTION
  2
BLOCKS
  0
BLOCK
  5
20
330
1F
100
AcDbEntity
  8
0
100
AcDbBlockBegin
  2
*Model_Space
 70
     0
 71
     0
 10
0.0
 20
0.0
 30
0.0
  3
*Model_Space
  1

  0
ENDBLK
  5
21
330
1F
100
AcDbEntity
  8
0
100
AcDbBlockEnd
  0
BLOCK
  5
1C
330
1B
100
AcDbEntity
 67
     1
  8
0
100
AcDbBlockBegin
  2
*Paper_Space
 70
     0
 71
     0
 10
0.0
 20
0.0
 30
0.0
  3
*Paper_Space
  1

  0
ENDBLK
  5
1D
330
1B
100
AcDbEntity
 67
     1
  8
0
100
AcDbBlockEnd
  0
BLOCK
  5
24
330
23
100
AcDbEntity
  8
0
100
AcDbBlockBegin
  2
*Paper_Space0
 70
     0
 71
     0
 10
0.0
 20
0.0
 30
0.0
  3
*Paper_Space0
  1

  0
ENDBLK
  5
25
330
23
100
AcDbEntity
  8
0
100
AcDbBlockEnd
  0
ENDSEC
  0
SECTION
  2
ENTITIES
  0
LINE
  5
36
330
1F
100
AcDbEntity
  8
1
  6
Continuous
 62
     7
100
AcDbLine
 10
26103.80563360855
 20
20670.4879789668
 30
0.0
 11
26103.80563360855
 21
17416.4879789668
 31
0.0
  0
LINE
  5
37
330
1F
100
AcDbEntity
  8
1
  6
Continuous
 62
     7
100
AcDbLine
 10
6398.80563360855
 20
20670.4879789668
 30
0.0
 11
6398.80563360855
 21
17416.4879789668
 31
0.0
  0
LINE
  5
38
330
1F
100
AcDbEntity
  8
1
  6
Continuous
 62
     7
100
AcDbLine
 10
13461.51546692219
 20
19533.80010996082
 30
0.0
 11
12501.51546692219
 21
19533.80010996082
 31
0.0
  0
LINE
  5
39
330
1F
100
AcDbEntity
  8
1
  6
Continuous
 62
     7
100
AcDbLine
 10
12501.51546692219
 20
19533.80010996082
 30
0.0
 11
12501.51546692219
 21
18573.80010996081
 31
0.0
  0
LINE
  5
3A
330
1F
100
AcDbEntity
  8
1
  6
Continuous
 62
     7
100
AcDbLine
 10
13461.51546692219
 20
19533.80010996082
 30
0.0
 11
13461.51546692219
 21
18573.80010996081
 31
0.0
  0
LINE
  5
3B
330
1F
100
AcDbEntity
  8
1
  6
Continuous
 62
     7
100
AcDbLine
 10
13461.51546692219
 20
18573.80010996081
 30
0.0
 11
12501.51546692219
 21
18573.80010996081
 31
0.0
  0
LINE
  5
3C
330
1F
100
AcDbEntity
  8
1
  6
Continuous
 62
     7
100
AcDbLine
 10
17957.47673446561
 20
18573.80010996081
 30
0.0
 11
16757.47673446561
 21
18573.80010996081
 31
0.0
  0
LINE
  5
3D
330
1F
100
AcDbEntity
  8
1
  6
Continuous
 62
     7
100
AcDbLine
 10
17957.47673446561
 20
19533.80010996082
 30
0.0
 11
17957.47673446561
 21
18573.80010996081
 31
0.0
  0
LINE
  5
3E
330
1F
100
AcDbEntity
  8
1
  6
Continuous
 62
     7
100
AcDbLine
 10
16757.47673446561
 20
19533.80010996082
 30
0.0
 11
16757.47673446561
 21
18573.80010996081
 31
0.0
  0
LINE
  5
3F
330
1F
100
AcDbEntity
  8
1
  6
Continuous
 62
     7
100
AcDbLine
 10
17957.47673446561
 20
19533.80010996082
 30
0.0
 11
16757.47673446561
 21
19533.80010996082
 31
0.0
  0
LINE
  5
40
330
1F
100
AcDbEntity
  8
1
  6
Continuous
 62
     7
100
AcDbLine
 10
21980.72184090475
 20
19533.80010996082
 30
0.0
 11
20780.72184090475
 21
19533.80010996082
 31
0.0
  0
LINE
  5
41
330
1F
100
AcDbEntity
  8
1
  6
Continuous
 62
     7
100
AcDbLine
 10
20780.72184090475
 20
19533.80010996082
 30
0.0
 11
20780.72184090475
 21
18333.80010996081
 31
0.0
  0
LINE
  5
42
330
1F
100
AcDbEntity
  8
1
  6
Continuous
 62
     7
100
AcDbLine
 10
21980.72184090475
 20
19533.80010996082
 30
0.0
 11
21980.72184090475
 21
18333.80010996081
 31
0.0
  0
LINE
  5
43
330
1F
100
AcDbEntity
  8
1
  6
Continuous
 62
     7
100
AcDbLine
 10
21980.72184090475
 20
18333.80010996081
 30
0.0
 11
20780.72184090475
 21
18333.80010996081
 31
0.0
  0
LINE
  5
44
330
1F
100
AcDbEntity
  8
0
  6
Continuous
 62
     7
100
AcDbLine
 10
8936.571696829295
 20
19053.80010996082
 30
0.0
 11
8936.571696829295
 21
19533.80010996082
 31
0.0
  0
LINE
  5
45
330
1F
100
AcDbEntity
  8
0
  6
Continuous
 62
     7
100
AcDbLine
 10
8936.571696829295
 20
19053.80010996082
 30
0.0
 11
9836.571696475694
 21
19053.80010996082
 31
0.0
  0
LINE
  5
46
330
1F
100
AcDbEntity
  8
0
  6
Continuous
 62
     7
100
AcDbLine
 10
8936.571696829295
 20
19533.80010996082
 30
0.0
 11
9836.571696475694
 21
19533.80010996082
 31
0.0
  0
LINE
  5
47
330
1F
100
AcDbEntity
  8
0
  6
Continuous
 62
     7
100
AcDbLine
 10
9836.571696475694
 20
19053.80010996082
 30
0.0
 11
9836.571696475694
 21
19533.80010996082
 31
0.0
  0
LINE
  5
48
330
1F
100
AcDbEntity
  8
1
  6
Continuous
 62
     5
100
AcDbLine
 10
9016.571696652489
 20
19890.74553714112
 30
0.0
 11
9756.571696652489
 21
19890.74553714112
 31
0.0
  0
LINE
  5
49
330
1F
100
AcDbEntity
  8
1
  6
Continuous
 62
     5
100
AcDbLine
 10
9756.571696652489
 20
19890.74553714112
 30
0.0
 11
9756.571696652489
 21
19860.74553438602
 31
0.0
  0
LINE
  5
4A
330
1F
100
AcDbEntity
  8
1
  6
Continuous
 62
     5
100
AcDbLine
 10
9756.571696652489
 20
19860.74553438602
 30
0.0
 11
9016.571696652489
 21
19860.74553438602
 31
0.0
  0
LINE
  5
4B
330
1F
100
AcDbEntity
  8
1
  6
Continuous
 62
     5
100
AcDbLine
 10
9016.571696652489
 20
19860.74553438602
 30
0.0
 11
9016.571696652489
 21
19890.74553714112
 31
0.0
  0
LINE
  5
4C
330
1F
100
AcDbEntity
  8
1
  6
Continuous
 62
     5
100
AcDbLine
 10
9106.571696652489
 20
19858.25732168747
 30
0.0
 11
9106.571696652489
 21
19700.74553045822
 31
0.0
  0
LINE
  5
4D
330
1F
100
AcDbEntity
  8
1
  6
Continuous
 62
     5
100
AcDbLine
 10
9106.571696652489
 20
19700.74553045822
 30
0.0
 11
9136.490153683739
 21
19700.74553045822
 31
0.0
  0
LINE
  5
4E
330
1F
100
AcDbEntity
  8
1
  6
Continuous
 62
     5
100
AcDbLine
 10
9136.490153683739
 20
19700.74553045822
 30
0.0
 11
9136.571696652489
 21
19858.25732168747
 31
0.0
  0
LINE
  5
4F
330
1F
100
AcDbEntity
  8
1
  6
Continuous
 62
     5
100
AcDbLine
 10
9636.571696652489
 20
19858.25732168747
 30
0.0
 11
9636.653239621239
 21
19700.74553045822
 31
0.0
  0
LINE
  5
50
330
1F
100
AcDbEntity
  8
1
  6
Continuous
 62
     5
100
AcDbLine
 10
9636.653239621239
 20
19700.74553045822
 30
0.0
 11
9666.571696652489
 21
19700.74553045822
 31
0.0
  0
LINE
  5
51
330
1F
100
AcDbEntity
  8
1
  6
Continuous
 62
     5
100
AcDbLine
 10
9666.571696652489
 20
19700.74553045822
 30
0.0
 11
9666.571696652489
 21
19858.25732168747
 31
0.0
  0
LINE
  5
52
330
1F
100
AcDbEntity
  8
1
  6
Continuous
 62
     5
100
AcDbLine
 10
8268.630956786728
 20
19890.71911020227
 30
0.0
 11
8298.630956786728
 21
19890.71911020227
 31
0.0
  0
LINE
  5
53
330
1F
100
AcDbEntity
  8
1
  6
Continuous
 62
     5
100
AcDbLine
 10
8298.630956786728
 20
19890.71911020227
 30
0.0
 11
8298.630956786728
 21
19860.71911025501
 31
0.0
  0
LINE
  5
54
330
1F
100
AcDbEntity
  8
1
  6
Continuous
 62
     5
100
AcDbLine
 10
8298.630956786728
 20
19860.71911025501
 30
0.0
 11
8268.630956786728
 21
19860.71911025501
 31
0.0
  0
LINE
  5
55
330
1F
100
AcDbEntity
  8
1
  6
Continuous
 62
     5
100
AcDbLine
 10
8268.630956786728
 20
19860.71911025501
 30
0.0
 11
8268.630956786728
 21
19890.71911020227
 31
0.0
  0
LINE
  5
56
330
1F
100
AcDbEntity
  8
1
  6
Continuous
 62
     5
100
AcDbLine
 10
8298.630956786728
 20
19888.71911025501
 30
0.0
 11
8310.630956786728
 21
19888.71911216236
 31
0.0
  0
LINE
  5
57
330
1F
100
AcDbEntity
  8
1
  6
Continuous
 62
     5
100
AcDbLine
 10
8310.630956786728
 20
19888.71911216236
 30
0.0
 11
8310.630956786728
 21
19825.71911025501
 31
0.0
  0
LINE
  5
58
330
1F
100
AcDbEntity
  8
1
  6
Continuous
 62
     5
100
AcDbLine
 10
8310.630956786728
 20
19825.71911025501
 30
0.0
 11
8106.630956786728
 21
19825.71911025501
 31
0.0
  0
LINE
  5
59
330
1F
100
AcDbEntity
  8
1
  6
Continuous
 62
     5
100
AcDbLine
 10
8103.630956786728
 20
19822.71911025501
 30
0.0
 11
8103.630956786728
 21
19700.71910262562
 31
0.0
  0
LINE
  5
5A
330
1F
100
AcDbEntity
  8
1
  6
Continuous
 62
     5
100
AcDbLine
 10
8103.630956786728
 20
19700.71910262562
 30
0.0
 11
8068.852392333611
 21
19700.71911788441
 31
0.0
  0
LINE
  5
5B
330
1F
100
AcDbEntity
  8
1
  6
Continuous
 62
     5
100
AcDbLine
 10
8068.852392333611
 20
19700.71911788441
 30
0.0
 11
8068.804217659312
 21
19857.71818971444
 31
0.0
  0
LINE
  5
5C
330
1F
100
AcDbEntity
  8
1
  6
Continuous
 62
     5
100
AcDbLine
 10
8071.804217518082
 20
19860.71911025501
 30
0.0
 11
8298.630956786728
 21
19860.71911025501
 31
0.0
  0
LINE
  5
5D
330
1F
100
AcDbEntity
  8
1
  6
Continuous
 62
     5
100
AcDbLine
 10
8298.630956786728
 20
19860.71911025501
 30
0.0
 11
8298.630956786728
 21
19890.71911020227
 31
0.0
  0
LINE
  5
5E
330
1F
100
AcDbEntity
  8
1
  6
Continuous
 62
     5
100
AcDbLine
 10
8322.630956786728
 20
19890.71911020227
 30
0.0
 11
8322.630956786728
 21
19860.71911025501
 31
0.0
  0
LINE
  5
5F
330
1F
100
AcDbEntity
  8
1
  6
Continuous
 62
     5
100
AcDbLine
 10
8322.630956786728
 20
19860.71911025501
 30
0.0
 11
8549.457696055379
 21
19860.71911025501
 31
0.0
  0
LINE
  5
60
330
1F
100
AcDbEntity
  8
1
  6
Continuous
 62
     5
100
AcDbLine
 10
8552.457695914149
 20
19857.71818971444
 30
0.0
 11
8552.409521239861
 21
19700.71911788441
 31
0.0
  0
LINE
  5
61
330
1F
100
AcDbEntity
  8
1
  6
Continuous
 62
     5
100
AcDbLine
 10
8552.409521239861
 20
19700.71911788441
 30
0.0
 11
8517.630956786728
 21
19700.71910262562
 31
0.0
  0
LINE
  5
62
330
1F
100
AcDbEntity
  8
1
  6
Continuous
 62
     5
100
AcDbLine
 10
8517.630956786728
 20
19700.71910262562
 30
0.0
 11
8517.630956786728
 21
19822.71911025501
 31
0.0
  0
LINE
  5
63
330
1F
100
AcDbEntity
  8
1
  6
Continuous
 62
     5
100
AcDbLine
 10
8514.630956786728
 20
19825.71911025501
 30
0.0
 11
8310.630956786728
 21
19825.71911025501
 31
0.0
  0
LINE
  5
64
330
1F
100
AcDbEntity
  8
1
  6
Continuous
 62
     5
100
AcDbLine
 10
8310.630956786728
 20
19888.71911216236
 30
0.0
 11
8322.630956786728
 21
19888.71911025501
 31
0.0
  0
LINE
  5
65
330
1F
100
AcDbEntity
  8
1
  6
Continuous
 62
     5
100
AcDbLine
 10
8352.630956786728
 20
19890.71911020227
 30
0.0
 11
8352.630956786728
 21
19860.71911025501
 31
0.0
  0
LINE
  5
66
330
1F
100
AcDbEntity
  8
1
  6
Continuous
 62
     5
100
AcDbLine
 10
8352.630956786728
 20
19860.71911025501
 30
0.0
 11
8322.630956786728
 21
19860.71911025501
 31
0.0
  0
LINE
  5
67
330
1F
100
AcDbEntity
  8
1
  6
Continuous
 62
     5
100
AcDbLine
 10
8322.630956786728
 20
19860.71911025501
 30
0.0
 11
8322.630956786728
 21
19890.71911020227
 31
0.0
  0
LINE
  5
68
330
1F
100
AcDbEntity
  8
1
  6
Continuous
 62
     5
100
AcDbLine
 10
8322.630956786728
 20
19890.71911020227
 30
0.0
 11
8352.630956786728
 21
19890.71911020227
 31
0.0
  0
LINE
  5
69
330
1F
100
AcDbEntity
  8
1
  6
Continuous
 62
     5
100
AcDbLine
 10
11887.57472687963
 20
19890.71911020226
 30
0.0
 11
11917.57472687963
 21
19890.71911020226
 31
0.0
  0
LINE
  5
6A
330
1F
100
AcDbEntity
  8
1
  6
Continuous
 62
     5
100
AcDbLine
 10
11917.57472687963
 20
19860.71911025501
 30
0.0
 11
11887.57472687963
 21
19860.71911025501
 31
0.0
  0
LINE
  5
6B
330
1F
100
AcDbEntity
  8
1
  6
Continuous
 62
     5
100
AcDbLine
 10
12079.57472687963
 20
19825.71911025501
 30
0.0
 11
11399.21472687963
 21
19825.71911025501
 31
0.0
  0
LINE
  5
6C
330
1F
100
AcDbEntity
  8
1
  6
Continuous
 62
     5
100
AcDbLine
 10
12082.57472687963
 20
19700.71910262562
 30
0.0
 11
12082.57472687963
 21
19822.71911025501
 31
0.0
  0
LINE
  5
6D
330
1F
100
AcDbEntity
  8
1
  6
Continuous
 62
     5
100
AcDbLine
 10
12117.35329133276
 20
19700.71911788441
 30
0.0
 11
12082.57472687963
 21
19700.71910262562
 31
0.0
  0
LINE
  5
6E
330
1F
100
AcDbEntity
  8
1
  6
Continuous
 62
     5
100
AcDbLine
 10
12117.40146600705
 20
19857.71818971444
 30
0.0
 11
12117.35329133276
 21
19700.71911788441
 31
0.0
  0
LINE
  5
6F
330
1F
100
AcDbEntity
  8
1
  6
Continuous
 62
     5
100
AcDbLine
 10
11887.57472687963
 20
19860.71911025501
 30
0.0
 11
12114.40146614827
 21
19860.71911025501
 31
0.0
  0
LINE
  5
70
330
1F
100
AcDbEntity
  8
1
  6
Continuous
 62
     5
100
AcDbLine
 10
11160.38798761098
 20
19860.71911025501
 30
0.0
 11
11387.21472687963
 21
19860.71911025501
 31
0.0
  0
LINE
  5
71
330
1F
100
AcDbEntity
  8
1
  6
Continuous
 62
     5
100
AcDbLine
 10
11157.43616242651
 20
19700.71911788441
 30
0.0
 11
11157.38798775221
 21
19857.71818971444
 31
0.0
  0
LINE
  5
72
330
1F
100
AcDbEntity
  8
1
  6
Continuous
 62
     5
100
AcDbLine
 10
11192.21472687963
 20
19700.71910262562
 30
0.0
 11
11157.43616242651
 21
19700.71911788441
 31
0.0
  0
LINE
  5
73
330
1F
100
AcDbEntity
  8
1
  6
Continuous
 62
     5
100
AcDbLine
 10
11192.21472687963
 20
19822.71911025501
 30
0.0
 11
11192.21472687963
 21
19700.71910262562
 31
0.0
  0
LINE
  5
74
330
1F
100
AcDbEntity
  8
1
  6
Continuous
 62
     5
100
AcDbLine
 10
11399.21472687963
 20
19825.71911025501
 30
0.0
 11
11195.21472687963
 21
19825.71911025501
 31
0.0
  0
LINE
  5
75
330
1F
100
AcDbEntity
  8
1
  6
Continuous
 62
     5
100
AcDbLine
 10
11399.21472687963
 20
19860.71911025501
 30
0.0
 11
11399.21472687963
 21
19825.71911025501
 31
0.0
  0
LINE
  5
76
330
1F
100
AcDbEntity
  8
1
  6
Continuous
 62
     5
100
AcDbLine
 10
11387.21472687963
 20
19860.71911025501
 30
0.0
 11
11357.21472687963
 21
19860.71911025501
 31
0.0
  0
LINE
  5
77
330
1F
100
AcDbEntity
  8
1
  6
Continuous
 62
     5
100
AcDbLine
 10
11357.21472687963
 20
19890.71911020226
 30
0.0
 11
11387.21472687963
 21
19890.71911020226
 31
0.0
  0
LINE
  5
78
330
1F
100
AcDbEntity
  8
1
  6
Continuous
 62
     5
100
AcDbLine
 10
13231.51546674538
 20
19700.74553045822
 30
0.0
 11
13231.51546674538
 21
19858.25732168747
 31
0.0
  0
LINE
  5
79
330
1F
100
AcDbEntity
  8
1
  6
Continuous
 62
     5
100
AcDbLine
 10
13201.59700971413
 20
19700.74553045822
 30
0.0
 11
13231.51546674538
 21
19700.74553045822
 31
0.0
  0
LINE
  5
7A
330
1F
100
AcDbEntity
  8
1
  6
Continuous
 62
     5
100
AcDbLine
 10
13201.51546674538
 20
19858.25732168747
 30
0.0
 11
13201.59700971413
 21
19700.74553045822
 31
0.0
  0
LINE
  5
7B
330
1F
100
AcDbEntity
  8
1
  6
Continuous
 62
     5
100
AcDbLine
 10
12701.43392377663
 20
19700.74553045822
 30
0.0
 11
12701.51546674538
 21
19858.25732168747
 31
0.0
  0
LINE
  5
7C
330
1F
100
AcDbEntity
  8
1
  6
Continuous
 62
     5
100
AcDbLine
 10
12671.51546674538
 20
19700.74553045822
 30
0.0
 11
12701.43392377663
 21
19700.74553045822
 31
0.0
  0
LINE
  5
7D
330
1F
100
AcDbEntity
  8
1
  6
Continuous
 62
     5
100
AcDbLine
 10
12671.51546674538
 20
19858.25732168747
 30
0.0
 11
12671.51546674538
 21
19700.74553045822
 31
0.0
  0
LINE
  5
7E
330
1F
100
AcDbEntity
  8
1
  6
Continuous
 62
     5
100
AcDbLine
 10
12631.51546674538
 20
19860.74553438602
 30
0.0
 11
12631.51546674538
 21
19890.74553714112
 31
0.0
  0
LINE
  5
7F
330
1F
100
AcDbEntity
  8
1
  6
Continuous
 62
     5
100
AcDbLine
 10
13271.51546674538
 20
19860.74553438602
 30
0.0
 11
12631.51546674538
 21
19860.74553438602
 31
0.0
  0
LINE
  5
80
330
1F
100
AcDbEntity
  8
1
  6
Continuous
 62
     5
100
AcDbLine
 10
13271.51546674538
 20
19890.74553714112
 30
0.0
 11
13271.51546674538
 21
19860.74553438602
 31
0.0
  0
LINE
  5
81
330
1F
100
AcDbEntity
  8
1
  6
Continuous
 62
     5
100
AcDbLine
 10
12631.51546674538
 20
19890.74553714112
 30
0.0
 11
13271.51546674538
 21
19890.74553714112
 31
0.0
  0
LINE
  5
82
330
1F
100
AcDbEntity
  8
1
  6
Continuous
 62
     5
100
AcDbLine
 10
11875.57472687963
 20
19860.71911025501
 30
0.0
 11
11875.57472687963
 21
19825.71911025501
 31
0.0
  0
LINE
  5
83
330
1F
100
AcDbEntity
  8
1
  6
Continuous
 62
     5
100
AcDbLine
 10
17787.47673464242
 20
19700.74553045822
 30
0.0
 11
17787.47673464242
 21
19858.25732168747
 31
0.0
  0
LINE
  5
84
330
1F
100
AcDbEntity
  8
1
  6
Continuous
 62
     5
100
AcDbLine
 10
17757.55827761117
 20
19700.74553045822
 30
0.0
 11
17787.47673464242
 21
19700.74553045822
 31
0.0
  0
LINE
  5
85
330
1F
100
AcDbEntity
  8
1
  6
Continuous
 62
     5
100
AcDbLine
 10
17757.47673464242
 20
19858.25732168747
 30
0.0
 11
17757.55827761117
 21
19700.74553045822
 31
0.0
  0
LINE
  5
86
330
1F
100
AcDbEntity
  8
1
  6
Continuous
 62
     5
100
AcDbLine
 10
16957.39519167367
 20
19700.74553045822
 30
0.0
 11
16957.47673464242
 21
19858.25732168747
 31
0.0
  0
LINE
  5
87
330
1F
100
AcDbEntity
  8
1
  6
Continuous
 62
     5
100
AcDbLine
 10
16927.47673464242
 20
19700.74553045822
 30
0.0
 11
16957.39519167367
 21
19700.74553045822
 31
0.0
  0
LINE
  5
88
330
1F
100
AcDbEntity
  8
1
  6
Continuous
 62
     5
100
AcDbLine
 10
16927.47673464242
 20
19858.25732168747
 30
0.0
 11
16927.47673464242
 21
19700.74553045822
 31
0.0
  0
LINE
  5
89
330
1F
100
AcDbEntity
  8
1
  6
Continuous
 62
     5
100
AcDbLine
 10
16837.47673464242
 20
19860.74553438602
 30
0.0
 11
16837.47673464242
 21
19890.74553714112
 31
0.0
  0
LINE
  5
8A
330
1F
100
AcDbEntity
  8
1
  6
Continuous
 62
     5
100
AcDbLine
 10
17877.47673464242
 20
19860.74553438602
 30
0.0
 11
16837.47673464242
 21
19860.74553438602
 31
0.0
  0
LINE
  5
8B
330
1F
100
AcDbEntity
  8
1
  6
Continuous
 62
     5
100
AcDbLine
 10
17877.47673464242
 20
19890.74553714112
 30
0.0
 11
17877.47673464242
 21
19860.74553438602
 31
0.0
  0
LINE
  5
8C
330
1F
100
AcDbEntity
  8
1
  6
Continuous
 62
     5
100
AcDbLine
 10
16837.47673464242
 20
19890.74553714112
 30
0.0
 11
17877.47673464242
 21
19890.74553714112
 31
0.0
  0
LINE
  5
8D
330
1F
100
AcDbEntity
  8
1
  6
Continuous
 62
     5
100
AcDbLine
 10
20860.72184108155
 20
19890.74553714112
 30
0.0
 11
21900.72184108155
 21
19890.74553714112
 31
0.0
  0
LINE
  5
8E
330
1F
100
AcDbEntity
  8
1
  6
Continuous
 62
     5
100
AcDbLine
 10
21900.72184108155
 20
19890.74553714112
 30
0.0
 11
21900.72184108155
 21
19860.74553438602
 31
0.0
  0
LINE
  5
8F
330
1F
100
AcDbEntity
  8
1
  6
Continuous
 62
     5
100
AcDbLine
 10
21900.72184108155
 20
19860.74553438602
 30
0.0
 11
20860.72184108155
 21
19860.74553438602
 31
0.0
  0
LINE
  5
90
330
1F
100
AcDbEntity
  8
1
  6
Continuous
 62
     5
100
AcDbLine
 10
20860.72184108155
 20
19860.74553438602
 30
0.0
 11
20860.72184108155
 21
19890.74553714112
 31
0.0
  0
LINE
  5
91
330
1F
100
AcDbEntity
  8
1
  6
Continuous
 62
     5
100
AcDbLine
 10
20950.72184108155
 20
19858.25732168747
 30
0.0
 11
20950.72184108155
 21
19700.74553045822
 31
0.0
  0
LINE
  5
92
330
1F
100
AcDbEntity
  8
1
  6
Continuous
 62
     5
100
AcDbLine
 10
20950.72184108155
 20
19700.74553045822
 30
0.0
 11
20980.6402981128
 21
19700.74553045822
 31
0.0
  0
LINE
  5
93
330
1F
100
AcDbEntity
  8
1
  6
Continuous
 62
     5
100
AcDbLine
 10
20980.6402981128
 20
19700.74553045822
 30
0.0
 11
20980.72184108155
 21
19858.25732168747
 31
0.0
  0
LINE
  5
94
330
1F
100
AcDbEntity
  8
1
  6
Continuous
 62
     5
100
AcDbLine
 10
21780.72184108155
 20
19858.25732168747
 30
0.0
 11
21780.8033840503
 21
19700.74553045822
 31
0.0
  0
LINE
  5
95
330
1F
100
AcDbEntity
  8
1
  6
Continuous
 62
     5
100
AcDbLine
 10
21780.8033840503
 20
19700.74553045822
 30
0.0
 11
21810.72184108155
 21
19700.74553045822
 31
0.0
  0
LINE
  5
96
330
1F
100
AcDbEntity
  8
1
  6
Continuous
 62
     5
100
AcDbLine
 10
21810.72184108155
 20
19700.74553045822
 30
0.0
 11
21810.72184108155
 21
19858.25732168747
 31
0.0
  0
LINE
  5
97
330
1F
100
AcDbEntity
  8
1
  6
Continuous
 62
     5
100
AcDbLine
 10
11917.57472687963
 20
19890.71911020226
 30
0.0
 11
11917.57472687963
 21
19869.017638314
 31
0.0
  0
LINE
  5
98
330
1F
100
AcDbEntity
  8
1
  6
Continuous
 62
     5
100
AcDbLine
 10
11357.21472687963
 20
19869.017638314
 30
0.0
 11
11357.21472687963
 21
19890.71911020226
 31
0.0
  0
LINE
  5
99
330
1F
100
AcDbEntity
  8
1
  6
Continuous
 62
     5
100
AcDbLine
 10
11357.21472687963
 20
19890.71911020226
 30
0.0
 11
11917.57472687963
 21
19890.71911020226
 31
0.0
  0
LINE
  5
9A
330
1F
100
AcDbEntity
  8
1
  6
Continuous
 62
     5
100
AcDbLine
 10
11917.57472687963
 20
19890.71911020226
 30
0.0
 11
11917.57472687963
 21
19860.71911025501
 31
0.0
  0
LINE
  5
9B
330
1F
100
AcDbEntity
  8
1
  6
Continuous
 62
     5
100
AcDbLine
 10
11917.57472687963
 20
19860.71911025501
 30
0.0
 11
11357.21472687963
 21
19860.71911025501
 31
0.0
  0
LINE
  5
9C
330
1F
100
AcDbEntity
  8
1
  6
Continuous
 62
     5
100
AcDbLine
 10
11357.21472687963
 20
19860.71911025501
 30
0.0
 11
11357.21472687963
 21
19890.71911020226
 31
0.0
  0
LINE
  5
9D
330
1F
100
AcDbEntity
  8
0
  6
Continuous
 62
     7
100
AcDbLine
 10
12087.41631030059
 20
19912.71911020223
 30
0.0
 11
12087.41631030059
 21
19909.71911020223
 31
0.0
  0
LINE
  5
9E
330
1F
100
AcDbEntity
  8
0
  6
Continuous
 62
     7
100
AcDbLine
 10
12087.41631030059
 20
19912.71911020223
 30
0.0
 11
11187.41631030059
 21
19912.7191102023
 31
0.0
  0
LINE
  5
9F
330
1F
100
AcDbEntity
  8
0
  6
Continuous
 62
     7
100
AcDbLine
 10
12087.41631030059
 20
19909.71911020223
 30
0.0
 11
11187.41631030059
 21
19909.7191102023
 31
0.0
  0
LINE
  5
A0
330
1F
100
AcDbEntity
  8
0
  6
Continuous
 62
     7
100
AcDbLine
 10
11187.41631030059
 20
19909.7191102023
 30
0.0
 11
11187.41631030059
 21
19912.7191102023
 31
0.0
  0
LINE
  5
A1
330
1F
100
AcDbEntity
  8
0
  6
Continuous
 62
     7
100
AcDbLine
 10
12114.41631030059
 20
19909.71911020223
 30
0.0
 11
12087.41631030059
 21
19909.71911020223
 31
0.0
  0
LINE
  5
A2
330
1F
100
AcDbEntity
  8
0
  6
Continuous
 62
     7
100
AcDbLine
 10
12114.41631030059
 20
19890.71911020223
 30
0.0
 11
12114.41631030059
 21
19909.71911020223
 31
0.0
  0
LINE
  5
A3
330
1F
100
AcDbEntity
  8
0
  6
Continuous
 62
     7
100
AcDbLine
 10
12087.41631030059
 20
19909.71911020223
 30
0.0
 11
11187.41631030059
 21
19909.7191102023
 31
0.0
  0
LINE
  5
A4
330
1F
100
AcDbEntity
  8
0
  6
Continuous
 62
     7
100
AcDbLine
 10
11187.41631030059
 20
19909.7191102023
 30
0.0
 11
11160.41631030059
 21
19909.7191102023
 31
0.0
  0
LINE
  5
A5
330
1F
100
AcDbEntity
  8
0
  6
Continuous
 62
     7
100
AcDbLine
 10
12114.41631030059
 20
19890.71911020223
 30
0.0
 11
11160.41631030059
 21
19890.7191102023
 31
0.0
  0
LINE
  5
A6
330
1F
100
AcDbEntity
  8
0
  6
Continuous
 62
     7
100
AcDbLine
 10
11160.41631030059
 20
19909.7191102023
 30
0.0
 11
11160.41631030059
 21
19890.7191102023
 31
0.0
  0
LINE
  5
A7
330
1F
100
AcDbEntity
  8
0
  6
Continuous
 62
     7
100
AcDbLine
 10
12116.41631030059
 20
19920.71911020223
 30
0.0
 11
12117.41631030059
 21
19919.71911020223
 31
0.0
  0
LINE
  5
A8
330
1F
100
AcDbEntity
  8
0
  6
Continuous
 62
     7
100
AcDbLine
 10
12117.41631030059
 20
19919.71911020223
 30
0.0
 11
12117.41631030059
 21
19913.71911020223
 31
0.0
  0
LINE
  5
A9
330
1F
100
AcDbEntity
  8
0
  6
Continuous
 62
     7
100
AcDbLine
 10
12087.41631030059
 20
19912.71911020223
 30
0.0
 11
11187.41631030059
 21
19912.7191102023
 31
0.0
  0
LINE
  5
AA
330
1F
100
AcDbEntity
  8
0
  6
Continuous
 62
     7
100
AcDbLine
 10
11187.41631030059
 20
19912.7191102023
 30
0.0
 11
11158.41631030059
 21
19912.7191102023
 31
0.0
  0
LINE
  5
AB
330
1F
100
AcDbEntity
  8
0
  6
Continuous
 62
     7
100
AcDbLine
 10
12087.41631030059
 20
19912.71911020223
 30
0.0
 11
12116.41631030059
 21
19912.71911020223
 31
0.0
  0
LINE
  5
AC
330
1F
100
AcDbEntity
  8
0
  6
Continuous
 62
     7
100
AcDbLine
 10
11158.41631030059
 20
19912.7191102023
 30
0.0
 11
11157.41631030059
 21
19913.7191102023
 31
0.0
  0
LINE
  5
AD
330
1F
100
AcDbEntity
  8
0
  6
Continuous
 62
     7
100
AcDbLine
 10
12116.41631030059
 20
19920.71911020223
 30
0.0
 11
11158.41631030059
 21
19920.7191102023
 31
0.0
  0
LINE
  5
AE
330
1F
100
AcDbEntity
  8
0
  6
Continuous
 62
     7
100
AcDbLine
 10
11158.41631030059
 20
19920.7191102023
 30
0.0
 11
11157.41631030059
 21
19919.7191102023
 31
0.0
  0
LINE
  5
AF
330
1F
100
AcDbEntity
  8
0
  6
Continuous
 62
     7
100
AcDbLine
 10
11157.41631030059
 20
19919.7191102023
 30
0.0
 11
11157.41631030059
 21
19913.7191102023
 31
0.0
  0
LINE
  5
B0
330
1F
100
AcDbEntity
  8
0
  6
Continuous
 62
     7
100
AcDbLine
 10
12116.41631030059
 20
19912.71911020223
 30
0.0
 11
12117.41631030059
 21
19913.71911020223
 31
0.0
  0
LINE
  5
B1
330
1F
100
AcDbEntity
  8
0
  6
Continuous
 62
     7
100
AcDbLine
 10
11157.41631030059
 20
19913.7191102023
 30
0.0
 11
12117.41631030059
 21
19913.71911020223
 31
0.0
  0
LINE
  5
B2
330
1F
100
AcDbEntity
  8
0
  6
Continuous
 62
     7
100
AcDbLine
 10
12117.41631030059
 20
19919.71911020223
 30
0.0
 11
11157.41631030059
 21
19919.7191102023
 31
0.0
  0
LINE
  5
B3
330
1F
100
AcDbEntity
  8
0
  6
Continuous
 62
     7
100
AcDbLine
 10
13461.51970213342
 20
19919.71911020223
 30
0.0
 11
12501.51970213342
 21
19919.7191102023
 31
0.0
  0
LINE
  5
B4
330
1F
100
AcDbEntity
  8
0
  6
Continuous
 62
     7
100
AcDbLine
 10
12501.51970213342
 20
19913.7191102023
 30
0.0
 11
13461.51970213342
 21
19913.71911020223
 31
0.0
  0
LINE
  5
B5
330
1F
100
AcDbEntity
  8
0
  6
Continuous
 62
     7
100
AcDbLine
 10
13460.51970213342
 20
19912.71911020223
 30
0.0
 11
13461.51970213342
 21
19913.71911020223
 31
0.0
  0
LINE
  5
B6
330
1F
100
AcDbEntity
  8
0
  6
Continuous
 62
     7
100
AcDbLine
 10
12501.51970213342
 20
19919.7191102023
 30
0.0
 11
12501.51970213342
 21
19913.7191102023
 31
0.0
  0
LINE
  5
B7
330
1F
100
AcDbEntity
  8
0
  6
Continuous
 62
     7
100
AcDbLine
 10
12502.51970213342
 20
19920.7191102023
 30
0.0
 11
12501.51970213342
 21
19919.7191102023
 31
0.0
  0
LINE
  5
B8
330
1F
100
AcDbEntity
  8
0
  6
Continuous
 62
     7
100
AcDbLine
 10
13460.51970213342
 20
19920.71911020223
 30
0.0
 11
12502.51970213342
 21
19920.7191102023
 31
0.0
  0
LINE
  5
B9
330
1F
100
AcDbEntity
  8
0
  6
Continuous
 62
     7
100
AcDbLine
 10
12502.51970213342
 20
19912.7191102023
 30
0.0
 11
12501.51970213342
 21
19913.7191102023
 31
0.0
  0
LINE
  5
BA
330
1F
100
AcDbEntity
  8
0
  6
Continuous
 62
     7
100
AcDbLine
 10
13431.51970213342
 20
19912.71911020223
 30
0.0
 11
13460.51970213342
 21
19912.71911020223
 31
0.0
  0
LINE
  5
BB
330
1F
100
AcDbEntity
  8
0
  6
Continuous
 62
     7
100
AcDbLine
 10
12531.51970213342
 20
19912.7191102023
 30
0.0
 11
12502.51970213342
 21
19912.7191102023
 31
0.0
  0
LINE
  5
BC
330
1F
100
AcDbEntity
  8
0
  6
Continuous
 62
     7
100
AcDbLine
 10
13431.51970213342
 20
19912.71911020223
 30
0.0
 11
12531.51970213342
 21
19912.7191102023
 31
0.0
  0
LINE
  5
BD
330
1F
100
AcDbEntity
  8
0
  6
Continuous
 62
     7
100
AcDbLine
 10
13461.51970213342
 20
19919.71911020223
 30
0.0
 11
13461.51970213342
 21
19913.71911020223
 31
0.0
  0
LINE
  5
BE
330
1F
100
AcDbEntity
  8
0
  6
Continuous
 62
     7
100
AcDbLine
 10
13460.51970213342
 20
19920.71911020223
 30
0.0
 11
13461.51970213342
 21
19919.71911020223
 31
0.0
  0
LINE
  5
BF
330
1F
100
AcDbEntity
  8
0
  6
Continuous
 62
     7
100
AcDbLine
 10
12504.51970213342
 20
19909.7191102023
 30
0.0
 11
12504.51970213342
 21
19890.7191102023
 31
0.0
  0
LINE
  5
C0
330
1F
100
AcDbEntity
  8
0
  6
Continuous
 62
     7
100
AcDbLine
 10
13458.51970213342
 20
19890.71911020223
 30
0.0
 11
12504.51970213342
 21
19890.7191102023
 31
0.0
  0
LINE
  5
C1
330
1F
100
AcDbEntity
  8
0
  6
Continuous
 62
     7
100
AcDbLine
 10
12531.51970213342
 20
19909.7191102023
 30
0.0
 11
12504.51970213342
 21
19909.7191102023
 31
0.0
  0
LINE
  5
C2
330
1F
100
AcDbEntity
  8
0
  6
Continuous
 62
     7
100
AcDbLine
 10
13431.51970213342
 20
19909.71911020223
 30
0.0
 11
12531.51970213342
 21
19909.7191102023
 31
0.0
  0
LINE
  5
C3
330
1F
100
AcDbEntity
  8
0
  6
Continuous
 62
     7
100
AcDbLine
 10
13458.51970213342
 20
19890.71911020223
 30
0.0
 11
13458.51970213342
 21
19909.71911020223
 31
0.0
  0
LINE
  5
C4
330
1F
100
AcDbEntity
  8
0
  6
Continuous
 62
     7
100
AcDbLine
 10
13458.51970213342
 20
19909.71911020223
 30
0.0
 11
13431.51970213342
 21
19909.71911020223
 31
0.0
  0
LINE
  5
C5
330
1F
100
AcDbEntity
  8
0
  6
Continuous
 62
     7
100
AcDbLine
 10
12531.51970213342
 20
19909.7191102023
 30
0.0
 11
12531.51970213342
 21
19912.7191102023
 31
0.0
  0
LINE
  5
C6
330
1F
100
AcDbEntity
  8
0
  6
Continuous
 62
     7
100
AcDbLine
 10
13431.51970213342
 20
19909.71911020223
 30
0.0
 11
12531.51970213342
 21
19909.7191102023
 31
0.0
  0
LINE
  5
C7
330
1F
100
AcDbEntity
  8
0
  6
Continuous
 62
     7
100
AcDbLine
 10
13431.51970213342
 20
19912.71911020223
 30
0.0
 11
12531.51970213342
 21
19912.7191102023
 31
0.0
  0
LINE
  5
C8
330
1F
100
AcDbEntity
  8
0
  6
Continuous
 62
     7
100
AcDbLine
 10
13431.51970213342
 20
19912.71911020223
 30
0.0
 11
13431.51970213342
 21
19909.71911020223
 31
0.0
  0
LINE
  5
C9
330
1F
100
AcDbEntity
  8
0
  6
Continuous
 62
     7
100
AcDbLine
 10
9836.571696475694
 20
19919.71911020223
 30
0.0
 11
8876.571696475692
 21
19919.7191102023
 31
0.0
  0
LINE
  5
CA
330
1F
100
AcDbEntity
  8
0
  6
Continuous
 62
     7
100
AcDbLine
 10
8876.571696475692
 20
19913.7191102023
 30
0.0
 11
9836.571696475692
 21
19913.71911020223
 31
0.0
  0
LINE
  5
CB
330
1F
100
AcDbEntity
  8
0
  6
Continuous
 62
     7
100
AcDbLine
 10
9835.571696475696
 20
19912.71911020223
 30
0.0
 11
9836.571696475692
 21
19913.71911020223
 31
0.0
  0
LINE
  5
CC
330
1F
100
AcDbEntity
  8
0
  6
Continuous
 62
     7
100
AcDbLine
 10
8876.571696475692
 20
19919.7191102023
 30
0.0
 11
8876.571696475692
 21
19913.7191102023
 31
0.0
  0
LINE
  5
CD
330
1F
100
AcDbEntity
  8
0
  6
Continuous
 62
     7
100
AcDbLine
 10
8877.571696475696
 20
19920.7191102023
 30
0.0
 11
8876.571696475692
 21
19919.7191102023
 31
0.0
  0
LINE
  5
CE
330
1F
100
AcDbEntity
  8
0
  6
Continuous
 62
     7
100
AcDbLine
 10
9835.571696475696
 20
19920.71911020223
 30
0.0
 11
8877.571696475696
 21
19920.7191102023
 31
0.0
  0
LINE
  5
CF
330
1F
100
AcDbEntity
  8
0
  6
Continuous
 62
     7
100
AcDbLine
 10
8877.571696475692
 20
19912.7191102023
 30
0.0
 11
8876.571696475692
 21
19913.7191102023
 31
0.0
  0
LINE
  5
D0
330
1F
100
AcDbEntity
  8
0
  6
Continuous
 62
     7
100
AcDbLine
 10
9806.571696475692
 20
19912.71911020223
 30
0.0
 11
9835.571696475696
 21
19912.71911020223
 31
0.0
  0
LINE
  5
D1
330
1F
100
AcDbEntity
  8
0
  6
Continuous
 62
     7
100
AcDbLine
 10
8906.571696475692
 20
19912.7191102023
 30
0.0
 11
8877.571696475692
 21
19912.7191102023
 31
0.0
  0
LINE
  5
D2
330
1F
100
AcDbEntity
  8
0
  6
Continuous
 62
     7
100
AcDbLine
 10
9806.571696475692
 20
19912.71911020223
 30
0.0
 11
8906.571696475692
 21
19912.7191102023
 31
0.0
  0
LINE
  5
D3
330
1F
100
AcDbEntity
  8
0
  6
Continuous
 62
     7
100
AcDbLine
 10
9836.571696475694
 20
19919.71911020223
 30
0.0
 11
9836.571696475692
 21
19913.71911020223
 31
0.0
  0
LINE
  5
D4
330
1F
100
AcDbEntity
  8
0
  6
Continuous
 62
     7
100
AcDbLine
 10
9835.571696475696
 20
19920.71911020223
 30
0.0
 11
9836.571696475694
 21
19919.71911020223
 31
0.0
  0
LINE
  5
D5
330
1F
100
AcDbEntity
  8
0
  6
Continuous
 62
     7
100
AcDbLine
 10
8879.571696475696
 20
19909.7191102023
 30
0.0
 11
8879.571696475694
 21
19890.7191102023
 31
0.0
  0
LINE
  5
D6
330
1F
100
AcDbEntity
  8
0
  6
Continuous
 62
     7
100
AcDbLine
 10
9833.571696475694
 20
19890.71911020223
 30
0.0
 11
8879.571696475694
 21
19890.7191102023
 31
0.0
  0
LINE
  5
D7
330
1F
100
AcDbEntity
  8
0
  6
Continuous
 62
     7
100
AcDbLine
 10
8906.571696475692
 20
19909.7191102023
 30
0.0
 11
8879.571696475696
 21
19909.7191102023
 31
0.0
  0
LINE
  5
D8
330
1F
100
AcDbEntity
  8
0
  6
Continuous
 62
     7
100
AcDbLine
 10
9806.571696475692
 20
19909.71911020223
 30
0.0
 11
8906.571696475692
 21
19909.7191102023
 31
0.0
  0
LINE
  5
D9
330
1F
100
AcDbEntity
  8
0
  6
Continuous
 62
     7
100
AcDbLine
 10
9833.571696475694
 20
19890.71911020223
 30
0.0
 11
9833.571696475696
 21
19909.71911020223
 31
0.0
  0
LINE
  5
DA
330
1F
100
AcDbEntity
  8
0
  6
Continuous
 62
     7
100
AcDbLine
 10
9833.571696475696
 20
19909.71911020223
 30
0.0
 11
9806.571696475692
 21
19909.71911020223
 31
0.0
  0
LINE
  5
DB
330
1F
100
AcDbEntity
  8
0
  6
Continuous
 62
     7
100
AcDbLine
 10
8906.571696475692
 20
19909.7191102023
 30
0.0
 11
8906.571696475692
 21
19912.7191102023
 31
0.0
  0
LINE
  5
DC
330
1F
100
AcDbEntity
  8
0
  6
Continuous
 62
     7
100
AcDbLine
 10
9806.571696475692
 20
19909.71911020223
 30
0.0
 11
8906.571696475692
 21
19909.7191102023
 31
0.0
  0
LINE
  5
DD
330
1F
100
AcDbEntity
  8
0
  6
Continuous
 62
     7
100
AcDbLine
 10
9806.571696475692
 20
19912.71911020223
 30
0.0
 11
8906.571696475692
 21
19912.7191102023
 31
0.0
  0
LINE
  5
DE
330
1F
100
AcDbEntity
  8
0
  6
Continuous
 62
     7
100
AcDbLine
 10
9806.571696475692
 20
19912.71911020223
 30
0.0
 11
9806.571696475692
 21
19909.71911020223
 31
0.0
  0
LINE
  5
DF
330
1F
100
AcDbEntity
  8
0
  6
Continuous
 62
     7
100
AcDbLine
 10
8522.440347549329
 20
19912.71911020223
 30
0.0
 11
8522.440347549329
 21
19909.71911020223
 31
0.0
  0
LINE
  5
E0
330
1F
100
AcDbEntity
  8
0
  6
Continuous
 62
     7
100
AcDbLine
 10
8522.440347549329
 20
19912.71911020223
 30
0.0
 11
8102.440347549328
 21
19912.7191102023
 31
0.0
  0
LINE
  5
E1
330
1F
100
AcDbEntity
  8
0
  6
Continuous
 62
     7
100
AcDbLine
 10
8522.440347549329
 20
19909.71911020223
 30
0.0
 11
8102.440347549328
 21
19909.7191102023
 31
0.0
  0
LINE
  5
E2
330
1F
100
AcDbEntity
  8
0
  6
Continuous
 62
     7
100
AcDbLine
 10
8102.440347549328
 20
19909.7191102023
 30
0.0
 11
8102.440347549328
 21
19912.7191102023
 31
0.0
  0
LINE
  5
E3
330
1F
100
AcDbEntity
  8
0
  6
Continuous
 62
     7
100
AcDbLine
 10
8549.440347549333
 20
19909.71911020223
 30
0.0
 11
8522.440347549329
 21
19909.71911020223
 31
0.0
  0
LINE
  5
E4
330
1F
100
AcDbEntity
  8
0
  6
Continuous
 62
     7
100
AcDbLine
 10
8549.440347549331
 20
19890.71911020223
 30
0.0
 11
8549.440347549333
 21
19909.71911020223
 31
0.0
  0
LINE
  5
E5
330
1F
100
AcDbEntity
  8
0
  6
Continuous
 62
     7
100
AcDbLine
 10
8522.440347549329
 20
19909.71911020223
 30
0.0
 11
8102.440347549328
 21
19909.7191102023
 31
0.0
  0
LINE
  5
E6
330
1F
100
AcDbEntity
  8
0
  6
Continuous
 62
     7
100
AcDbLine
 10
8102.440347549328
 20
19909.7191102023
 30
0.0
 11
8075.440347549332
 21
19909.7191102023
 31
0.0
  0
LINE
  5
E7
330
1F
100
AcDbEntity
  8
0
  6
Continuous
 62
     7
100
AcDbLine
 10
8549.440347549331
 20
19890.71911020223
 30
0.0
 11
8075.44034754933
 21
19890.7191102023
 31
0.0
  0
LINE
  5
E8
330
1F
100
AcDbEntity
  8
0
  6
Continuous
 62
     7
100
AcDbLine
 10
8075.440347549332
 20
19909.7191102023
 30
0.0
 11
8075.44034754933
 21
19890.7191102023
 31
0.0
  0
LINE
  5
E9
330
1F
100
AcDbEntity
  8
0
  6
Continuous
 62
     7
100
AcDbLine
 10
8551.440347549333
 20
19920.71911020223
 30
0.0
 11
8552.440347549331
 21
19919.71911020223
 31
0.0
  0
LINE
  5
EA
330
1F
100
AcDbEntity
  8
0
  6
Continuous
 62
     7
100
AcDbLine
 10
8552.440347549331
 20
19919.71911020223
 30
0.0
 11
8552.440347549329
 21
19913.71911020223
 31
0.0
  0
LINE
  5
EB
330
1F
100
AcDbEntity
  8
0
  6
Continuous
 62
     7
100
AcDbLine
 10
8522.440347549329
 20
19912.71911020223
 30
0.0
 11
8102.440347549328
 21
19912.7191102023
 31
0.0
  0
LINE
  5
EC
330
1F
100
AcDbEntity
  8
0
  6
Continuous
 62
     7
100
AcDbLine
 10
8102.440347549328
 20
19912.7191102023
 30
0.0
 11
8073.440347549329
 21
19912.7191102023
 31
0.0
  0
LINE
  5
ED
330
1F
100
AcDbEntity
  8
0
  6
Continuous
 62
     7
100
AcDbLine
 10
8522.440347549329
 20
19912.71911020223
 30
0.0
 11
8551.440347549333
 21
19912.71911020223
 31
0.0
  0
LINE
  5
EE
330
1F
100
AcDbEntity
  8
0
  6
Continuous
 62
     7
100
AcDbLine
 10
8073.440347549329
 20
19912.7191102023
 30
0.0
 11
8072.440347549329
 21
19913.7191102023
 31
0.0
  0
LINE
  5
EF
330
1F
100
AcDbEntity
  8
0
  6
Continuous
 62
     7
100
AcDbLine
 10
8551.440347549333
 20
19920.71911020223
 30
0.0
 11
8073.440347549333
 21
19920.7191102023
 31
0.0
  0
LINE
  5
F0
330
1F
100
AcDbEntity
  8
0
  6
Continuous
 62
     7
100
AcDbLine
 10
8073.440347549333
 20
19920.7191102023
 30
0.0
 11
8072.440347549329
 21
19919.7191102023
 31
0.0
  0
LINE
  5
F1
330
1F
100
AcDbEntity
  8
0
  6
Continuous
 62
     7
100
AcDbLine
 10
8072.440347549329
 20
19919.7191102023
 30
0.0
 11
8072.440347549329
 21
19913.7191102023
 31
0.0
  0
LINE
  5
F2
330
1F
100
AcDbEntity
  8
0
  6
Continuous
 62
     7
100
AcDbLine
 10
8551.440347549333
 20
19912.71911020223
 30
0.0
 11
8552.440347549329
 21
19913.71911020223
 31
0.0
  0
LINE
  5
F3
330
1F
100
AcDbEntity
  8
0
  6
Continuous
 62
     7
100
AcDbLine
 10
8072.440347549329
 20
19913.7191102023
 30
0.0
 11
8552.440347549329
 21
19913.71911020223
 31
0.0
  0
LINE
  5
F4
330
1F
100
AcDbEntity
  8
0
  6
Continuous
 62
     7
100
AcDbLine
 10
8552.440347549331
 20
19919.71911020223
 30
0.0
 11
8072.440347549329
 21
19919.7191102023
 31
0.0
  0
LINE
  5
F5
330
1F
100
AcDbEntity
  8
0
  6
Continuous
 62
     7
100
AcDbLine
 10
17927.48096967684
 20
19912.71911020223
 30
0.0
 11
17927.48096967684
 21
19909.71911020223
 31
0.0
  0
LINE
  5
F6
330
1F
100
AcDbEntity
  8
0
  6
Continuous
 62
     7
100
AcDbLine
 10
17927.48096967684
 20
19912.71911020223
 30
0.0
 11
16787.48096967684
 21
19912.7191102023
 31
0.0
  0
LINE
  5
F7
330
1F
100
AcDbEntity
  8
0
  6
Continuous
 62
     7
100
AcDbLine
 10
17927.48096967684
 20
19909.71911020223
 30
0.0
 11
16787.48096967684
 21
19909.7191102023
 31
0.0
  0
LINE
  5
F8
330
1F
100
AcDbEntity
  8
0
  6
Continuous
 62
     7
100
AcDbLine
 10
16787.48096967684
 20
19909.7191102023
 30
0.0
 11
16787.48096967684
 21
19912.7191102023
 31
0.0
  0
LINE
  5
F9
330
1F
100
AcDbEntity
  8
0
  6
Continuous
 62
     7
100
AcDbLine
 10
17954.48096967684
 20
19909.71911020223
 30
0.0
 11
17927.48096967684
 21
19909.71911020223
 31
0.0
  0
LINE
  5
FA
330
1F
100
AcDbEntity
  8
0
  6
Continuous
 62
     7
100
AcDbLine
 10
17954.48096967684
 20
19890.71911020223
 30
0.0
 11
17954.48096967684
 21
19909.71911020223
 31
0.0
  0
LINE
  5
FB
330
1F
100
AcDbEntity
  8
0
  6
Continuous
 62
     7
100
AcDbLine
 10
17927.48096967684
 20
19909.71911020223
 30
0.0
 11
16787.48096967684
 21
19909.7191102023
 31
0.0
  0
LINE
  5
FC
330
1F
100
AcDbEntity
  8
0
  6
Continuous
 62
     7
100
AcDbLine
 10
16787.48096967684
 20
19909.7191102023
 30
0.0
 11
16760.48096967684
 21
19909.7191102023
 31
0.0
  0
LINE
  5
FD
330
1F
100
AcDbEntity
  8
0
  6
Continuous
 62
     7
100
AcDbLine
 10
17954.48096967684
 20
19890.71911020223
 30
0.0
 11
16760.48096967684
 21
19890.7191102023
 31
0.0
  0
LINE
  5
FE
330
1F
100
AcDbEntity
  8
0
  6
Continuous
 62
     7
100
AcDbLine
 10
16760.48096967684
 20
19909.7191102023
 30
0.0
 11
16760.48096967684
 21
19890.7191102023
 31
0.0
  0
LINE
  5
FF
330
1F
100
AcDbEntity
  8
0
  6
Continuous
 62
     7
100
AcDbLine
 10
17956.48096967685
 20
19920.71911020223
 30
0.0
 11
17957.48096967684
 21
19919.71911020223
 31
0.0
  0
LINE
  5
100
330
1F
100
AcDbEntity
  8
0
  6
Continuous
 62
     7
100
AcDbLine
 10
17957.48096967684
 20
19919.71911020223
 30
0.0
 11
17957.48096967684
 21
19913.71911020223
 31
0.0
  0
LINE
  5
101
330
1F
100
AcDbEntity
  8
0
  6
Continuous
 62
     7
100
AcDbLine
 10
17927.48096967684
 20
19912.71911020223
 30
0.0
 11
16787.48096967684
 21
19912.7191102023
 31
0.0
  0
LINE
  5
102
330
1F
100
AcDbEntity
  8
0
  6
Continuous
 62
     7
100
AcDbLine
 10
16787.48096967684
 20
19912.7191102023
 30
0.0
 11
16758.48096967684
 21
19912.7191102023
 31
0.0
  0
LINE
  5
103
330
1F
100
AcDbEntity
  8
0
  6
Continuous
 62
     7
100
AcDbLine
 10
17927.48096967684
 20
19912.71911020223
 30
0.0
 11
17956.48096967684
 21
19912.71911020223
 31
0.0
  0
LINE
  5
104
330
1F
100
AcDbEntity
  8
0
  6
Continuous
 62
     7
100
AcDbLine
 10
16758.48096967684
 20
19912.7191102023
 30
0.0
 11
16757.48096967684
 21
19913.7191102023
 31
0.0
  0
LINE
  5
105
330
1F
100
AcDbEntity
  8
0
  6
Continuous
 62
     7
100
AcDbLine
 10
17956.48096967685
 20
19920.71911020223
 30
0.0
 11
16758.48096967684
 21
19920.7191102023
 31
0.0
  0
LINE
  5
106
330
1F
100
AcDbEntity
  8
0
  6
Continuous
 62
     7
100
AcDbLine
 10
16758.48096967684
 20
19920.7191102023
 30
0.0
 11
16757.48096967684
 21
19919.7191102023
 31
0.0
  0
LINE
  5
107
330
1F
100
AcDbEntity
  8
0
  6
Continuous
 62
     7
100
AcDbLine
 10
16757.48096967684
 20
19919.7191102023
 30
0.0
 11
16757.48096967684
 21
19913.7191102023
 31
0.0
  0
LINE
  5
108
330
1F
100
AcDbEntity
  8
0
  6
Continuous
 62
     7
100
AcDbLine
 10
17956.48096967684
 20
19912.71911020223
 30
0.0
 11
17957.48096967684
 21
19913.71911020223
 31
0.0
  0
LINE
  5
109
330
1F
100
AcDbEntity
  8
0
  6
Continuous
 62
     7
100
AcDbLine
 10
16757.48096967684
 20
19913.7191102023
 30
0.0
 11
17957.48096967684
 21
19913.71911020223
 31
0.0
  0
LINE
  5
10A
330
1F
100
AcDbEntity
  8
0
  6
Continuous
 62
     7
100
AcDbLine
 10
17957.48096967684
 20
19919.71911020223
 30
0.0
 11
16757.48096967684
 21
19919.7191102023
 31
0.0
  0
LINE
  5
10B
330
1F
100
AcDbEntity
  8
0
  6
Continuous
 62
     7
100
AcDbLine
 10
16433.77932134722
 20
19919.71911020223
 30
0.0
 11
15473.77932134722
 21
19919.7191102023
 31
0.0
  0
LINE
  5
10C
330
1F
100
AcDbEntity
  8
0
  6
Continuous
 62
     7
100
AcDbLine
 10
15473.77932134722
 20
19913.7191102023
 30
0.0
 11
16433.77932134722
 21
19913.71911020223
 31
0.0
  0
LINE
  5
10D
330
1F
100
AcDbEntity
  8
0
  6
Continuous
 62
     7
100
AcDbLine
 10
16432.77932134722
 20
19912.71911020223
 30
0.0
 11
16433.77932134722
 21
19913.71911020223
 31
0.0
  0
LINE
  5
10E
330
1F
100
AcDbEntity
  8
0
  6
Continuous
 62
     7
100
AcDbLine
 10
15473.77932134722
 20
19919.7191102023
 30
0.0
 11
15473.77932134722
 21
19913.7191102023
 31
0.0
  0
LINE
  5
10F
330
1F
100
AcDbEntity
  8
0
  6
Continuous
 62
     7
100
AcDbLine
 10
15474.77932134722
 20
19920.7191102023
 30
0.0
 11
15473.77932134722
 21
19919.7191102023
 31
0.0
  0
LINE
  5
110
330
1F
100
AcDbEntity
  8
0
  6
Continuous
 62
     7
100
AcDbLine
 10
16432.77932134723
 20
19920.71911020223
 30
0.0
 11
15474.77932134722
 21
19920.7191102023
 31
0.0
  0
LINE
  5
111
330
1F
100
AcDbEntity
  8
0
  6
Continuous
 62
     7
100
AcDbLine
 10
15474.77932134722
 20
19912.7191102023
 30
0.0
 11
15473.77932134722
 21
19913.7191102023
 31
0.0
  0
LINE
  5
112
330
1F
100
AcDbEntity
  8
0
  6
Continuous
 62
     7
100
AcDbLine
 10
16403.77932134722
 20
19912.71911020223
 30
0.0
 11
16432.77932134722
 21
19912.71911020223
 31
0.0
  0
LINE
  5
113
330
1F
100
AcDbEntity
  8
0
  6
Continuous
 62
     7
100
AcDbLine
 10
15503.77932134722
 20
19912.7191102023
 30
0.0
 11
15474.77932134722
 21
19912.7191102023
 31
0.0
  0
LINE
  5
114
330
1F
100
AcDbEntity
  8
0
  6
Continuous
 62
     7
100
AcDbLine
 10
16403.77932134722
 20
19912.71911020223
 30
0.0
 11
15503.77932134722
 21
19912.7191102023
 31
0.0
  0
LINE
  5
115
330
1F
100
AcDbEntity
  8
0
  6
Continuous
 62
     7
100
AcDbLine
 10
16433.77932134722
 20
19919.71911020223
 30
0.0
 11
16433.77932134722
 21
19913.71911020223
 31
0.0
  0
LINE
  5
116
330
1F
100
AcDbEntity
  8
0
  6
Continuous
 62
     7
100
AcDbLine
 10
16432.77932134723
 20
19920.71911020223
 30
0.0
 11
16433.77932134722
 21
19919.71911020223
 31
0.0
  0
LINE
  5
117
330
1F
100
AcDbEntity
  8
0
  6
Continuous
 62
     7
100
AcDbLine
 10
15476.77932134722
 20
19909.7191102023
 30
0.0
 11
15476.77932134722
 21
19890.7191102023
 31
0.0
  0
LINE
  5
118
330
1F
100
AcDbEntity
  8
0
  6
Continuous
 62
     7
100
AcDbLine
 10
16430.77932134722
 20
19890.71911020223
 30
0.0
 11
15476.77932134722
 21
19890.7191102023
 31
0.0
  0
LINE
  5
119
330
1F
100
AcDbEntity
  8
0
  6
Continuous
 62
     7
100
AcDbLine
 10
15503.77932134722
 20
19909.7191102023
 30
0.0
 11
15476.77932134722
 21
19909.7191102023
 31
0.0
  0
LINE
  5
11A
330
1F
100
AcDbEntity
  8
0
  6
Continuous
 62
     7
100
AcDbLine
 10
16403.77932134722
 20
19909.71911020223
 30
0.0
 11
15503.77932134722
 21
19909.7191102023
 31
0.0
  0
LINE
  5
11B
330
1F
100
AcDbEntity
  8
0
  6
Continuous
 62
     7
100
AcDbLine
 10
16430.77932134722
 20
19890.71911020223
 30
0.0
 11
16430.77932134722
 21
19909.71911020223
 31
0.0
  0
LINE
  5
11C
330
1F
100
AcDbEntity
  8
0
  6
Continuous
 62
     7
100
AcDbLine
 10
16430.77932134722
 20
19909.71911020223
 30
0.0
 11
16403.77932134722
 21
19909.71911020223
 31
0.0
  0
LINE
  5
11D
330
1F
100
AcDbEntity
  8
0
  6
Continuous
 62
     7
100
AcDbLine
 10
15503.77932134722
 20
19909.7191102023
 30
0.0
 11
15503.77932134722
 21
19912.7191102023
 31
0.0
  0
LINE
  5
11E
330
1F
100
AcDbEntity
  8
0
  6
Continuous
 62
     7
100
AcDbLine
 10
16403.77932134722
 20
19909.71911020223
 30
0.0
 11
15503.77932134722
 21
19909.7191102023
 31
0.0
  0
LINE
  5
11F
330
1F
100
AcDbEntity
  8
0
  6
Continuous
 62
     7
100
AcDbLine
 10
16403.77932134722
 20
19912.71911020223
 30
0.0
 11
15503.77932134722
 21
19912.7191102023
 31
0.0
  0
LINE
  5
120
330
1F
100
AcDbEntity
  8
0
  6
Continuous
 62
     7
100
AcDbLine
 10
16403.77932134722
 20
19912.71911020223
 30
0.0
 11
16403.77932134722
 21
19909.71911020223
 31
0.0
  0
LINE
  5
121
330
1F
100
AcDbEntity
  8
0
  6
Continuous
 62
     7
100
AcDbLine
 10
21980.72607611598
 20
19919.71911020223
 30
0.0
 11
20780.72607611598
 21
19919.7191102023
 31
0.0
  0
LINE
  5
122
330
1F
100
AcDbEntity
  8
0
  6
Continuous
 62
     7
100
AcDbLine
 10
20780.72607611598
 20
19913.7191102023
 30
0.0
 11
21980.72607611598
 21
19913.71911020223
 31
0.0
  0
LINE
  5
123
330
1F
100
AcDbEntity
  8
0
  6
Continuous
 62
     7
100
AcDbLine
 10
21979.72607611599
 20
19912.71911020223
 30
0.0
 11
21980.72607611598
 21
19913.71911020223
 31
0.0
  0
LINE
  5
124
330
1F
100
AcDbEntity
  8
0
  6
Continuous
 62
     7
100
AcDbLine
 10
20780.72607611598
 20
19919.7191102023
 30
0.0
 11
20780.72607611598
 21
19913.7191102023
 31
0.0
  0
LINE
  5
125
330
1F
100
AcDbEntity
  8
0
  6
Continuous
 62
     7
100
AcDbLine
 10
20781.72607611599
 20
19920.7191102023
 30
0.0
 11
20780.72607611598
 21
19919.7191102023
 31
0.0
  0
LINE
  5
126
330
1F
100
AcDbEntity
  8
0
  6
Continuous
 62
     7
100
AcDbLine
 10
21979.72607611599
 20
19920.71911020223
 30
0.0
 11
20781.72607611599
 21
19920.7191102023
 31
0.0
  0
LINE
  5
127
330
1F
100
AcDbEntity
  8
0
  6
Continuous
 62
     7
100
AcDbLine
 10
20781.72607611598
 20
19912.7191102023
 30
0.0
 11
20780.72607611598
 21
19913.7191102023
 31
0.0
  0
LINE
  5
128
330
1F
100
AcDbEntity
  8
0
  6
Continuous
 62
     7
100
AcDbLine
 10
21950.72607611598
 20
19912.71911020223
 30
0.0
 11
21979.72607611599
 21
19912.71911020223
 31
0.0
  0
LINE
  5
129
330
1F
100
AcDbEntity
  8
0
  6
Continuous
 62
     7
100
AcDbLine
 10
20810.72607611598
 20
19912.7191102023
 30
0.0
 11
20781.72607611598
 21
19912.7191102023
 31
0.0
  0
LINE
  5
12A
330
1F
100
AcDbEntity
  8
0
  6
Continuous
 62
     7
100
AcDbLine
 10
21950.72607611598
 20
19912.71911020223
 30
0.0
 11
20810.72607611598
 21
19912.7191102023
 31
0.0
  0
LINE
  5
12B
330
1F
100
AcDbEntity
  8
0
  6
Continuous
 62
     7
100
AcDbLine
 10
21980.72607611598
 20
19919.71911020223
 30
0.0
 11
21980.72607611598
 21
19913.71911020223
 31
0.0
  0
LINE
  5
12C
330
1F
100
AcDbEntity
  8
0
  6
Continuous
 62
     7
100
AcDbLine
 10
21979.72607611599
 20
19920.71911020223
 30
0.0
 11
21980.72607611598
 21
19919.71911020223
 31
0.0
  0
LINE
  5
12D
330
1F
100
AcDbEntity
  8
0
  6
Continuous
 62
     7
100
AcDbLine
 10
20783.72607611599
 20
19909.7191102023
 30
0.0
 11
20783.72607611598
 21
19890.7191102023
 31
0.0
  0
LINE
  5
12E
330
1F
100
AcDbEntity
  8
0
  6
Continuous
 62
     7
100
AcDbLine
 10
21977.72607611598
 20
19890.71911020223
 30
0.0
 11
20783.72607611598
 21
19890.7191102023
 31
0.0
  0
LINE
  5
12F
330
1F
100
AcDbEntity
  8
0
  6
Continuous
 62
     7
100
AcDbLine
 10
20810.72607611598
 20
19909.7191102023
 30
0.0
 11
20783.72607611599
 21
19909.7191102023
 31
0.0
  0
LINE
  5
130
330
1F
100
AcDbEntity
  8
0
  6
Continuous
 62
     7
100
AcDbLine
 10
21950.72607611598
 20
19909.71911020223
 30
0.0
 11
20810.72607611598
 21
19909.7191102023
 31
0.0
  0
LINE
  5
131
330
1F
100
AcDbEntity
  8
0
  6
Continuous
 62
     7
100
AcDbLine
 10
21977.72607611598
 20
19890.71911020223
 30
0.0
 11
21977.72607611599
 21
19909.71911020223
 31
0.0
  0
LINE
  5
132
330
1F
100
AcDbEntity
  8
0
  6
Continuous
 62
     7
100
AcDbLine
 10
21977.72607611599
 20
19909.71911020223
 30
0.0
 11
21950.72607611598
 21
19909.71911020223
 31
0.0
  0
LINE
  5
133
330
1F
100
AcDbEntity
  8
0
  6
Continuous
 62
     7
100
AcDbLine
 10
20810.72607611598
 20
19909.7191102023
 30
0.0
 11
20810.72607611598
 21
19912.7191102023
 31
0.0
  0
LINE
  5
134
330
1F
100
AcDbEntity
  8
0
  6
Continuous
 62
     7
100
AcDbLine
 10
21950.72607611598
 20
19909.71911020223
 30
0.0
 11
20810.72607611598
 21
19909.7191102023
 31
0.0
  0
LINE
  5
135
330
1F
100
AcDbEntity
  8
0
  6
Continuous
 62
     7
100
AcDbLine
 10
21950.72607611598
 20
19912.71911020223
 30
0.0
 11
20810.72607611598
 21
19912.7191102023
 31
0.0
  0
LINE
  5
136
330
1F
100
AcDbEntity
  8
0
  6
Continuous
 62
     7
100
AcDbLine
 10
21950.72607611598
 20
19912.71911020223
 30
0.0
 11
21950.72607611598
 21
19909.71911020223
 31
0.0
  0
LINE
  5
137
330
1F
100
AcDbEntity
  8
0
  6
Continuous
 62
     7
100
AcDbLine
 10
20430.66093783768
 20
19912.71911020223
 30
0.0
 11
20430.66093783768
 21
19909.71911020223
 31
0.0
  0
LINE
  5
138
330
1F
100
AcDbEntity
  8
0
  6
Continuous
 62
     7
100
AcDbLine
 10
20430.66093783768
 20
19912.71911020223
 30
0.0
 11
19290.66093783768
 21
19912.7191102023
 31
0.0
  0
LINE
  5
139
330
1F
100
AcDbEntity
  8
0
  6
Continuous
 62
     7
100
AcDbLine
 10
20430.66093783768
 20
19909.71911020223
 30
0.0
 11
19290.66093783768
 21
19909.7191102023
 31
0.0
  0
LINE
  5
13A
330
1F
100
AcDbEntity
  8
0
  6
Continuous
 62
     7
100
AcDbLine
 10
19290.66093783768
 20
19909.7191102023
 30
0.0
 11
19290.66093783768
 21
19912.7191102023
 31
0.0
  0
LINE
  5
13B
330
1F
100
AcDbEntity
  8
0
  6
Continuous
 62
     7
100
AcDbLine
 10
20457.66093783768
 20
19909.71911020223
 30
0.0
 11
20430.66093783768
 21
19909.71911020223
 31
0.0
  0
LINE
  5
13C
330
1F
100
AcDbEntity
  8
0
  6
Continuous
 62
     7
100
AcDbLine
 10
20457.66093783768
 20
19890.71911020223
 30
0.0
 11
20457.66093783768
 21
19909.71911020223
 31
0.0
  0
LINE
  5
13D
330
1F
100
AcDbEntity
  8
0
  6
Continuous
 62
     7
100
AcDbLine
 10
20430.66093783768
 20
19909.71911020223
 30
0.0
 11
19290.66093783768
 21
19909.7191102023
 31
0.0
  0
LINE
  5
13E
330
1F
100
AcDbEntity
  8
0
  6
Continuous
 62
     7
100
AcDbLine
 10
19290.66093783768
 20
19909.7191102023
 30
0.0
 11
19263.66093783768
 21
19909.7191102023
 31
0.0
  0
LINE
  5
13F
330
1F
100
AcDbEntity
  8
0
  6
Continuous
 62
     7
100
AcDbLine
 10
20457.66093783768
 20
19890.71911020223
 30
0.0
 11
19263.66093783768
 21
19890.7191102023
 31
0.0
  0
LINE
  5
140
330
1F
100
AcDbEntity
  8
0
  6
Continuous
 62
     7
100
AcDbLine
 10
19263.66093783768
 20
19909.7191102023
 30
0.0
 11
19263.66093783768
 21
19890.7191102023
 31
0.0
  0
LINE
  5
141
330
1F
100
AcDbEntity
  8
0
  6
Continuous
 62
     7
100
AcDbLine
 10
20459.66093783768
 20
19920.71911020223
 30
0.0
 11
20460.66093783768
 21
19919.71911020223
 31
0.0
  0
LINE
  5
142
330
1F
100
AcDbEntity
  8
0
  6
Continuous
 62
     7
100
AcDbLine
 10
20460.66093783768
 20
19919.71911020223
 30
0.0
 11
20460.66093783768
 21
19913.71911020223
 31
0.0
  0
LINE
  5
143
330
1F
100
AcDbEntity
  8
0
  6
Continuous
 62
     7
100
AcDbLine
 10
20430.66093783768
 20
19912.71911020223
 30
0.0
 11
19290.66093783768
 21
19912.7191102023
 31
0.0
  0
LINE
  5
144
330
1F
100
AcDbEntity
  8
0
  6
Continuous
 62
     7
100
AcDbLine
 10
19290.66093783768
 20
19912.7191102023
 30
0.0
 11
19261.66093783768
 21
19912.7191102023
 31
0.0
  0
LINE
  5
145
330
1F
100
AcDbEntity
  8
0
  6
Continuous
 62
     7
100
AcDbLine
 10
20430.66093783768
 20
19912.71911020223
 30
0.0
 11
20459.66093783768
 21
19912.71911020223
 31
0.0
  0
LINE
  5
146
330
1F
100
AcDbEntity
  8
0
  6
Continuous
 62
     7
100
AcDbLine
 10
19261.66093783768
 20
19912.7191102023
 30
0.0
 11
19260.66093783768
 21
19913.7191102023
 31
0.0
  0
LINE
  5
147
330
1F
100
AcDbEntity
  8
0
  6
Continuous
 62
     7
100
AcDbLine
 10
20459.66093783768
 20
19920.71911020223
 30
0.0
 11
19261.66093783768
 21
19920.7191102023
 31
0.0
  0
LINE
  5
148
330
1F
100
AcDbEntity
  8
0
  6
Continuous
 62
     7
100
AcDbLine
 10
19261.66093783768
 20
19920.7191102023
 30
0.0
 11
19260.66093783768
 21
19919.7191102023
 31
0.0
  0
LINE
  5
149
330
1F
100
AcDbEntity
  8
0
  6
Continuous
 62
     7
100
AcDbLine
 10
19260.66093783768
 20
19919.7191102023
 30
0.0
 11
19260.66093783768
 21
19913.7191102023
 31
0.0
  0
LINE
  5
14A
330
1F
100
AcDbEntity
  8
0
  6
Continuous
 62
     7
100
AcDbLine
 10
20459.66093783768
 20
19912.71911020223
 30
0.0
 11
20460.66093783768
 21
19913.71911020223
 31
0.0
  0
LINE
  5
14B
330
1F
100
AcDbEntity
  8
0
  6
Continuous
 62
     7
100
AcDbLine
 10
19260.66093783768
 20
19913.7191102023
 30
0.0
 11
20460.66093783768
 21
19913.71911020223
 31
0.0
  0
LINE
  5
14C
330
1F
100
AcDbEntity
  8
0
  6
Continuous
 62
     7
100
AcDbLine
 10
20460.66093783768
 20
19919.71911020223
 30
0.0
 11
19260.66093783768
 21
19919.7191102023
 31
0.0
  0
LINE
  5
14D
330
1F
100
AcDbEntity
  8
1
  6
Continuous
 62
     5
100
AcDbLine
 10
15673.59415430617
 20
19860.71911139972
 30
0.0
 11
15673.59415430617
 21
19890.71911134697
 31
0.0
  0
LINE
  5
14E
330
1F
100
AcDbEntity
  8
1
  6
Continuous
 62
     5
100
AcDbLine
 10
16233.95415430617
 20
19860.71911139972
 30
0.0
 11
15673.59415430617
 21
19860.71911139972
 31
0.0
  0
LINE
  5
14F
330
1F
100
AcDbEntity
  8
1
  6
Continuous
 62
     5
100
AcDbLine
 10
16233.95415430617
 20
19890.71911134697
 30
0.0
 11
16233.95415430617
 21
19860.71911139972
 31
0.0
  0
LINE
  5
150
330
1F
100
AcDbEntity
  8
1
  6
Continuous
 62
     5
100
AcDbLine
 10
15673.59415430617
 20
19890.71911134697
 30
0.0
 11
16233.95415430617
 21
19890.71911134697
 31
0.0
  0
LINE
  5
151
330
1F
100
AcDbEntity
  8
1
  6
Continuous
 62
     5
100
AcDbLine
 10
15673.59415430617
 20
19869.0176394587
 30
0.0
 11
15673.59415430617
 21
19890.71911134697
 31
0.0
  0
LINE
  5
152
330
1F
100
AcDbEntity
  8
1
  6
Continuous
 62
     5
100
AcDbLine
 10
16233.95415430617
 20
19890.71911134697
 30
0.0
 11
16233.95415430617
 21
19869.0176394587
 31
0.0
  0
LINE
  5
153
330
1F
100
AcDbEntity
  8
1
  6
Continuous
 62
     5
100
AcDbLine
 10
16191.95415430617
 20
19860.71911139972
 30
0.0
 11
16191.95415430617
 21
19825.71911139972
 31
0.0
  0
LINE
  5
154
330
1F
100
AcDbEntity
  8
1
  6
Continuous
 62
     5
100
AcDbLine
 10
15673.59415430617
 20
19890.71911134697
 30
0.0
 11
15703.59415430617
 21
19890.71911134697
 31
0.0
  0
LINE
  5
155
330
1F
100
AcDbEntity
  8
1
  6
Continuous
 62
     5
100
AcDbLine
 10
15703.59415430617
 20
19860.71911139972
 30
0.0
 11
15673.59415430617
 21
19860.71911139972
 31
0.0
  0
LINE
  5
156
330
1F
100
AcDbEntity
  8
1
  6
Continuous
 62
     5
100
AcDbLine
 10
15715.59415430617
 20
19860.71911139972
 30
0.0
 11
15715.59415430617
 21
19825.71911139972
 31
0.0
  0
LINE
  5
157
330
1F
100
AcDbEntity
  8
1
  6
Continuous
 62
     5
100
AcDbLine
 10
15715.59415430617
 20
19825.71911139972
 30
0.0
 11
15511.59415430617
 21
19825.71911139972
 31
0.0
  0
LINE
  5
158
330
1F
100
AcDbEntity
  8
1
  6
Continuous
 62
     5
100
AcDbLine
 10
15508.59415430617
 20
19822.71911139972
 30
0.0
 11
15508.59415430617
 21
19700.71910377032
 31
0.0
  0
LINE
  5
159
330
1F
100
AcDbEntity
  8
1
  6
Continuous
 62
     5
100
AcDbLine
 10
15508.59415430617
 20
19700.71910377032
 30
0.0
 11
15473.81558985305
 21
19700.71911902911
 31
0.0
  0
LINE
  5
15A
330
1F
100
AcDbEntity
  8
1
  6
Continuous
 62
     5
100
AcDbLine
 10
15473.81558985305
 20
19700.71911902911
 30
0.0
 11
15473.76741517875
 21
19857.71819085914
 31
0.0
  0
LINE
  5
15B
330
1F
100
AcDbEntity
  8
1
  6
Continuous
 62
     5
100
AcDbLine
 10
15476.76741503752
 20
19860.71911139972
 30
0.0
 11
15703.59415430617
 21
19860.71911139972
 31
0.0
  0
LINE
  5
15C
330
1F
100
AcDbEntity
  8
1
  6
Continuous
 62
     5
100
AcDbLine
 10
16203.95415430617
 20
19860.71911139972
 30
0.0
 11
16430.78089357481
 21
19860.71911139972
 31
0.0
  0
LINE
  5
15D
330
1F
100
AcDbEntity
  8
1
  6
Continuous
 62
     5
100
AcDbLine
 10
16433.78089343359
 20
19857.71819085914
 30
0.0
 11
16433.7327187593
 21
19700.71911902911
 31
0.0
  0
LINE
  5
15E
330
1F
100
AcDbEntity
  8
1
  6
Continuous
 62
     5
100
AcDbLine
 10
16433.7327187593
 20
19700.71911902911
 30
0.0
 11
16398.95415430617
 21
19700.71910377032
 31
0.0
  0
LINE
  5
15F
330
1F
100
AcDbEntity
  8
1
  6
Continuous
 62
     5
100
AcDbLine
 10
16398.95415430617
 20
19700.71910377032
 30
0.0
 11
16398.95415430617
 21
19822.71911139972
 31
0.0
  0
LINE
  5
160
330
1F
100
AcDbEntity
  8
1
  6
Continuous
 62
     5
100
AcDbLine
 10
16395.95415430617
 20
19825.71911139972
 30
0.0
 11
15715.59415430617
 21
19825.71911139972
 31
0.0
  0
LINE
  5
161
330
1F
100
AcDbEntity
  8
1
  6
Continuous
 62
     5
100
AcDbLine
 10
16233.95415430617
 20
19860.71911139972
 30
0.0
 11
16203.95415430617
 21
19860.71911139972
 31
0.0
  0
LINE
  5
162
330
1F
100
AcDbEntity
  8
1
  6
Continuous
 62
     5
100
AcDbLine
 10
16203.95415430617
 20
19890.71911134697
 30
0.0
 11
16233.95415430617
 21
19890.71911134697
 31
0.0
  0
LINE
  5
163
330
1F
100
AcDbEntity
  8
1
  6
Continuous
 62
     5
100
AcDbLine
 10
20230.71107185213
 20
19890.71911134697
 30
0.0
 11
20260.71107185213
 21
19890.71911134697
 31
0.0
  0
LINE
  5
164
330
1F
100
AcDbEntity
  8
1
  6
Continuous
 62
     5
100
AcDbLine
 10
20260.71107185213
 20
19860.71911139972
 30
0.0
 11
20230.71107185213
 21
19860.71911139972
 31
0.0
  0
LINE
  5
165
330
1F
100
AcDbEntity
  8
1
  6
Continuous
 62
     5
100
AcDbLine
 10
20422.71107185213
 20
19825.71911139972
 30
0.0
 11
19502.47601038417
 21
19825.71911139972
 31
0.0
  0
LINE
  5
166
330
1F
100
AcDbEntity
  8
1
  6
Continuous
 62
     5
100
AcDbLine
 10
20425.71107185213
 20
19700.71910377032
 30
0.0
 11
20425.71107185213
 21
19822.71911139972
 31
0.0
  0
LINE
  5
167
330
1F
100
AcDbEntity
  8
1
  6
Continuous
 62
     5
100
AcDbLine
 10
20460.48963630527
 20
19700.71911902911
 30
0.0
 11
20425.71107185213
 21
19700.71910377032
 31
0.0
  0
LINE
  5
168
330
1F
100
AcDbEntity
  8
1
  6
Continuous
 62
     5
100
AcDbLine
 10
20460.53781097955
 20
19857.71819085914
 30
0.0
 11
20460.48963630527
 21
19700.71911902911
 31
0.0
  0
LINE
  5
169
330
1F
100
AcDbEntity
  8
1
  6
Continuous
 62
     5
100
AcDbLine
 10
20230.71107185213
 20
19860.71911139972
 30
0.0
 11
20457.53781112078
 21
19860.71911139972
 31
0.0
  0
LINE
  5
16A
330
1F
100
AcDbEntity
  8
1
  6
Continuous
 62
     5
100
AcDbLine
 10
19263.64927111552
 20
19860.71911139972
 30
0.0
 11
19490.47601038417
 21
19860.71911139972
 31
0.0
  0
LINE
  5
16B
330
1F
100
AcDbEntity
  8
1
  6
Continuous
 62
     5
100
AcDbLine
 10
19260.69744593105
 20
19700.71911902911
 30
0.0
 11
19260.64927125675
 21
19857.71819085914
 31
0.0
  0
LINE
  5
16C
330
1F
100
AcDbEntity
  8
1
  6
Continuous
 62
     5
100
AcDbLine
 10
19295.47601038417
 20
19700.71910377032
 30
0.0
 11
19260.69744593105
 21
19700.71911902911
 31
0.0
  0
LINE
  5
16D
330
1F
100
AcDbEntity
  8
1
  6
Continuous
 62
     5
100
AcDbLine
 10
19295.47601038417
 20
19822.71911139972
 30
0.0
 11
19295.47601038417
 21
19700.71910377032
 31
0.0
  0
LINE
  5
16E
330
1F
100
AcDbEntity
  8
1
  6
Continuous
 62
     5
100
AcDbLine
 10
19502.47601038417
 20
19825.71911139972
 30
0.0
 11
19298.47601038417
 21
19825.71911139972
 31
0.0
  0
LINE
  5
16F
330
1F
100
AcDbEntity
  8
1
  6
Continuous
 62
     5
100
AcDbLine
 10
19502.47601038417
 20
19860.71911139972
 30
0.0
 11
19502.47601038417
 21
19825.71911139972
 31
0.0
  0
LINE
  5
170
330
1F
100
AcDbEntity
  8
1
  6
Continuous
 62
     5
100
AcDbLine
 10
19490.47601038417
 20
19860.71911139972
 30
0.0
 11
19460.47601038417
 21
19860.71911139972
 31
0.0
  0
LINE
  5
171
330
1F
100
AcDbEntity
  8
1
  6
Continuous
 62
     5
100
AcDbLine
 10
19460.47601038417
 20
19890.71911134697
 30
0.0
 11
19490.47601038417
 21
19890.71911134697
 31
0.0
  0
LINE
  5
172
330
1F
100
AcDbEntity
  8
1
  6
Continuous
 62
     5
100
AcDbLine
 10
20218.71107185213
 20
19860.71911139972
 30
0.0
 11
20218.71107185213
 21
19825.71911139972
 31
0.0
  0
LINE
  5
173
330
1F
100
AcDbEntity
  8
1
  6
Continuous
 62
     5
100
AcDbLine
 10
20260.71107185213
 20
19890.71911134697
 30
0.0
 11
20260.71107185213
 21
19869.0176394587
 31
0.0
  0
LINE
  5
174
330
1F
100
AcDbEntity
  8
1
  6
Continuous
 62
     5
100
AcDbLine
 10
19460.47601038417
 20
19869.0176394587
 30
0.0
 11
19460.47601038417
 21
19890.71911134697
 31
0.0
  0
LINE
  5
175
330
1F
100
AcDbEntity
  8
1
  6
Continuous
 62
     5
100
AcDbLine
 10
19460.47601038417
 20
19890.71911134697
 30
0.0
 11
20260.71107185213
 21
19890.71911134697
 31
0.0
  0
LINE
  5
176
330
1F
100
AcDbEntity
  8
1
  6
Continuous
 62
     5
100
AcDbLine
 10
20260.71107185213
 20
19890.71911134697
 30
0.0
 11
20260.71107185213
 21
19860.71911139972
 31
0.0
  0
LINE
  5
177
330
1F
100
AcDbEntity
  8
1
  6
Continuous
 62
     5
100
AcDbLine
 10
20260.71107185213
 20
19860.71911139972
 30
0.0
 11
19460.47601038417
 21
19860.71911139972
 31
0.0
  0
LINE
  5
178
330
1F
100
AcDbEntity
  8
1
  6
Continuous
 62
     5
100
AcDbLine
 10
19460.47601038417
 20
19860.71911139972
 30
0.0
 11
19460.47601038417
 21
19890.71911134697
 31
0.0
  0
LINE
  5
179
330
1F
100
AcDbEntity
  8
1
  6
Continuous
 62
     7
100
AcDbLine
 10
26103.80563360855
 20
17416.4879789668
 30
0.0
 11
6398.80563360855
 21
17416.4879789668
 31
0.0
  0
LINE
  5
17A
330
1F
100
AcDbEntity
  8
1
  6
Continuous
 62
     7
100
AcDbLine
 10
6398.80563360855
 20
20670.4879789668
 30
0.0
 11
26103.80563360855
 21
20670.4879789668
 31
0.0
  0
ARC
  5
17B
330
1F
100
AcDbEntity
  8
1
  6
Continuous
 62
     5
100
AcDbCircle
 10
9121.38591440309
 20
19811.17823029153
 30
0.0
 40
49.46765437327028
100
AcDbArc
 50
72.12242933710481
 51
107.4019369825435
  0
ARC
  5
17C
330
1F
100
AcDbEntity
  8
1
  6
Continuous
 62
     5
100
AcDbCircle
 10
9651.757478901902
 20
19811.17823029153
 30
0.0
 40
49.46765437327171
100
AcDbArc
 50
72.59806301745651
 51
107.8775706629112
  0
ARC
  5
17D
330
1F
100
AcDbEntity
  8
1
  6
Continuous
 62
     5
100
AcDbCircle
 10
13216.7012489948
 20
19811.17823029153
 30
0.0
 40
49.46765437327226
100
AcDbArc
 50
72.59806301745451
 51
107.8775706629173
  0
ARC
  5
17E
330
1F
100
AcDbEntity
  8
1
  6
Continuous
 62
     5
100
AcDbCircle
 10
12686.32968449598
 20
19811.17823029153
 30
0.0
 40
49.46765437327083
100
AcDbArc
 50
72.1224293371028
 51
107.4019369825334
  0
ARC
  5
17F
330
1F
100
AcDbEntity
  8
1
  6
Continuous
 62
     5
100
AcDbCircle
 10
17772.66251689182
 20
19811.17823029153
 30
0.0
 40
49.46765437327171
100
AcDbArc
 50
72.59806301745651
 51
107.8775706628992
  0
ARC
  5
180
330
1F
100
AcDbEntity
  8
1
  6
Continuous
 62
     5
100
AcDbCircle
 10
16942.29095239301
 20
19811.17823029153
 30
0.0
 40
49.46765437327363
100
AcDbArc
 50
72.12242933709277
 51
107.4019369825435
  0
ARC
  5
181
330
1F
100
AcDbEntity
  8
1
  6
Continuous
 62
     5
100
AcDbCircle
 10
20965.53605883215
 20
19811.17823029153
 30
0.0
 40
49.46765437327139
100
AcDbArc
 50
72.1224293371008
 51
107.4019369825435
  0
ARC
  5
182
330
1F
100
AcDbEntity
  8
1
  6
Continuous
 62
     5
100
AcDbCircle
 10
21795.90762333096
 20
19811.17823029153
 30
0.0
 40
49.46765437327171
100
AcDbArc
 50
72.59806301745651
 51
107.8775706629072
  0
ARC
  5
183
330
1F
100
AcDbEntity
  8
1
  6
Continuous
 62
     5
100
AcDbCircle
 10
8071.804217518082
 20
19857.71911025501
 30
0.0
 40
3.0
100
AcDbArc
 50
90.0
 51
-179.9824189698899
  0
ARC
  5
184
330
1F
100
AcDbEntity
  8
1
  6
Continuous
 62
     5
100
AcDbCircle
 10
8106.630956786728
 20
19822.71911025501
 30
0.0
 40
3.0
100
AcDbArc
 50
90.0
 51
180.0
  0
ARC
  5
185
330
1F
100
AcDbEntity
  8
1
  6
Continuous
 62
     5
100
AcDbCircle
 10
8549.457696055379
 20
19857.71911025501
 30
0.0
 40
3.000000000002518
100
AcDbArc
 50
-0.0175810301101
 51
90.0
  0
ARC
  5
186
330
1F
100
AcDbEntity
  8
1
  6
Continuous
 62
     5
100
AcDbCircle
 10
8514.630956786728
 20
19822.71911025501
 30
0.0
 40
3.0
100
AcDbArc
 50
0.0
 51
90.0
  0
ARC
  5
187
330
1F
100
AcDbEntity
  8
1
  6
Continuous
 62
     5
100
AcDbCircle
 10
11160.38798761098
 20
19857.71911025501
 30
0.0
 40
3.0
100
AcDbArc
 50
90.0
 51
-179.9824189698899
  0
ARC
  5
188
330
1F
100
AcDbEntity
  8
1
  6
Continuous
 62
     5
100
AcDbCircle
 10
11195.21472687963
 20
19822.71911025501
 30
0.0
 40
3.0
100
AcDbArc
 50
90.0
 51
180.0
  0
ARC
  5
189
330
1F
100
AcDbEntity
  8
1
  6
Continuous
 62
     5
100
AcDbCircle
 10
12079.57472687963
 20
19822.71911025501
 30
0.0
 40
3.0
100
AcDbArc
 50
0.0
 51
90.0
  0
ARC
  5
18A
330
1F
100
AcDbEntity
  8
1
  6
Continuous
 62
     5
100
AcDbCircle
 10
12114.40146614827
 20
19857.71911025501
 30
0.0
 40
3.000000000011613
100
AcDbArc
 50
-0.01758103011005
 51
90.0
  0
ARC
  5
18B
330
1F
100
AcDbEntity
  8
1
  6
Continuous
 62
     5
100
AcDbCircle
 10
16430.78089357481
 20
19857.71911139972
 30
0.0
 40
3.000000000013435
100
AcDbArc
 50
-0.01758103031848
 51
90.0
  0
ARC
  5
18C
330
1F
100
AcDbEntity
  8
1
  6
Continuous
 62
     5
100
AcDbCircle
 10
16395.95415430617
 20
19822.71911139972
 30
0.0
 40
3.0
100
AcDbArc
 50
0.0
 51
90.0
  0
ARC
  5
18D
330
1F
100
AcDbEntity
  8
1
  6
Continuous
 62
     5
100
AcDbCircle
 10
15511.59415430617
 20
19822.71911139972
 30
0.0
 40
3.0
100
AcDbArc
 50
90.0
 51
180.0
  0
ARC
  5
18E
330
1F
100
AcDbEntity
  8
1
  6
Continuous
 62
     5
100
AcDbCircle
 10
15476.76741503752
 20
19857.71911139972
 30
0.0
 40
3.0
100
AcDbArc
 50
90.0
 51
-179.9824189696815
  0
ARC
  5
18F
330
1F
100
AcDbEntity
  8
1
  6
Continuous
 62
     5
100
AcDbCircle
 10
19263.64927111552
 20
19857.71911139972
 30
0.0
 40
3.0
100
AcDbArc
 50
90.0
 51
-179.9824189696815
  0
ARC
  5
190
330
1F
100
AcDbEntity
  8
1
  6
Continuous
 62
     5
100
AcDbCircle
 10
19298.47601038417
 20
19822.71911139972
 30
0.0
 40
3.0
100
AcDbArc
 50
90.0
 51
180.0
  0
ARC
  5
191
330
1F
100
AcDbEntity
  8
1
  6
Continuous
 62
     5
100
AcDbCircle
 10
20422.71107185213
 20
19822.71911139972
 30
0.0
 40
3.0
100
AcDbArc
 50
0.0
 51
90.0
  0
ARC
  5
192
330
1F
100
AcDbEntity
  8
1
  6
Continuous
 62
     5
100
AcDbCircle
 10
20457.53781112078
 20
19857.71911139972
 30
0.0
 40
3.000000000002521
100
AcDbArc
 50
-0.01758103031854
 51
90.0
  0
MTEXT
  5
194
330
1F
100
AcDbEntity
  8
1
 62
     1
100
AcDbMText
 10
12467.83099145149
 20
18425.56731079054
 30
0.0
 40
50.0
 41
0.0
 71
     4
 72
     1
  1
tafel 96x96\Pt396v096bl/wh
  7
CONVERTER_1
 73
     1
 44
1.32052821128451
  0
MTEXT
  5
195
330
1F
100
AcDbEntity
  8
1
 62
     1
100
AcDbMText
 10
16787.95715641879
 20
18409.00100524167
 30
0.0
 40
50.0
 41
0.0
 71
     4
 72
     1
  1
tafel  120x96\Pt396r120bl/wh
  7
CONVERTER_1
 73
     1
 44
1.32052821128451
  0
MTEXT
  5
196
330
1F
100
AcDbEntity
  8
1
 62
     1
100
AcDbMText
 10
20771.71312862204
 20
18145.57050199242
 30
0.0
 40
50.0
 41
0.0
 71
     4
 72
     1
  1
tafel 120x120\Pt396v120bl/wh
  7
CONVERTER_1
 73
     1
 44
1.32052821128451
  0
MTEXT
  5
197
330
1F
100
AcDbEntity
  8
1
 62
     1
100
AcDbMText
 10
8897.082616428535
 20
18905.46355219119
 30
0.0
 40
50.0
 41
0.0
 71
     4
 72
     1
  1
tafel 48x96\Pt396r096bl/wh
  7
CONVERTER_1
 73
     1
 44
1.32052821128451
  0
MTEXT
  5
198
330
1F
100
AcDbEntity
  8
1
 62
     1
100
AcDbMText
 10
23933.91091850014
 20
19899.46228382909
 30
0.0
 40
200.0
 41
0.0
 71
     4
 72
     1
  1
JR t396\P20/08/2009
  7
CONVERTER_1
 73
     1
 44
1.32052821128451
  0
MTEXT
  5
199
330
1F
100
AcDbEntity
  8
1
 62
     2
100
AcDbMText
 10
22706.11725802785
 20
18936.8852719896
 30
0.0
 40
100.0
 41
0.0
 71
     4
 72
     1
  1
Please note that these drawings \Pserve only as indication and can \Pdiffer slightly from JORI's in reality.
  7
CONVERTER_1
 73
     1
 44
1.32052821128451
  0
ENDSEC
  0
SECTION
  2
OBJECTS
  0
DICTIONARY
  5
C
330
0
100
AcDbDictionary
281
     1
  3
ACAD_GROUP
350
D
  3
ACAD_LAYOUT
350
1A
  3
ACAD_MLINESTYLE
350
17
  3
ACAD_PLOTSETTINGS
350
19
  3
ACAD_PLOTSTYLENAME
350
E
  3
ACAD_TABLESTYLE
350
2A
  3
AcDbVariableDictionary
350
2C
  0
DICTIONARY
  5
D
102
{ACAD_REACTORS
330
C
102
}
330
C
100
AcDbDictionary
281
     1
  0
DICTIONARY
  5
1A
102
{ACAD_REACTORS
330
C
102
}
330
C
100
AcDbDictionary
281
     1
  3
Layout1
350
1E
  3
Layout2
350
26
  3
Model
350
22
  0
DICTIONARY
  5
17
102
{ACAD_REACTORS
330
C
102
}
330
C
100
AcDbDictionary
281
     1
  3
Standard
350
18
  0
DICTIONARY
  5
19
102
{ACAD_REACTORS
330
C
102
}
330
C
100
AcDbDictionary
281
     1
  0
ACDBDICTIONARYWDFLT
  5
E
102
{ACAD_REACTORS
330
C
102
}
330
C
100
AcDbDictionary
281
     1
  3
Normal
350
F
100
AcDbDictionaryWithDefault
340
F
  0
DICTIONARY
  5
2A
102
{ACAD_REACTORS
330
C
102
}
330
C
100
AcDbDictionary
281
     1
  3
Standard
350
2B
  0
DICTIONARY
  5
2C
102
{ACAD_REACTORS
330
C
102
}
330
C
100
AcDbDictionary
281
     1
  3
CTABLESTYLE
350
2D
  0
LAYOUT
  5
1E
102
{ACAD_REACTORS
330
1A
102
}
330
1A
100
AcDbPlotSettings
  1

  2

  4

  6

 40
0.0
 41
0.0
 42
0.0
 43
0.0
 44
0.0
 45
0.0
 46
0.0
 47
0.0
 48
0.0
 49
0.0
140
0.0
141
0.0
142
1.0
143
1.0
 70
   688
 72
     0
 73
     0
 74
     5
  7

 75
    16
147
1.0
148
0.0
149
0.0
100
AcDbLayout
  1
Layout1
 70
     1
 71
     1
 10
0.0
 20
0.0
 11
12.0
 21
9.0
 12
0.0
 22
0.0
 32
0.0
 14
1.00000000000000E+20
 24
1.00000000000000E+20
 34
1.00000000000000E+20
 15
-1.00000000000000E+20
 25
-1.00000000000000E+20
 35
-1.00000000000000E+20
146
0.0
 13
0.0
 23
0.0
 33
0.0
 16
1.0
 26
0.0
 36
0.0
 17
0.0
 27
1.0
 37
0.0
 76
     0
330
1B
  0
LAYOUT
  5
26
102
{ACAD_REACTORS
330
1A
102
}
330
1A
100
AcDbPlotSettings
  1

  2

  4

  6

 40
0.0
 41
0.0
 42
0.0
 43
0.0
 44
0.0
 45
0.0
 46
0.0
 47
0.0
 48
0.0
 49
0.0
140
0.0
141
0.0
142
1.0
143
1.0
 70
   688
 72
     0
 73
     0
 74
     5
  7

 75
    16
147
1.0
148
0.0
149
0.0
100
AcDbLayout
  1
Layout2
 70
     1
 71
     2
 10
0.0
 20
0.0
 11
0.0
 21
0.0
 12
0.0
 22
0.0
 32
0.0
 14
0.0
 24
0.0
 34
0.0
 15
0.0
 25
0.0
 35
0.0
146
0.0
 13
0.0
 23
0.0
 33
0.0
 16
1.0
 26
0.0
 36
0.0
 17
0.0
 27
1.0
 37
0.0
 76
     0
330
23
  0
LAYOUT
  5
22
102
{ACAD_REACTORS
330
1A
102
}
330
1A
100
AcDbPlotSettings
  1

  2

  4

  6

 40
0.0
 41
0.0
 42
0.0
 43
0.0
 44
0.0
 45
0.0
 46
0.0
 47
0.0
 48
0.0
 49
0.0
140
0.0
141
0.0
142
1.0
143
1.0
 70
  1712
 72
     0
 73
     0
 74
     0
  7

 75
     0
147
1.0
148
0.0
149
0.0
100
AcDbLayout
  1
Model
 70
     1
 71
     0
 10
0.0
 20
0.0
 11
0.0
 21
0.0
 12
0.0
 22
0.0
 32
0.0
 14
6398.80563360855
 24
17416.4879789668
 34
0.0
 15
26103.80563360855
 25
20670.4879789668
 35
0.0
146
0.0
 13
0.0
 23
0.0
 33
0.0
 16
1.0
 26
0.0
 36
0.0
 17
0.0
 27
1.0
 37
0.0
 76
     0
330
1F
  0
MLINESTYLE
  5
18
102
{ACAD_REACTORS
330
17
102
}
330
17
100
AcDbMlineStyle
  2
Standard
 70
     0
  3

 62
   256
 51
90.0
 52
90.0
 71
     2
 49
0.5
 62
   256
  6
BYLAYER
 49
-0.5
 62
   256
  6
BYLAYER
  0
ACDBPLACEHOLDER
  5
F
102
{ACAD_REACTORS
330
E
102
}
330
E
  0
TABLESTYLE
  5
2B
102
{ACAD_REACTORS
330
2A
102
}
330
2A
100
AcDbTableStyle
  3
Standard
 70
     0
 71
     0
 40
0.06
 41
0.06
280
     0
281
     0
  7
Standard
140
0.18
170
     2
 62
     0
 63
     7
283
     0
274
    -2
284
     1
 64
     0
275
    -2
285
     1
 65
     0
276
    -2
286
     1
 66
     0
277
    -2
287
     1
 67
     0
278
    -2
288
     1
 68
     0
279
    -2
289
     1
 69
     0
  7
Standard
140
0.25
170
     5
 62
     0
 63
     7
283
     0
274
    -2
284
     1
 64
     0
275
    -2
285
     1
 65
     0
276
    -2
286
     1
 66
     0
277
    -2
287
     1
 67
     0
278
    -2
288
     1
 68
     0
279
    -2
289
     1
 69
     0
  7
Standard
140
0.18
170
     5
 62
     0
 63
     7
283
     0
274
    -2
284
     1
 64
     0
275
    -2
285
     1
 65
     0
276
    -2
286
     1
 66
     0
277
    -2
287
     1
 67
     0
278
    -2
288
     1
 68
     0
279
    -2
289
     1
 69
     0
  0
DICTIONARYVAR
  5
2D
102
{ACAD_REACTORS
330
2C
102
}
330
2C
100
DictionaryVariables
280
     0
  1
Standard
  0
ENDSEC
  0
EOF
