  0
SECTION
  2
HEADER
  9
$ACADVER
  1
AC1009
  9
$DWGCODEPAGE
  3
ansi_1252
  9
$INSBASE
 10
0.0
 20
0.0
 30
0.0
  9
$EXTMIN
 10
255.1011844134609
 20
3061.86675674569
 30
0.0
  9
$EXTMAX
 10
2816.558595543707
 20
4969.03523720559
 30
0.0
  9
$LIMMIN
 10
0.0
 20
0.0
  9
$LIMMAX
 10
12.0
 20
9.0
  9
$ORTHOMODE
 70
     0
  9
$REGENMODE
 70
     1
  9
$FILLMODE
 70
     1
  9
$QTEXTMODE
 70
     0
  9
$MIRRTEXT
 70
     1
  9
$DRAGMODE
 70
     2
  9
$LTSCALE
 40
1.0
  9
$OSMODE
 70
    37
  9
$ATTMODE
 70
     1
  9
$TEXTSIZE
 40
0.2
  9
$TRACEWID
 40
0.05
  9
$TEXTSTYLE
  7
STANDARD
  9
$CLAYER
  8
0
  9
$CELTYPE
  6
BYLAYER
  9
$CECOLOR
 62
   256
  9
$DIMSCALE
 40
1.0
  9
$DIMASZ
 40
0.18
  9
$DIMEXO
 40
0.0625
  9
$DIMDLI
 40
0.38
  9
$DIMRND
 40
0.0
  9
$DIMDLE
 40
0.0
  9
$DIMEXE
 40
0.18
  9
$DIMTP
 40
0.0
  9
$DIMTM
 40
0.0
  9
$DIMTXT
 40
0.18
  9
$DIMCEN
 40
0.09
  9
$DIMTSZ
 40
0.0
  9
$DIMTOL
 70
     0
  9
$DIMLIM
 70
     0
  9
$DIMTIH
 70
     1
  9
$DIMTOH
 70
     1
  9
$DIMSE1
 70
     0
  9
$DIMSE2
 70
     0
  9
$DIMTAD
 70
     0
  9
$DIMZIN
 70
     0
  9
$DIMBLK
  1

  9
$DIMASO
 70
     1
  9
$DIMSHO
 70
     1
  9
$DIMPOST
  1

  9
$DIMAPOST
  1

  9
$DIMALT
 70
     0
  9
$DIMALTD
 70
     2
  9
$DIMALTF
 40
25.4
  9
$DIMLFAC
 40
1.0
  9
$DIMTOFL
 70
     0
  9
$DIMTVP
 40
0.0
  9
$DIMTIX
 70
     0
  9
$DIMSOXD
 70
     0
  9
$DIMSAH
 70
     0
  9
$DIMBLK1
  1

  9
$DIMBLK2
  1

  9
$DIMSTYLE
  2
STANDARD
  9
$DIMCLRD
 70
     0
  9
$DIMCLRE
 70
     0
  9
$DIMCLRT
 70
     0
  9
$DIMTFAC
 40
1.0
  9
$DIMGAP
 40
0.09
  9
$LUNITS
 70
     2
  9
$LUPREC
 70
     4
  9
$SKETCHINC
 40
0.1
  9
$FILLETRAD
 40
0.5
  9
$AUNITS
 70
     0
  9
$AUPREC
 70
     0
  9
$MENU
  1
.
  9
$ELEVATION
 40
0.0
  9
$PELEVATION
 40
0.0
  9
$THICKNESS
 40
0.0
  9
$LIMCHECK
 70
     0
  9
$CHAMFERA
 40
0.5
  9
$CHAMFERB
 40
0.5
  9
$SKPOLY
 70
     0
  9
$TDCREATE
 40
2456168.707148125
  9
$TDUPDATE
 40
2456168.707148137
  9
$TDINDWG
 40
0.0000000116
  9
$TDUSRTIMER
 40
0.0000000116
  9
$USRTIMER
 70
     1
  9
$ANGBASE
 50
0.0
  9
$ANGDIR
 70
     0
  9
$PDMODE
 70
     0
  9
$PDSIZE
 40
0.0
  9
$PLINEWID
 40
0.0
  9
$COORDS
 70
     1
  9
$SPLFRAME
 70
     0
  9
$SPLINETYPE
 70
     6
  9
$SPLINESEGS
 70
     8
  9
$ATTDIA
 70
     0
  9
$ATTREQ
 70
     1
  9
$HANDLING
 70
     1
  9
$HANDSEED
  5
228
  9
$SURFTAB1
 70
     6
  9
$SURFTAB2
 70
     6
  9
$SURFTYPE
 70
     6
  9
$SURFU
 70
     6
  9
$SURFV
 70
     6
  9
$UCSNAME
  2

  9
$UCSORG
 10
0.0
 20
0.0
 30
0.0
  9
$UCSXDIR
 10
1.0
 20
0.0
 30
0.0
  9
$UCSYDIR
 10
0.0
 20
1.0
 30
0.0
  9
$PUCSNAME
  2

  9
$PUCSORG
 10
0.0
 20
0.0
 30
0.0
  9
$PUCSXDIR
 10
1.0
 20
0.0
 30
0.0
  9
$PUCSYDIR
 10
0.0
 20
1.0
 30
0.0
  9
$USERI1
 70
     0
  9
$USERI2
 70
     0
  9
$USERI3
 70
     0
  9
$USERI4
 70
     0
  9
$USERI5
 70
     0
  9
$USERR1
 40
17.0
  9
$USERR2
 40
0.0
  9
$USERR3
 40
0.0
  9
$USERR4
 40
0.0
  9
$USERR5
 40
0.0
  9
$WORLDVIEW
 70
     1
  9
$SHADEDGE
 70
     3
  9
$SHADEDIF
 70
    70
  9
$TILEMODE
 70
     1
  9
$MAXACTVP
 70
    64
  9
$PLIMCHECK
 70
     0
  9
$PEXTMIN
 10
1.00000000000000E+20
 20
1.00000000000000E+20
 30
1.00000000000000E+20
  9
$PEXTMAX
 10
-1.00000000000000E+20
 20
-1.00000000000000E+20
 30
-1.00000000000000E+20
  9
$PLIMMIN
 10
0.0
 20
0.0
  9
$PLIMMAX
 10
12.0
 20
9.0
  9
$UNITMODE
 70
     0
  9
$VISRETAIN
 70
     1
  9
$PLINEGEN
 70
     0
  9
$PSLTSCALE
 70
     1
  0
ENDSEC
  0
SECTION
  2
TABLES
  0
TABLE
  2
VPORT
 70
     1
  0
VPORT
  2
*ACTIVE
 70
     0
 10
0.0
 20
0.0
 11
1.0
 21
1.0
 12
1535.829889978584
 22
4015.45099697564
 13
0.0
 23
0.0
 14
0.5
 24
0.5
 15
0.5
 25
0.5
 16
0.0
 26
0.0
 36
1.0
 17
0.0
 27
0.0
 37
0.0
 40
2097.88532850589
 41
1.60267857142857
 42
50.0
 43
0.0
 44
0.0
 50
0.0
 51
0.0
 71
     0
 72
   100
 73
     1
 74
     3
 75
     0
 76
     0
 77
     0
 78
     0
  0
ENDTAB
  0
TABLE
  2
LTYPE
 70
     8
  0
LTYPE
  2
CONTINUOUS
 70
     0
  3
Solid line
 72
    65
 73
     0
 40
0.0
  0
LTYPE
  2
DASHED
 70
     0
  3
Dashed
 72
    65
 73
     2
 40
15.0
 49
7.0
 49
-8.0
  0
LTYPE
  2
DOTTED
 70
     0
  3
Dotted
 72
    65
 73
     2
 40
1.0
 49
0.0
 49
-1.0
  0
LTYPE
  2
DOT_CENTER
 70
     0
  3
Dot_Center
 72
    65
 73
     4
 40
14.0
 49
12.0
 49
-1.0
 49
0.0
 49
-1.0
  0
LTYPE
  2
LONG_DASHED
 70
     0
  3
Long_Dashed
 72
    65
 73
     2
 40
15.0
 49
10.0
 49
-5.0
  0
LTYPE
  2
DASH_CENTER
 70
     0
  3
Dash_Center
 72
    65
 73
     4
 40
14.0
 49
11.0
 49
-1.0
 49
1.0
 49
-1.0
  0
LTYPE
  2
PHANTOM
 70
     0
  3
Phantom
 72
    65
 73
     6
 40
13.0
 49
10.0
 49
-1.0
 49
0.0
 49
-1.0
 49
0.0
 49
-1.0
  0
LTYPE
  2
CENTER_DASH_DASH
 70
     0
  3
Center_Dash_Dash
 72
    65
 73
     6
 40
14.0
 49
9.0
 49
-1.0
 49
1.0
 49
-1.0
 49
1.0
 49
-1.0
  0
ENDTAB
  0
TABLE
  2
LAYER
 70
     2
  0
LAYER
  2
0
 70
     0
 62
     7
  6
CONTINUOUS
  0
LAYER
  2
1
 70
     0
 62
     7
  6
CONTINUOUS
  0
ENDTAB
  0
TABLE
  2
STYLE
 70
     1
  0
STYLE
  2
STANDARD
 70
     0
 40
0.0
 41
1.0
 50
0.0
 71
     0
 42
0.2
  3
txt
  4

  0
ENDTAB
  0
TABLE
  2
VIEW
 70
     0
  0
ENDTAB
  0
TABLE
  2
UCS
 70
     0
  0
ENDTAB
  0
TABLE
  2
APPID
 70
     1
  0
APPID
  2
ACAD
 70
     0
  0
ENDTAB
  0
TABLE
  2
DIMSTYLE
 70
     1
  0
DIMSTYLE
  2
STANDARD
 70
     0
  3

  4

  5

  6

  7

 40
1.0
 41
0.18
 42
0.0625
 43
0.38
 44
0.18
 45
0.0
 46
0.0
 47
0.0
 48
0.0
140
0.18
141
0.09
142
0.0
143
25.4
144
1.0
145
0.0
146
1.0
147
0.09
 71
     0
 72
     0
 73
     1
 74
     1
 75
     0
 76
     0
 77
     0
 78
     0
170
     0
171
     2
172
     0
173
     0
174
     0
175
     0
176
     0
177
     0
178
     0
  0
ENDTAB
  0
ENDSEC
  0
SECTION
  2
BLOCKS
  0
BLOCK
  8
0
  2
$MODEL_SPACE
 70
     0
 10
0.0
 20
0.0
 30
0.0
  3
$MODEL_SPACE
  1

  0
ENDBLK
  5
21
  8
0
  0
BLOCK
 67
     1
  8
0
  2
$PAPER_SPACE
 70
     0
 10
0.0
 20
0.0
 30
0.0
  3
$PAPER_SPACE
  1

  0
ENDBLK
  5
1D
 67
     1
  8
0
  0
ENDSEC
  0
SECTION
  2
ENTITIES
  0
LINE
  5
81
  8
1
  6
CONTINUOUS
 62
     7
 10
895.0442998221979
 20
4656.772287132065
 30
0.0
 11
895.0442998221979
 21
4525.071197042326
 31
0.0
  0
LINE
  5
82
  8
1
  6
CONTINUOUS
 62
     7
 10
575.0442998221978
 20
4604.03523720549
 30
0.0
 11
851.73441340864
 21
4604.03523720549
 31
0.0
  0
LINE
  5
83
  8
1
  6
CONTINUOUS
 62
     7
 10
575.0442998221978
 20
4525.071197042327
 30
0.0
 11
873.4691965014149
 21
4525.071197042327
 31
0.0
  0
LINE
  5
84
  8
1
  6
CONTINUOUS
 62
     1
 10
652.9776850628282
 20
4604.03523720549
 30
0.0
 11
661.7043141750577
 21
4963.645899918623
 31
0.0
  0
LINE
  5
85
  8
1
  6
CONTINUOUS
 62
     1
 10
820.5004035230255
 20
4604.03523720549
 30
0.0
 11
837.6266800320218
 21
4872.3469025131
 31
0.0
  0
LINE
  5
86
  8
1
  6
CONTINUOUS
 62
     1
 10
758.270193404713
 20
4604.03523720549
 30
0.0
 11
768.6183961470588
 21
4923.88877651436
 31
0.0
  0
LINE
  5
87
  8
1
  6
CONTINUOUS
 62
     7
 10
587.5342959021059
 20
4480.287916963745
 30
0.0
 11
587.5342959021059
 21
4231.03523720549
 31
0.0
  0
LINE
  5
88
  8
1
  6
CONTINUOUS
 62
     5
 10
890.0342959021059
 20
4524.105491656758
 30
0.0
 11
890.0342959021059
 21
4231.03523720549
 31
0.0
  0
LINE
  5
89
  8
1
  6
CONTINUOUS
 62
     5
 10
865.0442999053089
 20
4525.071197042327
 30
0.0
 11
865.0442999053089
 21
4231.03523720549
 31
0.0
  0
LINE
  5
8A
  8
1
  6
CONTINUOUS
 62
     1
 10
763.444294775886
 20
4763.962006859925
 30
0.0
 11
657.340999618943
 21
4783.840568562056
 31
0.0
  0
LINE
  5
8B
  8
1
  6
CONTINUOUS
 62
     1
 10
844.8257821565725
 20
4732.000695504845
 30
0.0
 11
829.0635417775237
 21
4738.191069859295
 31
0.0
  0
LINE
  5
8C
  8
1
  6
CONTINUOUS
 62
     1
 10
321.0819424581351
 20
4738.191069859295
 30
0.0
 11
305.3197020790864
 21
4732.000695504845
 31
0.0
  0
LINE
  5
8D
  8
1
  6
CONTINUOUS
 62
     1
 10
492.8044846167159
 20
4783.840568562056
 30
0.0
 11
386.7011894597729
 21
4763.962006859925
 31
0.0
  0
LINE
  5
8E
  8
1
  6
CONTINUOUS
 62
     1
 10
2570.462989486697
 20
3678.208540652941
 30
0.0
 11
2678.73702541747
 21
3678.208540652941
 31
0.0
  0
LINE
  5
8F
  8
1
  6
CONTINUOUS
 62
     1
 10
2353.198995984069
 20
3628.521705198946
 30
0.0
 11
2464.284592796905
 21
3661.907218310916
 31
0.0
  0
LINE
  5
90
  8
1
  6
CONTINUOUS
 62
     1
 10
2218.983898533616
 20
3444.142661185727
 30
0.0
 11
2265.213450444031
 21
3546.723058136004
 31
0.0
  0
LINE
  5
91
  8
1
  6
CONTINUOUS
 62
     1
 10
2265.213450444031
 20
3217.010455355397
 30
0.0
 11
2218.983898533616
 21
3319.590852305674
 31
0.0
  0
LINE
  5
92
  8
1
  6
CONTINUOUS
 62
     1
 10
2464.284592796905
 20
3101.826295180485
 30
0.0
 11
2353.198995984069
 21
3135.211808292455
 31
0.0
  0
LINE
  5
93
  8
1
  6
CONTINUOUS
 62
     1
 10
2678.73702541747
 20
3085.52497283846
 30
0.0
 11
2570.462989486697
 21
3085.52497283846
 31
0.0
  0
LINE
  5
94
  8
1
  6
CONTINUOUS
 62
     1
 10
2170.326102731532
 20
4772.360833304521
 30
0.0
 11
2153.284511389011
 21
4772.360833304521
 31
0.0
  0
LINE
  5
95
  8
1
  6
CONTINUOUS
 62
     1
 10
2357.475854622086
 20
4755.868482027331
 30
0.0
 11
2241.388241478659
 21
4763.962006859925
 31
0.0
  0
LINE
  5
96
  8
1
  6
CONTINUOUS
 62
     1
 10
2573.293885483637
 20
4738.191069859295
 30
0.0
 11
2469.410032260792
 21
4745.073044500609
 31
0.0
  0
LINE
  5
97
  8
1
  6
CONTINUOUS
 62
     1
 10
2815.892782052576
 20
4738.191069859295
 30
0.0
 11
2680.382788273637
 21
4738.191069859295
 31
0.0
  0
LINE
  5
98
  8
1
  6
CONTINUOUS
 62
     5
 10
285.1011843303499
 20
4231.03523720549
 30
0.0
 11
285.1011843303499
 21
4525.071197042327
 31
0.0
  0
LINE
  5
99
  8
1
  6
CONTINUOUS
 62
     5
 10
260.1111883335529
 20
4231.03523720549
 30
0.0
 11
260.1111883335529
 21
4524.105491656758
 31
0.0
  0
LINE
  5
9A
  8
1
  6
CONTINUOUS
 62
     5
 10
587.60118433035
 20
4231.03523720549
 30
0.0
 11
587.60118433035
 21
4480.266134851191
 31
0.0
  0
LINE
  5
9B
  8
1
  6
CONTINUOUS
 62
     5
 10
562.611188333553
 20
4231.03523720549
 30
0.0
 11
562.611188333553
 21
4480.287916963745
 31
0.0
  0
LINE
  5
9C
  8
1
  6
CONTINUOUS
 62
     1
 10
381.5270880886
 20
4923.88877651436
 30
0.0
 11
391.8752908309458
 21
4604.03523720549
 31
0.0
  0
LINE
  5
9D
  8
1
  6
CONTINUOUS
 62
     1
 10
312.518804203637
 20
4872.3469025131
 30
0.0
 11
329.6450807126333
 21
4604.03523720549
 31
0.0
  0
LINE
  5
9E
  8
1
  6
CONTINUOUS
 62
     1
 10
488.4411700606012
 20
4963.645899918623
 30
0.0
 11
497.1677991728306
 21
4604.03523720549
 31
0.0
  0
LINE
  5
9F
  8
1
  6
CONTINUOUS
 62
     7
 10
276.676287734244
 20
4525.071197042327
 30
0.0
 11
575.101184413461
 21
4525.071197042327
 31
0.0
  0
LINE
  5
A0
  8
1
  6
CONTINUOUS
 62
     7
 10
298.4110708270189
 20
4604.03523720549
 30
0.0
 11
575.101184413461
 21
4604.03523720549
 31
0.0
  0
LINE
  5
A1
  8
1
  6
CONTINUOUS
 62
     7
 10
255.101184413461
 20
4525.071197042326
 30
0.0
 11
255.101184413461
 21
4656.772287132065
 31
0.0
  0
LINE
  5
A2
  8
1
  6
CONTINUOUS
 62
     1
 10
2678.73702541747
 20
4851.748706934857
 30
0.0
 11
2683.633715724396
 21
4513.877075756978
 31
0.0
  0
LINE
  5
A3
  8
1
  6
CONTINUOUS
 62
     1
 10
2567.96716040892
 20
4874.022559264567
 30
0.0
 11
2582.424755851302
 21
4505.353875483835
 31
0.0
  0
LINE
  5
A4
  8
1
  6
CONTINUOUS
 62
     1
 10
2446.34425565322
 20
4898.478765112877
 30
0.0
 11
2506.416164333041
 21
4498.95289627407
 31
0.0
  0
LINE
  5
A5
  8
1
  6
CONTINUOUS
 62
     1
 10
2313.73633887838
 20
4925.143861759562
 30
0.0
 11
2425.619120352569
 21
4492.148662852572
 31
0.0
  0
LINE
  5
A6
  8
1
  6
CONTINUOUS
 62
     1
 10
2170.12279568926
 20
4954.021994393323
 30
0.0
 11
2345.827742766084
 21
4485.429120510744
 31
0.0
  0
LINE
  5
A7
  8
1
  6
CONTINUOUS
 62
     1
 10
2087.91142173863
 20
4968.230144787351
 30
0.0
 11
2293.030312652616
 21
4480.738165792682
 31
0.0
  0
LINE
  5
A8
  8
1
  6
CONTINUOUS
 62
     7
 10
2323.213834401692
 20
4483.524715306008
 30
0.0
 11
2816.558595543707
 21
4525.071197042327
 31
0.0
  0
LINE
  5
A9
  8
1
  6
CONTINUOUS
 62
     5
 10
2325.402439326404
 20
4457.846826822451
 30
0.0
 11
2323.213834401692
 21
4483.524715306008
 31
0.0
  0
LINE
  5
AA
  8
1
  6
CONTINUOUS
 62
     7
 10
2814.85225983591
 20
4604.03523720549
 30
0.0
 11
2816.494576229798
 21
4815.78114687866
 31
0.0
  0
LINE
  5
AB
  8
1
  6
CONTINUOUS
 62
     7
 10
2097.388693411328
 20
4968.647530439139
 30
0.0
 11
2808.466239212679
 21
4825.662466325096
 31
0.0
  0
LINE
  5
AC
  8
1
  6
CONTINUOUS
 62
     7
 10
2287.917338331428
 20
4480.266134851191
 30
0.0
 11
2075.551252840845
 21
4941.008207285107
 31
0.0
  0
LINE
  5
AD
  8
1
  6
CONTINUOUS
 62
     7
 10
2816.558595543707
 20
4525.071197042327
 30
0.0
 11
2816.558595543707
 21
4593.581828873806
 31
0.0
  0
LINE
  5
AE
  8
1
  6
CONTINUOUS
 62
     5
 10
2798.737025417469
 20
4231.03523720549
 30
0.0
 11
2798.737025417469
 21
4524.055073105354
 31
0.0
  0
LINE
  5
AF
  8
1
  6
CONTINUOUS
 62
     5
 10
2773.747029420672
 20
4231.03523720549
 30
0.0
 11
2773.747029420672
 21
4521.031735127162
 31
0.0
  0
LINE
  5
B0
  8
1
  6
CONTINUOUS
 62
     5
 10
2192.595614760485
 20
4446.527295299986
 30
0.0
 11
2145.433292664255
 21
4228.434242291436
 31
0.0
  0
LINE
  5
B1
  8
1
  6
CONTINUOUS
 62
     5
 10
2192.595614656459
 20
4446.527295206985
 30
0.0
 11
2325.402439326404
 21
4457.846826822451
 31
0.0
  0
LINE
  5
B2
  8
1
  6
CONTINUOUS
 62
     5
 10
2323.213832128533
 20
4483.524715112259
 30
0.0
 11
2171.999530325653
 21
4469.564576695153
 31
0.0
  0
LINE
  5
B3
  8
1
  6
CONTINUOUS
 62
     5
 10
2120.998102098582
 20
4233.718318560686
 30
0.0
 11
2171.999530325653
 21
4469.564576695153
 31
0.0
  0
LINE
  5
128
  8
1
  6
DOTTED
 62
     1
 10
2798.73702541747
 20
3381.8667567457
 30
0.0
 11
2798.73702541747
 21
3381.8667567457
 31
0.0
  0
LINE
  5
129
  8
1
  6
CONTINUOUS
 62
     7
 10
2798.73702541747
 20
3701.8667567457
 30
0.0
 11
2513.45106776336
 21
3701.8667567457
 31
0.0
  0
LINE
  5
12A
  8
1
  6
CONTINUOUS
 62
     7
 10
2553.73702541747
 20
3626.8667567457
 30
0.0
 11
2798.73702541747
 21
3626.8667567457
 31
0.0
  0
LINE
  5
12B
  8
1
  6
CONTINUOUS
 62
     7
 10
2798.73702541747
 20
3701.8667567457
 30
0.0
 11
2798.73702541747
 21
3381.8667567457
 31
0.0
  0
LINE
  5
12C
  8
1
  6
CONTINUOUS
 62
     7
 10
2798.73702541747
 20
3381.8667567457
 30
0.0
 11
2798.73702541747
 21
3061.8667567457
 31
0.0
  0
LINE
  5
12D
  8
1
  6
CONTINUOUS
 62
     7
 10
2798.73702541747
 20
3136.8667567457
 30
0.0
 11
2553.73702541747
 21
3136.86675674569
 31
0.0
  0
LINE
  5
12E
  8
1
  6
CONTINUOUS
 62
     7
 10
2513.45106776336
 20
3061.86675674569
 30
0.0
 11
2798.73702541747
 21
3061.8667567457
 31
0.0
  0
LINE
  5
12F
  8
1
  6
CONTINUOUS
 62
     1
 10
2678.73702541747
 20
3626.8667567457
 30
0.0
 11
2678.73702541747
 21
3701.8667567457
 31
0.0
  0
LINE
  5
130
  8
1
  6
CONTINUOUS
 62
     1
 10
2575.87930307003
 20
3626.8667567457
 30
0.0
 11
2567.96716040892
 21
3701.8667567457
 31
0.0
  0
LINE
  5
131
  8
1
  6
CONTINUOUS
 62
     1
 10
2486.37597719963
 20
3617.42458230662
 30
0.0
 11
2446.34425565322
 21
3698.03141371706
 31
0.0
  0
LINE
  5
132
  8
1
  6
CONTINUOUS
 62
     1
 10
2405.86164053662
 20
3577.20715335207
 30
0.0
 11
2313.73633887838
 21
3666.97417148258
 31
0.0
  0
LINE
  5
133
  8
1
  6
CONTINUOUS
 62
     1
 10
2345.3021663065
 20
3510.62975417659
 30
0.0
 11
2170.12279568926
 21
3589.57723389349
 31
0.0
  0
LINE
  5
134
  8
1
  6
CONTINUOUS
 62
     1
 10
2170.12279568926
 20
3174.1562795979
 30
0.0
 11
2345.3021663065
 21
3253.1037593148
 31
0.0
  0
LINE
  5
135
  8
1
  6
CONTINUOUS
 62
     1
 10
2313.73633887838
 20
3096.75934200881
 30
0.0
 11
2405.86164053662
 21
3186.52636013931
 31
0.0
  0
LINE
  5
136
  8
1
  6
CONTINUOUS
 62
     1
 10
2446.34425565322
 20
3065.70209977433
 30
0.0
 11
2486.37597719963
 21
3146.30893118476
 31
0.0
  0
LINE
  5
137
  8
1
  6
CONTINUOUS
 62
     1
 10
2567.96716040892
 20
3061.8667567457
 30
0.0
 11
2575.87930307003
 21
3136.8667567457
 31
0.0
  0
LINE
  5
138
  8
1
  6
CONTINUOUS
 62
     1
 10
2678.73702541747
 20
3061.8667567457
 30
0.0
 11
2678.73702541747
 21
3136.8667567457
 31
0.0
  0
LINE
  5
139
  8
1
  6
CONTINUOUS
 62
     1
 10
2312.8696784787
 20
3426.67659024991
 30
0.0
 11
2087.91142173863
 21
3468.52677109856
 31
0.0
  0
LINE
  5
13A
  8
1
  6
CONTINUOUS
 62
     1
 10
2087.91142173863
 20
3295.20674239284
 30
0.0
 11
2312.8696784787
 21
3337.05692324148
 31
0.0
  0
ARC
  5
13B
  8
1
  6
CONTINUOUS
 62
     7
 10
886.4625474171361
 20
4525.071197042325
 30
0.0
 40
8.581752404876982
 50
294.5950788208334
 51
0.00000000000607
  0
ARC
  5
13C
  8
1
  6
CONTINUOUS
 62
     7
 10
579.9408403205668
 20
5803.853137409896
 30
0.0
 40
1323.587002558704
 50
269.7892680197201
 51
282.439120449596
  0
ARC
  5
13D
  8
1
  6
CONTINUOUS
 62
     7
 10
-2996.575335503612
 20
4656.772287132065
 30
0.0
 40
3891.61963532581
 50
0.0
 51
2.46334818372002
  0
ARC
  5
13E
  8
1
  6
CONTINUOUS
 62
     7
 10
792.7860025881951
 20
4813.791222235883
 30
0.0
 40
99.19251896618565
 50
5.92773733918873
 51
49.11390719382165
  0
ARC
  5
13F
  8
1
  6
CONTINUOUS
 62
     7
 10
673.0406571909
 20
4674.340732199951
 30
0.0
 40
282.9999999996793
 50
49.26562536710399
 51
76.38945423413598
  0
ARC
  5
140
  8
1
  6
CONTINUOUS
 62
     7
 10
575.0442998222362
 20
4269.598308067823
 30
0.0
 40
699.436929137667
 50
76.38945423410189
 51
90.00000000000315
  0
ARC
  5
141
  8
1
  6
CONTINUOUS
 62
     7
 10
746.4365154545252
 20
4540.777818131292
 30
0.0
 40
127.9999999999732
 50
352.9515864540192
 51
26.8293081149988
  0
ARC
  5
142
  8
1
  6
CONTINUOUS
 62
     7
 10
1700.637234702105
 20
4714.03523720549
 30
0.0
 40
856.0000000000001
 50
173.8561642438842
 51
187.3831916240224
  0
ARC
  5
143
  8
1
  6
CONTINUOUS
 62
     7
 10
870.8490744442548
 20
4803.356165815874
 30
0.0
 40
21.41829687446322
 50
2.17059686361692
 51
173.8561642438846
  0
ARC
  5
144
  8
1
  6
CONTINUOUS
 62
     7
 10
884.2567481618081
 20
4567.557563620404
 30
0.0
 40
43.83449116657302
 50
255.7533076429301
 51
284.2466923570653
  0
ARC
  5
145
  8
1
  6
CONTINUOUS
 62
     1
 10
853.0972568985684
 20
4872.822525986478
 30
0.0
 40
15.47788636320176
 50
62.88508998816317
 51
181.7609321884612
  0
ARC
  5
146
  8
1
  6
CONTINUOUS
 62
     1
 10
781.5168681279083
 20
4922.267227698077
 30
0.0
 40
13.00000000016594
 50
84.53580146655455
 51
172.8345748399474
  0
ARC
  5
147
  8
1
  6
CONTINUOUS
 62
     5
 10
877.572742117829
 20
4231.505633612113
 30
0.0
 40
12.47042884177476
 50
182.1617640181527
 51
357.8382359818474
  0
ARC
  5
148
  8
1
  6
CONTINUOUS
 62
     5
 10
272.5727421178298
 20
4231.505633612113
 30
0.0
 40
12.47042884177567
 50
182.1617640181526
 51
357.8382359818472
  0
ARC
  5
149
  8
1
  6
CONTINUOUS
 62
     5
 10
575.0727421178299
 20
4231.505633612113
 30
0.0
 40
12.47042884177567
 50
182.1617640181526
 51
357.8382359818473
  0
ARC
  5
14A
  8
1
  6
CONTINUOUS
 62
     1
 10
368.6286161077505
 20
4922.267227698077
 30
0.0
 40
13.00000000016733
 50
7.16542516005263
 51
95.46419853344521
  0
ARC
  5
14B
  8
1
  6
CONTINUOUS
 62
     1
 10
297.0482273370905
 20
4872.822525986478
 30
0.0
 40
15.4778863632006
 50
358.2390678115388
 51
117.1149100118366
  0
ARC
  5
14C
  8
1
  6
CONTINUOUS
 62
     7
 10
265.8887360738507
 20
4567.557563620404
 30
0.0
 40
43.83449116657304
 50
255.7533076429348
 51
284.2466923570701
  0
ARC
  5
14D
  8
1
  6
CONTINUOUS
 62
     7
 10
279.296409791404
 20
4803.356165815874
 30
0.0
 40
21.41829687445903
 50
6.1438357561154
 51
177.8294031363831
  0
ARC
  5
14E
  8
1
  6
CONTINUOUS
 62
     7
 10
-550.4917504664459
 20
4714.03523720549
 30
0.0
 40
856.0000000000024
 50
352.6168083759776
 51
6.14383575611581
  0
ARC
  5
14F
  8
1
  6
CONTINUOUS
 62
     7
 10
403.7089687811337
 20
4540.777818131292
 30
0.0
 40
127.9999999999997
 50
153.1706918850012
 51
187.0484135459809
  0
ARC
  5
150
  8
1
  6
CONTINUOUS
 62
     7
 10
575.1011844134226
 20
4269.598308067823
 30
0.0
 40
699.436929137667
 50
89.99999999999686
 51
103.6105457658981
  0
ARC
  5
151
  8
1
  6
CONTINUOUS
 62
     7
 10
477.1048270447588
 20
4674.340732199951
 30
0.0
 40
282.9999999996785
 50
103.610545765864
 51
130.734374632896
  0
ARC
  5
152
  8
1
  6
CONTINUOUS
 62
     7
 10
357.3594816474638
 20
4813.791222235883
 30
0.0
 40
99.1925189661869
 50
130.8860928061783
 51
174.0722626608113
  0
ARC
  5
153
  8
1
  6
CONTINUOUS
 62
     7
 10
4146.720819739271
 20
4656.772287132065
 30
0.0
 40
3891.619635325811
 50
177.53665181628
 51
180.0
  0
ARC
  5
154
  8
1
  6
CONTINUOUS
 62
     7
 10
570.204643915092
 20
5803.853137409896
 30
0.0
 40
1323.587002558704
 50
257.560879550404
 51
270.2107319802799
  0
ARC
  5
155
  8
1
  6
CONTINUOUS
 62
     7
 10
263.6829368185228
 20
4525.071197042325
 30
0.0
 40
8.58175240506182
 50
179.9999999999939
 51
245.4049211791659
  0
ARC
  5
156
  8
1
  6
CONTINUOUS
 62
     7
 10
2783.685425633199
 20
4593.581828873806
 30
0.0
 40
32.87316991050784
 50
0.0
 51
18.54153897729751
  0
ARC
  5
157
  8
1
  6
CONTINUOUS
 62
     7
 10
2093.493898171444
 20
4949.278364451516
 30
0.0
 40
19.75687275397394
 50
78.63045720880649
 51
204.746008358548
  0
ARC
  5
158
  8
1
  6
CONTINUOUS
 62
     5
 10
2786.208583204949
 20
4231.505633612113
 30
0.0
 40
12.47042884177567
 50
182.1617640181526
 51
357.8382359818473
  0
ARC
  5
159
  8
1
  6
CONTINUOUS
 62
     5
 10
2133.327200824453
 20
4231.568241122079
 30
0.0
 40
12.50517526083578
 50
170.1094905968682
 51
345.4860244749394
  0
ARC
  5
15A
  8
1
  6
CONTINUOUS
 62
     7
 10
2513.45106776336
 20
3112.86675674565
 30
0.0
 40
589.00000000005
 50
90.0
 51
121.9423955422204
  0
ARC
  5
15B
  8
1
  6
CONTINUOUS
 62
     7
 10
2345.73702541751
 20
3381.8667567457
 30
0.0
 40
272.0000000000263
 50
121.9423955422299
 51
180.0
  0
ARC
  5
15C
  8
1
  6
CONTINUOUS
 62
     7
 10
2553.73702541747
 20
3381.86675674569
 30
0.0
 40
245.00000000001
 50
90.0
 51
179.9999999999977
  0
ARC
  5
15D
  8
1
  6
CONTINUOUS
 62
     7
 10
2553.73702541747
 20
3381.86675674569
 30
0.0
 40
245.0
 50
179.9999999999977
 51
270.0
  0
ARC
  5
15E
  8
1
  6
CONTINUOUS
 62
     7
 10
2345.73702541751
 20
3381.8667567457
 30
0.0
 40
272.00000000004
 50
180.0
 51
238.0576044577713
  0
ARC
  5
15F
  8
1
  6
CONTINUOUS
 62
     7
 10
2513.45106776336
 20
3650.86675674574
 30
0.0
 40
589.0000000000464
 50
238.0576044577796
 51
270.0
  0
ARC
  5
160
  8
1
  6
CONTINUOUS
 62
     7
 10
851.73441340864
 20
4594.03523720549
 30
0.0
 40
9.999999999999938
 50
26.82930811499952
 51
90.0
  0
ARC
  5
161
  8
1
  6
CONTINUOUS
 62
     7
 10
298.4110708270189
 20
4594.03523720549
 30
0.0
 40
10.0
 50
90.0
 51
153.1706918850007
  0
ARC
  5
162
  8
1
  6
CONTINUOUS
 62
     7
 10
2806.494876999446
 20
4815.85870525986
 30
0.0
 40
9.999999999999611
 50
359.5556187539199
 51
78.63045720880977
  0
POLYLINE
  5
163
  8
0
  6
CONTINUOUS
 62
     5
 66
     1
 10
0.0
 20
0.0
 30
0.0
  0
VERTEX
  5
16E
  8
0
  6
CONTINUOUS
 62
     5
 10
587.5442998222059
 20
4457.203303868266
 30
0.0
  0
VERTEX
  5
16F
  8
0
  6
CONTINUOUS
 62
     5
 10
587.4605078447938
 20
4456.147982856225
 30
0.0
  0
VERTEX
  5
170
  8
0
  6
CONTINUOUS
 62
     5
 10
587.3948968245129
 20
4455.624649747346
 30
0.0
  0
VERTEX
  5
171
  8
0
  6
CONTINUOUS
 62
     5
 10
587.3008277663379
 20
4455.106509514985
 30
0.0
  0
VERTEX
  5
172
  8
0
  6
CONTINUOUS
 62
     5
 10
587.1710335016818
 20
4454.595220407616
 30
0.0
  0
VERTEX
  5
173
  8
0
  6
CONTINUOUS
 62
     5
 10
587.0071740279249
 20
4454.092343101996
 30
0.0
  0
VERTEX
  5
174
  8
0
  6
CONTINUOUS
 62
     5
 10
586.8131329764389
 20
4453.599364690475
 30
0.0
  0
VERTEX
  5
175
  8
0
  6
CONTINUOUS
 62
     5
 10
586.5927939785969
 20
4453.117772265396
 30
0.0
  0
VERTEX
  5
176
  8
0
  6
CONTINUOUS
 62
     5
 10
586.3408882527558
 20
4452.633741542605
 30
0.0
  0
VERTEX
  5
177
  8
0
  6
CONTINUOUS
 62
     5
 10
586.0643192398459
 20
4452.164228710016
 30
0.0
  0
VERTEX
  5
178
  8
0
  6
CONTINUOUS
 62
     5
 10
585.7627541031088
 20
4451.710010587585
 30
0.0
  0
VERTEX
  5
179
  8
0
  6
CONTINUOUS
 62
     5
 10
585.4376694830229
 20
4451.272031581585
 30
0.0
  0
VERTEX
  5
17A
  8
0
  6
CONTINUOUS
 62
     5
 10
585.0800625872369
 20
4450.838735002675
 30
0.0
  0
VERTEX
  5
17B
  8
0
  6
CONTINUOUS
 62
     5
 10
584.7008633989979
 20
4450.424289715265
 30
0.0
  0
VERTEX
  5
17C
  8
0
  6
CONTINUOUS
 62
     5
 10
584.3014137798308
 20
4450.029277537095
 30
0.0
  0
VERTEX
  5
17D
  8
0
  6
CONTINUOUS
 62
     5
 10
583.8831345870378
 20
4449.654225813615
 30
0.0
  0
VERTEX
  5
17E
  8
0
  6
CONTINUOUS
 62
     5
 10
583.4337445711218
 20
4449.288991490305
 30
0.0
  0
VERTEX
  5
17F
  8
0
  6
CONTINUOUS
 62
     5
 10
582.9673133346838
 20
4448.945805432395
 30
0.0
  0
VERTEX
  5
180
  8
0
  6
CONTINUOUS
 62
     5
 10
582.4852527509809
 20
4448.624936329436
 30
0.0
  0
VERTEX
  5
181
  8
0
  6
CONTINUOUS
 62
     5
 10
581.9889274055629
 20
4448.326527584075
 30
0.0
  0
VERTEX
  5
182
  8
0
  6
CONTINUOUS
 62
     5
 10
581.4658050437888
 20
4448.043635766905
 30
0.0
  0
VERTEX
  5
183
  8
0
  6
CONTINUOUS
 62
     5
 10
580.9304085718778
 20
4447.785016130745
 30
0.0
  0
VERTEX
  5
184
  8
0
  6
CONTINUOUS
 62
     5
 10
580.3840561999679
 20
4447.550839083825
 30
0.0
  0
VERTEX
  5
185
  8
0
  6
CONTINUOUS
 62
     5
 10
579.8278427267699
 20
4447.339958063106
 30
0.0
  0
VERTEX
  5
186
  8
0
  6
CONTINUOUS
 62
     5
 10
579.2492414864669
 20
4447.147296746375
 30
0.0
  0
VERTEX
  5
187
  8
0
  6
CONTINUOUS
 62
     5
 10
578.6626568454168
 20
4446.979886919125
 30
0.0
  0
VERTEX
  5
188
  8
0
  6
CONTINUOUS
 62
     5
 10
578.0693629921858
 20
4446.840110476065
 30
0.0
  0
VERTEX
  5
189
  8
0
  6
CONTINUOUS
 62
     5
 10
577.4706341153388
 20
4446.730349311915
 30
0.0
  0
VERTEX
  5
18A
  8
0
  6
CONTINUOUS
 62
     5
 10
576.2616279959749
 20
4446.596423636165
 30
0.0
  0
VERTEX
  5
18B
  8
0
  6
CONTINUOUS
 62
     5
 10
575.0442998221058
 20
4446.527295299986
 30
0.0
  0
SEQEND
  5
18C
  8
0
  6
CONTINUOUS
 62
     5
  0
POLYLINE
  5
164
  8
0
  6
CONTINUOUS
 62
     5
 66
     1
 10
0.0
 20
0.0
 30
0.0
  0
VERTEX
  5
18D
  8
0
  6
CONTINUOUS
 62
     5
 10
587.5442998222059
 20
4457.203303868266
 30
0.0
  0
VERTEX
  5
18E
  8
0
  6
CONTINUOUS
 62
     5
 10
587.4605078447938
 20
4456.147982856225
 30
0.0
  0
VERTEX
  5
18F
  8
0
  6
CONTINUOUS
 62
     5
 10
587.3948968245129
 20
4455.624649747346
 30
0.0
  0
VERTEX
  5
190
  8
0
  6
CONTINUOUS
 62
     5
 10
587.3008277663379
 20
4455.106509514985
 30
0.0
  0
VERTEX
  5
191
  8
0
  6
CONTINUOUS
 62
     5
 10
587.1710335016818
 20
4454.595220407616
 30
0.0
  0
VERTEX
  5
192
  8
0
  6
CONTINUOUS
 62
     5
 10
587.0071740279249
 20
4454.092343101996
 30
0.0
  0
VERTEX
  5
193
  8
0
  6
CONTINUOUS
 62
     5
 10
586.8131329764389
 20
4453.599364690475
 30
0.0
  0
VERTEX
  5
194
  8
0
  6
CONTINUOUS
 62
     5
 10
586.5927939785969
 20
4453.117772265396
 30
0.0
  0
VERTEX
  5
195
  8
0
  6
CONTINUOUS
 62
     5
 10
586.3408882527558
 20
4452.633741542605
 30
0.0
  0
VERTEX
  5
196
  8
0
  6
CONTINUOUS
 62
     5
 10
586.0643192398459
 20
4452.164228710016
 30
0.0
  0
VERTEX
  5
197
  8
0
  6
CONTINUOUS
 62
     5
 10
585.7627541031088
 20
4451.710010587585
 30
0.0
  0
VERTEX
  5
198
  8
0
  6
CONTINUOUS
 62
     5
 10
585.4376694830229
 20
4451.272031581585
 30
0.0
  0
VERTEX
  5
199
  8
0
  6
CONTINUOUS
 62
     5
 10
585.0800625872369
 20
4450.838735002675
 30
0.0
  0
VERTEX
  5
19A
  8
0
  6
CONTINUOUS
 62
     5
 10
584.7008633989979
 20
4450.424289715265
 30
0.0
  0
VERTEX
  5
19B
  8
0
  6
CONTINUOUS
 62
     5
 10
584.3014137798308
 20
4450.029277537095
 30
0.0
  0
VERTEX
  5
19C
  8
0
  6
CONTINUOUS
 62
     5
 10
583.8831345870378
 20
4449.654225813615
 30
0.0
  0
VERTEX
  5
19D
  8
0
  6
CONTINUOUS
 62
     5
 10
583.4337445711218
 20
4449.288991490305
 30
0.0
  0
VERTEX
  5
19E
  8
0
  6
CONTINUOUS
 62
     5
 10
582.9673133346838
 20
4448.945805432395
 30
0.0
  0
VERTEX
  5
19F
  8
0
  6
CONTINUOUS
 62
     5
 10
582.4852527509809
 20
4448.624936329436
 30
0.0
  0
VERTEX
  5
1A0
  8
0
  6
CONTINUOUS
 62
     5
 10
581.9889274055629
 20
4448.326527584075
 30
0.0
  0
VERTEX
  5
1A1
  8
0
  6
CONTINUOUS
 62
     5
 10
581.4658050437888
 20
4448.043635766905
 30
0.0
  0
VERTEX
  5
1A2
  8
0
  6
CONTINUOUS
 62
     5
 10
580.9304085718778
 20
4447.785016130745
 30
0.0
  0
VERTEX
  5
1A3
  8
0
  6
CONTINUOUS
 62
     5
 10
580.3840561999679
 20
4447.550839083825
 30
0.0
  0
VERTEX
  5
1A4
  8
0
  6
CONTINUOUS
 62
     5
 10
579.8278427267699
 20
4447.339958063106
 30
0.0
  0
VERTEX
  5
1A5
  8
0
  6
CONTINUOUS
 62
     5
 10
579.2492414864669
 20
4447.147296746375
 30
0.0
  0
VERTEX
  5
1A6
  8
0
  6
CONTINUOUS
 62
     5
 10
578.6626568454168
 20
4446.979886919125
 30
0.0
  0
VERTEX
  5
1A7
  8
0
  6
CONTINUOUS
 62
     5
 10
578.0693629921858
 20
4446.840110476065
 30
0.0
  0
VERTEX
  5
1A8
  8
0
  6
CONTINUOUS
 62
     5
 10
577.4706341153388
 20
4446.730349311915
 30
0.0
  0
VERTEX
  5
1A9
  8
0
  6
CONTINUOUS
 62
     5
 10
576.2616279959749
 20
4446.596423636165
 30
0.0
  0
VERTEX
  5
1AA
  8
0
  6
CONTINUOUS
 62
     5
 10
575.0442998221058
 20
4446.527295299986
 30
0.0
  0
SEQEND
  5
1AB
  8
0
  6
CONTINUOUS
 62
     5
  0
POLYLINE
  5
165
  8
0
  6
CONTINUOUS
 62
     5
 66
     1
 10
0.0
 20
0.0
 30
0.0
  0
VERTEX
  5
1AC
  8
0
  6
CONTINUOUS
 62
     5
 10
587.601184413453
 20
4457.203303868266
 30
0.0
  0
VERTEX
  5
1AD
  8
0
  6
CONTINUOUS
 62
     5
 10
587.517392436046
 20
4456.147982856275
 30
0.0
  0
VERTEX
  5
1AE
  8
0
  6
CONTINUOUS
 62
     5
 10
587.451781415763
 20
4455.624649747376
 30
0.0
  0
VERTEX
  5
1AF
  8
0
  6
CONTINUOUS
 62
     5
 10
587.357712357585
 20
4455.106509514985
 30
0.0
  0
VERTEX
  5
1B0
  8
0
  6
CONTINUOUS
 62
     5
 10
587.227918092929
 20
4454.595220407616
 30
0.0
  0
VERTEX
  5
1B1
  8
0
  6
CONTINUOUS
 62
     5
 10
587.064058619171
 20
4454.092343101996
 30
0.0
  0
VERTEX
  5
1B2
  8
0
  6
CONTINUOUS
 62
     5
 10
586.870017567685
 20
4453.599364690475
 30
0.0
  0
VERTEX
  5
1B3
  8
0
  6
CONTINUOUS
 62
     5
 10
586.649678569844
 20
4453.117772265396
 30
0.0
  0
VERTEX
  5
1B4
  8
0
  6
CONTINUOUS
 62
     5
 10
586.397772844003
 20
4452.633741542605
 30
0.0
  0
VERTEX
  5
1B5
  8
0
  6
CONTINUOUS
 62
     5
 10
586.121203831093
 20
4452.164228710016
 30
0.0
  0
VERTEX
  5
1B6
  8
0
  6
CONTINUOUS
 62
     5
 10
585.819638694356
 20
4451.710010587585
 30
0.0
  0
VERTEX
  5
1B7
  8
0
  6
CONTINUOUS
 62
     5
 10
585.494554074271
 20
4451.272031581585
 30
0.0
  0
VERTEX
  5
1B8
  8
0
  6
CONTINUOUS
 62
     5
 10
585.136947178485
 20
4450.838735002675
 30
0.0
  0
VERTEX
  5
1B9
  8
0
  6
CONTINUOUS
 62
     5
 10
584.757747990245
 20
4450.424289715265
 30
0.0
  0
VERTEX
  5
1BA
  8
0
  6
CONTINUOUS
 62
     5
 10
584.358298371078
 20
4450.029277537095
 30
0.0
  0
VERTEX
  5
1BB
  8
0
  6
CONTINUOUS
 62
     5
 10
583.940019178285
 20
4449.654225813615
 30
0.0
  0
VERTEX
  5
1BC
  8
0
  6
CONTINUOUS
 62
     5
 10
583.490629162369
 20
4449.288991490305
 30
0.0
  0
VERTEX
  5
1BD
  8
0
  6
CONTINUOUS
 62
     5
 10
583.02419792593
 20
4448.945805432395
 30
0.0
  0
VERTEX
  5
1BE
  8
0
  6
CONTINUOUS
 62
     5
 10
582.542137342228
 20
4448.624936329436
 30
0.0
  0
VERTEX
  5
1BF
  8
0
  6
CONTINUOUS
 62
     5
 10
582.04581199681
 20
4448.326527584075
 30
0.0
  0
VERTEX
  5
1C0
  8
0
  6
CONTINUOUS
 62
     5
 10
581.522689635036
 20
4448.043635766905
 30
0.0
  0
VERTEX
  5
1C1
  8
0
  6
CONTINUOUS
 62
     5
 10
580.987293163124
 20
4447.785016130745
 30
0.0
  0
VERTEX
  5
1C2
  8
0
  6
CONTINUOUS
 62
     5
 10
580.440940791215
 20
4447.550839083825
 30
0.0
  0
VERTEX
  5
1C3
  8
0
  6
CONTINUOUS
 62
     5
 10
579.884727318016
 20
4447.339958063106
 30
0.0
  0
VERTEX
  5
1C4
  8
0
  6
CONTINUOUS
 62
     5
 10
579.306126077714
 20
4447.147296746375
 30
0.0
  0
VERTEX
  5
1C5
  8
0
  6
CONTINUOUS
 62
     5
 10
578.719541436664
 20
4446.979886919125
 30
0.0
  0
VERTEX
  5
1C6
  8
0
  6
CONTINUOUS
 62
     5
 10
578.126247583432
 20
4446.840110476065
 30
0.0
  0
VERTEX
  5
1C7
  8
0
  6
CONTINUOUS
 62
     5
 10
577.527518706585
 20
4446.730349311915
 30
0.0
  0
VERTEX
  5
1C8
  8
0
  6
CONTINUOUS
 62
     5
 10
576.318512587272
 20
4446.596423636175
 30
0.0
  0
VERTEX
  5
1C9
  8
0
  6
CONTINUOUS
 62
     5
 10
575.101184413553
 20
4446.527295299986
 30
0.0
  0
SEQEND
  5
1CA
  8
0
  6
CONTINUOUS
 62
     5
  0
POLYLINE
  5
166
  8
0
  6
CONTINUOUS
 62
     5
 66
     1
 10
0.0
 20
0.0
 30
0.0
  0
VERTEX
  5
1CB
  8
0
  6
CONTINUOUS
 62
     5
 10
575.101184413553
 20
4446.527295299986
 30
0.0
  0
VERTEX
  5
1CC
  8
0
  6
CONTINUOUS
 62
     5
 10
573.883856239684
 20
4446.596423636165
 30
0.0
  0
VERTEX
  5
1CD
  8
0
  6
CONTINUOUS
 62
     5
 10
572.67485012032
 20
4446.730349311915
 30
0.0
  0
VERTEX
  5
1CE
  8
0
  6
CONTINUOUS
 62
     5
 10
572.076121243473
 20
4446.840110476065
 30
0.0
  0
VERTEX
  5
1CF
  8
0
  6
CONTINUOUS
 62
     5
 10
571.482827390242
 20
4446.979886919125
 30
0.0
  0
VERTEX
  5
1D0
  8
0
  6
CONTINUOUS
 62
     5
 10
570.896242749192
 20
4447.147296746375
 30
0.0
  0
VERTEX
  5
1D1
  8
0
  6
CONTINUOUS
 62
     5
 10
570.317641508889
 20
4447.339958063106
 30
0.0
  0
VERTEX
  5
1D2
  8
0
  6
CONTINUOUS
 62
     5
 10
569.761428035691
 20
4447.550839083825
 30
0.0
  0
VERTEX
  5
1D3
  8
0
  6
CONTINUOUS
 62
     5
 10
569.215075663781
 20
4447.785016130745
 30
0.0
  0
VERTEX
  5
1D4
  8
0
  6
CONTINUOUS
 62
     5
 10
568.67967919187
 20
4448.043635766905
 30
0.0
  0
VERTEX
  5
1D5
  8
0
  6
CONTINUOUS
 62
     5
 10
568.156556830096
 20
4448.326527584075
 30
0.0
  0
VERTEX
  5
1D6
  8
0
  6
CONTINUOUS
 62
     5
 10
567.660231484678
 20
4448.624936329436
 30
0.0
  0
VERTEX
  5
1D7
  8
0
  6
CONTINUOUS
 62
     5
 10
567.178170900975
 20
4448.945805432395
 30
0.0
  0
VERTEX
  5
1D8
  8
0
  6
CONTINUOUS
 62
     5
 10
566.711739664537
 20
4449.288991490305
 30
0.0
  0
VERTEX
  5
1D9
  8
0
  6
CONTINUOUS
 62
     5
 10
566.262349648621
 20
4449.654225813615
 30
0.0
  0
VERTEX
  5
1DA
  8
0
  6
CONTINUOUS
 62
     5
 10
565.844070455828
 20
4450.029277537095
 30
0.0
  0
VERTEX
  5
1DB
  8
0
  6
CONTINUOUS
 62
     5
 10
565.444620836661
 20
4450.424289715265
 30
0.0
  0
VERTEX
  5
1DC
  8
0
  6
CONTINUOUS
 62
     5
 10
565.065421648422
 20
4450.838735002675
 30
0.0
  0
VERTEX
  5
1DD
  8
0
  6
CONTINUOUS
 62
     5
 10
564.707814752636
 20
4451.272031581585
 30
0.0
  0
VERTEX
  5
1DE
  8
0
  6
CONTINUOUS
 62
     5
 10
564.38273013255
 20
4451.710010587585
 30
0.0
  0
VERTEX
  5
1DF
  8
0
  6
CONTINUOUS
 62
     5
 10
564.081164995813
 20
4452.164228710016
 30
0.0
  0
VERTEX
  5
1E0
  8
0
  6
CONTINUOUS
 62
     5
 10
563.804595982903
 20
4452.633741542605
 30
0.0
  0
VERTEX
  5
1E1
  8
0
  6
CONTINUOUS
 62
     5
 10
563.552690257062
 20
4453.117772265396
 30
0.0
  0
VERTEX
  5
1E2
  8
0
  6
CONTINUOUS
 62
     5
 10
563.33235125922
 20
4453.599364690475
 30
0.0
  0
VERTEX
  5
1E3
  8
0
  6
CONTINUOUS
 62
     5
 10
563.138310207734
 20
4454.092343101996
 30
0.0
  0
VERTEX
  5
1E4
  8
0
  6
CONTINUOUS
 62
     5
 10
562.974450733977
 20
4454.595220407616
 30
0.0
  0
VERTEX
  5
1E5
  8
0
  6
CONTINUOUS
 62
     5
 10
562.844656469321
 20
4455.106509514985
 30
0.0
  0
VERTEX
  5
1E6
  8
0
  6
CONTINUOUS
 62
     5
 10
562.750587411146
 20
4455.624649747346
 30
0.0
  0
VERTEX
  5
1E7
  8
0
  6
CONTINUOUS
 62
     5
 10
562.684976390865
 20
4456.147982856225
 30
0.0
  0
VERTEX
  5
1E8
  8
0
  6
CONTINUOUS
 62
     5
 10
562.601184413453
 20
4457.203303868266
 30
0.0
  0
SEQEND
  5
1E9
  8
0
  6
CONTINUOUS
 62
     5
  0
POLYLINE
  5
167
  8
0
  6
CONTINUOUS
 62
     5
 66
     1
 10
0.0
 20
0.0
 30
0.0
  0
VERTEX
  5
1EA
  8
0
  6
CONTINUOUS
 62
     5
 10
587.601184413453
 20
4457.203303868266
 30
0.0
  0
VERTEX
  5
1EB
  8
0
  6
CONTINUOUS
 62
     5
 10
587.517392436046
 20
4456.147982856275
 30
0.0
  0
VERTEX
  5
1EC
  8
0
  6
CONTINUOUS
 62
     5
 10
587.451781415763
 20
4455.624649747376
 30
0.0
  0
VERTEX
  5
1ED
  8
0
  6
CONTINUOUS
 62
     5
 10
587.357712357585
 20
4455.106509514985
 30
0.0
  0
VERTEX
  5
1EE
  8
0
  6
CONTINUOUS
 62
     5
 10
587.227918092929
 20
4454.595220407616
 30
0.0
  0
VERTEX
  5
1EF
  8
0
  6
CONTINUOUS
 62
     5
 10
587.064058619171
 20
4454.092343101996
 30
0.0
  0
VERTEX
  5
1F0
  8
0
  6
CONTINUOUS
 62
     5
 10
586.870017567685
 20
4453.599364690475
 30
0.0
  0
VERTEX
  5
1F1
  8
0
  6
CONTINUOUS
 62
     5
 10
586.649678569844
 20
4453.117772265396
 30
0.0
  0
VERTEX
  5
1F2
  8
0
  6
CONTINUOUS
 62
     5
 10
586.397772844003
 20
4452.633741542605
 30
0.0
  0
VERTEX
  5
1F3
  8
0
  6
CONTINUOUS
 62
     5
 10
586.121203831093
 20
4452.164228710016
 30
0.0
  0
VERTEX
  5
1F4
  8
0
  6
CONTINUOUS
 62
     5
 10
585.819638694356
 20
4451.710010587585
 30
0.0
  0
VERTEX
  5
1F5
  8
0
  6
CONTINUOUS
 62
     5
 10
585.494554074271
 20
4451.272031581585
 30
0.0
  0
VERTEX
  5
1F6
  8
0
  6
CONTINUOUS
 62
     5
 10
585.136947178485
 20
4450.838735002675
 30
0.0
  0
VERTEX
  5
1F7
  8
0
  6
CONTINUOUS
 62
     5
 10
584.757747990245
 20
4450.424289715265
 30
0.0
  0
VERTEX
  5
1F8
  8
0
  6
CONTINUOUS
 62
     5
 10
584.358298371078
 20
4450.029277537095
 30
0.0
  0
VERTEX
  5
1F9
  8
0
  6
CONTINUOUS
 62
     5
 10
583.940019178285
 20
4449.654225813615
 30
0.0
  0
VERTEX
  5
1FA
  8
0
  6
CONTINUOUS
 62
     5
 10
583.490629162369
 20
4449.288991490305
 30
0.0
  0
VERTEX
  5
1FB
  8
0
  6
CONTINUOUS
 62
     5
 10
583.02419792593
 20
4448.945805432395
 30
0.0
  0
VERTEX
  5
1FC
  8
0
  6
CONTINUOUS
 62
     5
 10
582.542137342228
 20
4448.624936329436
 30
0.0
  0
VERTEX
  5
1FD
  8
0
  6
CONTINUOUS
 62
     5
 10
582.04581199681
 20
4448.326527584075
 30
0.0
  0
VERTEX
  5
1FE
  8
0
  6
CONTINUOUS
 62
     5
 10
581.522689635036
 20
4448.043635766905
 30
0.0
  0
VERTEX
  5
1FF
  8
0
  6
CONTINUOUS
 62
     5
 10
580.987293163124
 20
4447.785016130745
 30
0.0
  0
VERTEX
  5
200
  8
0
  6
CONTINUOUS
 62
     5
 10
580.440940791215
 20
4447.550839083825
 30
0.0
  0
VERTEX
  5
201
  8
0
  6
CONTINUOUS
 62
     5
 10
579.884727318016
 20
4447.339958063106
 30
0.0
  0
VERTEX
  5
202
  8
0
  6
CONTINUOUS
 62
     5
 10
579.306126077714
 20
4447.147296746375
 30
0.0
  0
VERTEX
  5
203
  8
0
  6
CONTINUOUS
 62
     5
 10
578.719541436664
 20
4446.979886919125
 30
0.0
  0
VERTEX
  5
204
  8
0
  6
CONTINUOUS
 62
     5
 10
578.126247583432
 20
4446.840110476065
 30
0.0
  0
VERTEX
  5
205
  8
0
  6
CONTINUOUS
 62
     5
 10
577.527518706585
 20
4446.730349311915
 30
0.0
  0
VERTEX
  5
206
  8
0
  6
CONTINUOUS
 62
     5
 10
576.318512587272
 20
4446.596423636175
 30
0.0
  0
VERTEX
  5
207
  8
0
  6
CONTINUOUS
 62
     5
 10
575.101184413553
 20
4446.527295299986
 30
0.0
  0
SEQEND
  5
208
  8
0
  6
CONTINUOUS
 62
     5
  0
POLYLINE
  5
168
  8
0
  6
CONTINUOUS
 62
     5
 66
     1
 10
0.0
 20
0.0
 30
0.0
  0
VERTEX
  5
209
  8
0
  6
CONTINUOUS
 62
     5
 10
575.101184413553
 20
4446.527295299986
 30
0.0
  0
VERTEX
  5
20A
  8
0
  6
CONTINUOUS
 62
     5
 10
573.883856239684
 20
4446.596423636165
 30
0.0
  0
VERTEX
  5
20B
  8
0
  6
CONTINUOUS
 62
     5
 10
572.67485012032
 20
4446.730349311915
 30
0.0
  0
VERTEX
  5
20C
  8
0
  6
CONTINUOUS
 62
     5
 10
572.076121243473
 20
4446.840110476065
 30
0.0
  0
VERTEX
  5
20D
  8
0
  6
CONTINUOUS
 62
     5
 10
571.482827390242
 20
4446.979886919125
 30
0.0
  0
VERTEX
  5
20E
  8
0
  6
CONTINUOUS
 62
     5
 10
570.896242749192
 20
4447.147296746375
 30
0.0
  0
VERTEX
  5
20F
  8
0
  6
CONTINUOUS
 62
     5
 10
570.317641508889
 20
4447.339958063106
 30
0.0
  0
VERTEX
  5
210
  8
0
  6
CONTINUOUS
 62
     5
 10
569.761428035691
 20
4447.550839083825
 30
0.0
  0
VERTEX
  5
211
  8
0
  6
CONTINUOUS
 62
     5
 10
569.215075663781
 20
4447.785016130745
 30
0.0
  0
VERTEX
  5
212
  8
0
  6
CONTINUOUS
 62
     5
 10
568.67967919187
 20
4448.043635766905
 30
0.0
  0
VERTEX
  5
213
  8
0
  6
CONTINUOUS
 62
     5
 10
568.156556830096
 20
4448.326527584075
 30
0.0
  0
VERTEX
  5
214
  8
0
  6
CONTINUOUS
 62
     5
 10
567.660231484678
 20
4448.624936329436
 30
0.0
  0
VERTEX
  5
215
  8
0
  6
CONTINUOUS
 62
     5
 10
567.178170900975
 20
4448.945805432395
 30
0.0
  0
VERTEX
  5
216
  8
0
  6
CONTINUOUS
 62
     5
 10
566.711739664537
 20
4449.288991490305
 30
0.0
  0
VERTEX
  5
217
  8
0
  6
CONTINUOUS
 62
     5
 10
566.262349648621
 20
4449.654225813615
 30
0.0
  0
VERTEX
  5
218
  8
0
  6
CONTINUOUS
 62
     5
 10
565.844070455828
 20
4450.029277537095
 30
0.0
  0
VERTEX
  5
219
  8
0
  6
CONTINUOUS
 62
     5
 10
565.444620836661
 20
4450.424289715265
 30
0.0
  0
VERTEX
  5
21A
  8
0
  6
CONTINUOUS
 62
     5
 10
565.065421648422
 20
4450.838735002675
 30
0.0
  0
VERTEX
  5
21B
  8
0
  6
CONTINUOUS
 62
     5
 10
564.707814752636
 20
4451.272031581585
 30
0.0
  0
VERTEX
  5
21C
  8
0
  6
CONTINUOUS
 62
     5
 10
564.38273013255
 20
4451.710010587585
 30
0.0
  0
VERTEX
  5
21D
  8
0
  6
CONTINUOUS
 62
     5
 10
564.081164995813
 20
4452.164228710016
 30
0.0
  0
VERTEX
  5
21E
  8
0
  6
CONTINUOUS
 62
     5
 10
563.804595982903
 20
4452.633741542605
 30
0.0
  0
VERTEX
  5
21F
  8
0
  6
CONTINUOUS
 62
     5
 10
563.552690257062
 20
4453.117772265396
 30
0.0
  0
VERTEX
  5
220
  8
0
  6
CONTINUOUS
 62
     5
 10
563.33235125922
 20
4453.599364690475
 30
0.0
  0
VERTEX
  5
221
  8
0
  6
CONTINUOUS
 62
     5
 10
563.138310207734
 20
4454.092343101996
 30
0.0
  0
VERTEX
  5
222
  8
0
  6
CONTINUOUS
 62
     5
 10
562.974450733977
 20
4454.595220407616
 30
0.0
  0
VERTEX
  5
223
  8
0
  6
CONTINUOUS
 62
     5
 10
562.844656469321
 20
4455.106509514985
 30
0.0
  0
VERTEX
  5
224
  8
0
  6
CONTINUOUS
 62
     5
 10
562.750587411146
 20
4455.624649747346
 30
0.0
  0
VERTEX
  5
225
  8
0
  6
CONTINUOUS
 62
     5
 10
562.684976390865
 20
4456.147982856225
 30
0.0
  0
VERTEX
  5
226
  8
0
  6
CONTINUOUS
 62
     5
 10
562.601184413453
 20
4457.203303868266
 30
0.0
  0
SEQEND
  5
227
  8
0
  6
CONTINUOUS
 62
     5
  0
ENDSEC
  0
EOF
