  0
SECTION
  2
HEADER
  9
$ACADVER
  1
AC1015
  9
$ACADMAINTVER
 70
     6
  9
$DWGCODEPAGE
  3
ANSI_1252
  9
$INSBASE
 10
0.0
 20
0.0
 30
0.0
  9
$EXTMIN
 10
-2488.47175388677
 20
-11521.96111164104
 30
0.0
  9
$EXTMAX
 10
4405.0
 20
-7885.93652361019
 30
0.0
  9
$LIMMIN
 10
0.0
 20
0.0
  9
$LIMMAX
 10
12.0
 20
9.0
  9
$ORTHOMODE
 70
     0
  9
$REGENMODE
 70
     1
  9
$FILLMODE
 70
     1
  9
$QTEXTMODE
 70
     0
  9
$MIRRTEXT
 70
     1
  9
$LTSCALE
 40
1.0
  9
$ATTMODE
 70
     1
  9
$TEXTSIZE
 40
0.2
  9
$TRACEWID
 40
0.05
  9
$TEXTSTYLE
  7
Standard
  9
$CLAYER
  8
0
  9
$CELTYPE
  6
ByLayer
  9
$CECOLOR
 62
   256
  9
$CELTSCALE
 40
1.0
  9
$DISPSILH
 70
     0
  9
$DIMSCALE
 40
1.0
  9
$DIMASZ
 40
0.18
  9
$DIMEXO
 40
0.0625
  9
$DIMDLI
 40
0.38
  9
$DIMRND
 40
0.0
  9
$DIMDLE
 40
0.0
  9
$DIMEXE
 40
0.18
  9
$DIMTP
 40
0.0
  9
$DIMTM
 40
0.0
  9
$DIMTXT
 40
0.18
  9
$DIMCEN
 40
0.09
  9
$DIMTSZ
 40
0.0
  9
$DIMTOL
 70
     0
  9
$DIMLIM
 70
     0
  9
$DIMTIH
 70
     1
  9
$DIMTOH
 70
     1
  9
$DIMSE1
 70
     0
  9
$DIMSE2
 70
     0
  9
$DIMTAD
 70
     0
  9
$DIMZIN
 70
     0
  9
$DIMBLK
  1

  9
$DIMASO
 70
     1
  9
$DIMSHO
 70
     1
  9
$DIMPOST
  1

  9
$DIMAPOST
  1

  9
$DIMALT
 70
     0
  9
$DIMALTD
 70
     2
  9
$DIMALTF
 40
25.4
  9
$DIMLFAC
 40
1.0
  9
$DIMTOFL
 70
     0
  9
$DIMTVP
 40
0.0
  9
$DIMTIX
 70
     0
  9
$DIMSOXD
 70
     0
  9
$DIMSAH
 70
     0
  9
$DIMBLK1
  1

  9
$DIMBLK2
  1

  9
$DIMSTYLE
  2
Standard
  9
$DIMCLRD
 70
     0
  9
$DIMCLRE
 70
     0
  9
$DIMCLRT
 70
     0
  9
$DIMTFAC
 40
1.0
  9
$DIMGAP
 40
0.09
  9
$DIMJUST
 70
     0
  9
$DIMSD1
 70
     0
  9
$DIMSD2
 70
     0
  9
$DIMTOLJ
 70
     1
  9
$DIMTZIN
 70
     0
  9
$DIMALTZ
 70
     0
  9
$DIMALTTZ
 70
     0
  9
$DIMUPT
 70
     0
  9
$DIMDEC
 70
     4
  9
$DIMTDEC
 70
     4
  9
$DIMALTU
 70
     2
  9
$DIMALTTD
 70
     2
  9
$DIMTXSTY
  7
Standard
  9
$DIMAUNIT
 70
     0
  9
$DIMADEC
 70
     0
  9
$DIMALTRND
 40
0.0
  9
$DIMAZIN
 70
     0
  9
$DIMDSEP
 70
    46
  9
$DIMATFIT
 70
     3
  9
$DIMFRAC
 70
     0
  9
$DIMLDRBLK
  1

  9
$DIMLUNIT
 70
     2
  9
$DIMLWD
 70
    -2
  9
$DIMLWE
 70
    -2
  9
$DIMTMOVE
 70
     0
  9
$LUNITS
 70
     2
  9
$LUPREC
 70
     4
  9
$SKETCHINC
 40
0.1
  9
$FILLETRAD
 40
0.5
  9
$AUNITS
 70
     0
  9
$AUPREC
 70
     0
  9
$MENU
  1
.
  9
$ELEVATION
 40
0.0
  9
$PELEVATION
 40
0.0
  9
$THICKNESS
 40
0.0
  9
$LIMCHECK
 70
     0
  9
$CHAMFERA
 40
0.5
  9
$CHAMFERB
 40
0.5
  9
$CHAMFERC
 40
1.0
  9
$CHAMFERD
 40
0.0
  9
$SKPOLY
 70
     0
  9
$TDCREATE
 40
2456961.395450694
  9
$TDUCREATE
 40
2456961.353784028
  9
$TDUPDATE
 40
2456961.395450706
  9
$TDUUPDATE
 40
2456961.353784039
  9
$TDINDWG
 40
0.0000000116
  9
$TDUSRTIMER
 40
0.0000000116
  9
$USRTIMER
 70
     1
  9
$ANGBASE
 50
0.0
  9
$ANGDIR
 70
     0
  9
$PDMODE
 70
     0
  9
$PDSIZE
 40
0.0
  9
$PLINEWID
 40
0.0
  9
$SPLFRAME
 70
     0
  9
$SPLINETYPE
 70
     6
  9
$SPLINESEGS
 70
     8
  9
$HANDSEED
  5
229
  9
$SURFTAB1
 70
     6
  9
$SURFTAB2
 70
     6
  9
$SURFTYPE
 70
     6
  9
$SURFU
 70
     6
  9
$SURFV
 70
     6
  9
$UCSBASE
  2

  9
$UCSNAME
  2

  9
$UCSORG
 10
0.0
 20
0.0
 30
0.0
  9
$UCSXDIR
 10
1.0
 20
0.0
 30
0.0
  9
$UCSYDIR
 10
0.0
 20
1.0
 30
0.0
  9
$UCSORTHOREF
  2

  9
$UCSORTHOVIEW
 70
     0
  9
$UCSORGTOP
 10
0.0
 20
0.0
 30
0.0
  9
$UCSORGBOTTOM
 10
0.0
 20
0.0
 30
0.0
  9
$UCSORGLEFT
 10
0.0
 20
0.0
 30
0.0
  9
$UCSORGRIGHT
 10
0.0
 20
0.0
 30
0.0
  9
$UCSORGFRONT
 10
0.0
 20
0.0
 30
0.0
  9
$UCSORGBACK
 10
0.0
 20
0.0
 30
0.0
  9
$PUCSBASE
  2

  9
$PUCSNAME
  2

  9
$PUCSORG
 10
0.0
 20
0.0
 30
0.0
  9
$PUCSXDIR
 10
1.0
 20
0.0
 30
0.0
  9
$PUCSYDIR
 10
0.0
 20
1.0
 30
0.0
  9
$PUCSORTHOREF
  2

  9
$PUCSORTHOVIEW
 70
     0
  9
$PUCSORGTOP
 10
0.0
 20
0.0
 30
0.0
  9
$PUCSORGBOTTOM
 10
0.0
 20
0.0
 30
0.0
  9
$PUCSORGLEFT
 10
0.0
 20
0.0
 30
0.0
  9
$PUCSORGRIGHT
 10
0.0
 20
0.0
 30
0.0
  9
$PUCSORGFRONT
 10
0.0
 20
0.0
 30
0.0
  9
$PUCSORGBACK
 10
0.0
 20
0.0
 30
0.0
  9
$USERI1
 70
     0
  9
$USERI2
 70
     0
  9
$USERI3
 70
     0
  9
$USERI4
 70
     0
  9
$USERI5
 70
     0
  9
$USERR1
 40
17.0
  9
$USERR2
 40
0.0
  9
$USERR3
 40
0.0
  9
$USERR4
 40
0.0
  9
$USERR5
 40
0.0
  9
$WORLDVIEW
 70
     1
  9
$SHADEDGE
 70
     3
  9
$SHADEDIF
 70
    70
  9
$TILEMODE
 70
     1
  9
$MAXACTVP
 70
    64
  9
$PINSBASE
 10
0.0
 20
0.0
 30
0.0
  9
$PLIMCHECK
 70
     0
  9
$PEXTMIN
 10
1.00000000000000E+20
 20
1.00000000000000E+20
 30
1.00000000000000E+20
  9
$PEXTMAX
 10
-1.00000000000000E+20
 20
-1.00000000000000E+20
 30
-1.00000000000000E+20
  9
$PLIMMIN
 10
0.0
 20
0.0
  9
$PLIMMAX
 10
12.0
 20
9.0
  9
$UNITMODE
 70
     0
  9
$VISRETAIN
 70
     1
  9
$PLINEGEN
 70
     0
  9
$PSLTSCALE
 70
     1
  9
$TREEDEPTH
 70
  3020
  9
$CMLSTYLE
  2
Standard
  9
$CMLJUST
 70
     0
  9
$CMLSCALE
 40
1.0
  9
$PROXYGRAPHICS
 70
     1
  9
$MEASUREMENT
 70
     1
  9
$CELWEIGHT
370
    -1
  9
$ENDCAPS
280
     0
  9
$JOINSTYLE
280
     0
  9
$LWDISPLAY
290
     0
  9
$INSUNITS
 70
     1
  9
$HYPERLINKBASE
  1

  9
$STYLESHEET
  1

  9
$XEDIT
290
     1
  9
$CEPSNTYPE
380
     0
  9
$PSTYLEMODE
290
     1
  9
$FINGERPRINTGUID
  2
{D76B9BB2-B3AB-4D76-B5D1-28A4E07E791F}
  9
$VERSIONGUID
  2
{FAEB1C32-E019-11D5-929B-00C0DF256EC4}
  9
$EXTNAMES
290
     1
  9
$PSVPSCALE
 40
0.0
  9
$OLESTARTUP
290
     0
  0
ENDSEC
  0
SECTION
  2
CLASSES
  0
CLASS
  1
ACDBDICTIONARYWDFLT
  2
AcDbDictionaryWithDefault
  3
ObjectDBX Classes
 90
        0
280
     0
281
     0
  0
CLASS
  1
VISUALSTYLE
  2
AcDbVisualStyle
  3
ObjectDBX Classes
 90
     4095
280
     0
281
     0
  0
CLASS
  1
MATERIAL
  2
AcDbMaterial
  3
ObjectDBX Classes
 90
     1153
280
     0
281
     0
  0
CLASS
  1
DICTIONARYVAR
  2
AcDbDictionaryVar
  3
ObjectDBX Classes
 90
        0
280
     0
281
     0
  0
CLASS
  1
ACDBPLACEHOLDER
  2
AcDbPlaceHolder
  3
ObjectDBX Classes
 90
        0
280
     0
281
     0
  0
CLASS
  1
LAYOUT
  2
AcDbLayout
  3
ObjectDBX Classes
 90
        0
280
     0
281
     0
  0
ENDSEC
  0
SECTION
  2
TABLES
  0
TABLE
  2
VPORT
  5
8
330
0
100
AcDbSymbolTable
 70
     1
  0
VPORT
  5
29
330
8
100
AcDbSymbolTableRecord
100
AcDbViewportTableRecord
  2
*Active
 70
     0
 10
0.0
 20
0.0
 11
1.0
 21
1.0
 12
958.2641230566151
 22
-9703.948817625615
 13
0.0
 23
0.0
 14
0.5
 24
0.5
 15
0.5
 25
0.5
 16
0.0
 26
0.0
 36
1.0
 17
0.0
 27
0.0
 37
0.0
 40
4731.3410589351
 41
1.60267857142857
 42
50.0
 43
0.0
 44
0.0
 50
0.0
 51
0.0
 71
     0
 72
   100
 73
     1
 74
     3
 75
     0
 76
     0
 77
     0
 78
     0
281
     0
 65
     1
110
0.0
120
0.0
130
0.0
111
1.0
121
0.0
131
0.0
112
0.0
122
1.0
132
0.0
 79
     0
146
0.0
  0
ENDTAB
  0
TABLE
  2
LTYPE
  5
5
330
0
100
AcDbSymbolTable
 70
     8
  0
LTYPE
  5
14
330
5
100
AcDbSymbolTableRecord
100
AcDbLinetypeTableRecord
  2
ByBlock
 70
     0
  3

 72
    65
 73
     0
 40
0.0
  0
LTYPE
  5
15
330
5
100
AcDbSymbolTableRecord
100
AcDbLinetypeTableRecord
  2
ByLayer
 70
     0
  3

 72
    65
 73
     0
 40
0.0
  0
LTYPE
  5
16
330
5
100
AcDbSymbolTableRecord
100
AcDbLinetypeTableRecord
  2
Continuous
 70
     0
  3
Solid line
 72
    65
 73
     0
 40
0.0
  0
LTYPE
  5
3F
330
5
100
AcDbSymbolTableRecord
100
AcDbLinetypeTableRecord
  2
DASHED
 70
     0
  3
Dashed
 72
    65
 73
     2
 40
15.0
 49
7.0
 74
     0
 49
-8.0
 74
     0
  0
LTYPE
  5
40
330
5
100
AcDbSymbolTableRecord
100
AcDbLinetypeTableRecord
  2
DOTTED
 70
     0
  3
Dotted
 72
    65
 73
     2
 40
1.0
 49
0.0
 74
     0
 49
-1.0
 74
     0
  0
LTYPE
  5
41
330
5
100
AcDbSymbolTableRecord
100
AcDbLinetypeTableRecord
  2
DOT_CENTER
 70
     0
  3
Dot_Center
 72
    65
 73
     4
 40
14.0
 49
12.0
 74
     0
 49
-1.0
 74
     0
 49
0.0
 74
     0
 49
-1.0
 74
     0
  0
LTYPE
  5
42
330
5
100
AcDbSymbolTableRecord
100
AcDbLinetypeTableRecord
  2
LONG_DASHED
 70
     0
  3
Long_Dashed
 72
    65
 73
     2
 40
15.0
 49
10.0
 74
     0
 49
-5.0
 74
     0
  0
LTYPE
  5
43
330
5
100
AcDbSymbolTableRecord
100
AcDbLinetypeTableRecord
  2
DASH_CENTER
 70
     0
  3
Dash_Center
 72
    65
 73
     4
 40
14.0
 49
11.0
 74
     0
 49
-1.0
 74
     0
 49
1.0
 74
     0
 49
-1.0
 74
     0
  0
LTYPE
  5
44
330
5
100
AcDbSymbolTableRecord
100
AcDbLinetypeTableRecord
  2
PHANTOM
 70
     0
  3
Phantom
 72
    65
 73
     6
 40
13.0
 49
10.0
 74
     0
 49
-1.0
 74
     0
 49
0.0
 74
     0
 49
-1.0
 74
     0
 49
0.0
 74
     0
 49
-1.0
 74
     0
  0
LTYPE
  5
45
330
5
100
AcDbSymbolTableRecord
100
AcDbLinetypeTableRecord
  2
CENTER_DASH_DASH
 70
     0
  3
Center_Dash_Dash
 72
    65
 73
     6
 40
14.0
 49
9.0
 74
     0
 49
-1.0
 74
     0
 49
1.0
 74
     0
 49
-1.0
 74
     0
 49
1.0
 74
     0
 49
-1.0
 74
     0
  0
ENDTAB
  0
TABLE
  2
LAYER
  5
2
330
0
100
AcDbSymbolTable
 70
     2
  0
LAYER
  5
10
330
2
100
AcDbSymbolTableRecord
100
AcDbLayerTableRecord
  2
0
 70
     0
 62
     7
  6
Continuous
370
    -3
390
F
  0
LAYER
  5
46
330
2
100
AcDbSymbolTableRecord
100
AcDbLayerTableRecord
  2
1
 70
     0
 62
     7
  6
Continuous
370
    -3
390
F
  0
ENDTAB
  0
TABLE
  2
STYLE
  5
3
330
0
100
AcDbSymbolTable
 70
     1
  0
STYLE
  5
11
330
3
100
AcDbSymbolTableRecord
100
AcDbTextStyleTableRecord
  2
Standard
 70
     0
 40
0.0
 41
1.0
 50
0.0
 71
     0
 42
0.2
  3
txt
  4

  0
ENDTAB
  0
TABLE
  2
VIEW
  5
6
330
0
100
AcDbSymbolTable
 70
     0
  0
ENDTAB
  0
TABLE
  2
UCS
  5
7
330
0
100
AcDbSymbolTable
 70
     0
  0
ENDTAB
  0
TABLE
  2
APPID
  5
9
330
0
100
AcDbSymbolTable
 70
     1
  0
APPID
  5
12
330
9
100
AcDbSymbolTableRecord
100
AcDbRegAppTableRecord
  2
ACAD
 70
     0
  0
ENDTAB
  0
TABLE
  2
DIMSTYLE
  5
A
330
0
100
AcDbSymbolTable
 70
     1
100
AcDbDimStyleTable
  0
DIMSTYLE
105
27
330
A
100
AcDbSymbolTableRecord
100
AcDbDimStyleTableRecord
  2
Standard
 70
     0
340
11
  0
ENDTAB
  0
TABLE
  2
BLOCK_RECORD
  5
1
330
0
100
AcDbSymbolTable
 70
     1
  0
BLOCK_RECORD
  5
1F
330
1
100
AcDbSymbolTableRecord
100
AcDbBlockTableRecord
  2
*Model_Space
340
22
  0
BLOCK_RECORD
  5
1B
330
1
100
AcDbSymbolTableRecord
100
AcDbBlockTableRecord
  2
*Paper_Space
340
1E
  0
BLOCK_RECORD
  5
23
330
1
100
AcDbSymbolTableRecord
100
AcDbBlockTableRecord
  2
*Paper_Space0
340
26
  0
ENDTAB
  0
ENDSEC
  0
SECTION
  2
BLOCKS
  0
BLOCK
  5
20
330
1F
100
AcDbEntity
  8
0
100
AcDbBlockBegin
  2
*Model_Space
 70
     0
 10
0.0
 20
0.0
 30
0.0
  3
*Model_Space
  1

  0
ENDBLK
  5
21
330
1F
100
AcDbEntity
  8
0
100
AcDbBlockEnd
  0
BLOCK
  5
1C
330
1B
100
AcDbEntity
 67
     1
  8
0
100
AcDbBlockBegin
  2
*Paper_Space
 70
     0
 10
0.0
 20
0.0
 30
0.0
  3
*Paper_Space
  1

  0
ENDBLK
  5
1D
330
1B
100
AcDbEntity
 67
     1
  8
0
100
AcDbBlockEnd
  0
BLOCK
  5
24
330
23
100
AcDbEntity
  8
0
100
AcDbBlockBegin
  2
*Paper_Space0
 70
     0
 10
0.0
 20
0.0
 30
0.0
  3
*Paper_Space0
  1

  0
ENDBLK
  5
25
330
23
100
AcDbEntity
  8
0
100
AcDbBlockEnd
  0
ENDSEC
  0
SECTION
  2
ENTITIES
  0
LINE
  5
47
330
1F
100
AcDbEntity
  8
1
  6
Continuous
 62
     7
100
AcDbLine
 10
-2006.18447768432
 20
-8589.05702712582
 30
0.0
 11
-2013.72356202906
 21
-8559.43919577147
 31
0.0
  0
LINE
  5
48
330
1F
100
AcDbEntity
  8
1
  6
Continuous
 62
     7
100
AcDbLine
 10
-1972.26607659701
 20
-8580.42325230359
 30
0.0
 11
-2006.18447768432
 21
-8589.05702712582
 31
0.0
  0
LINE
  5
49
330
1F
100
AcDbEntity
  8
1
  6
Continuous
 62
     7
100
AcDbLine
 10
-2013.72356202906
 20
-8559.43919577147
 30
0.0
 11
-1979.80516094176
 21
-8550.80542094924
 31
0.0
  0
LINE
  5
4A
330
1F
100
AcDbEntity
  8
1
  6
Continuous
 62
     7
100
AcDbLine
 10
-1971.22001931168
 20
-8543.99429557126
 30
0.0
 11
-1961.09792035175
 21
-8583.75968434238
 31
0.0
  0
LINE
  5
4B
330
1F
100
AcDbEntity
  8
1
  6
Continuous
 62
     7
100
AcDbLine
 10
-1980.9988043839
 20
-8546.11610742655
 30
0.0
 11
-1970.9076988598
 21
-8585.75973627121
 31
0.0
  0
LINE
  5
4C
330
1F
100
AcDbEntity
  8
1
  6
Continuous
 62
     7
100
AcDbLine
 10
-2009.19962909091
 20
-8455.83327437548
 30
0.0
 11
-1961.26741127149
 21
-8541.83476741159
 31
0.0
  0
LINE
  5
4D
330
1F
100
AcDbEntity
  8
1
  6
Continuous
 62
     7
100
AcDbLine
 10
-1987.26100453412
 20
-8130.77576853597
 30
0.0
 11
-1985.26100453412
 21
-8260.04372698368
 31
0.0
  0
LINE
  5
4E
330
1F
100
AcDbEntity
  8
1
  6
Continuous
 62
     1
100
AcDbLine
 10
-1787.27458806097
 20
-8792.97307058418
 30
0.0
 11
-1776.00827467505
 21
-8887.2003683301
 31
0.0
  0
LINE
  5
4F
330
1F
100
AcDbEntity
  8
1
  6
Continuous
 62
     1
100
AcDbLine
 10
-1283.83306211129
 20
-8724.21884823573
 30
0.0
 11
-1284.16569822442
 21
-8750.93278515204
 31
0.0
  0
LINE
  5
50
330
1F
100
AcDbEntity
  8
1
  6
Continuous
 62
     7
100
AcDbLine
 10
-1970.9076988598
 20
-8585.75973627121
 30
0.0
 11
-1867.9076988598
 21
-8564.75973627121
 31
0.0
  0
LINE
  5
51
330
1F
100
AcDbEntity
  8
1
  6
Continuous
 62
     7
100
AcDbLine
 10
-1980.9988043839
 20
-8546.11610742655
 30
0.0
 11
-1874.9988043839
 21
-8523.11610742655
 31
0.0
  0
LINE
  5
52
330
1F
100
AcDbEntity
  8
1
  6
Continuous
 62
     7
100
AcDbLine
 10
-1453.92921570514
 20
-8560.20077400244
 30
0.0
 11
-1475.92921570514
 21
-8596.20077400244
 31
0.0
  0
LINE
  5
53
330
1F
100
AcDbEntity
  8
1
  6
Continuous
 62
     7
100
AcDbLine
 10
-1298.88504669557
 20
-8679.70054105876
 30
0.0
 11
-1329.2321258548
 21
-8681.60528561754
 31
0.0
  0
LINE
  5
54
330
1F
100
AcDbEntity
  8
1
  6
Continuous
 62
     5
100
AcDbLine
 10
-1666.0
 20
-8982.0
 30
0.0
 11
-1666.0
 21
-9052.54265078093
 31
0.0
  0
LINE
  5
55
330
1F
100
AcDbEntity
  8
1
  6
Continuous
 62
     7
100
AcDbLine
 10
-1742.0
 20
-8982.0
 30
0.0
 11
-1666.0
 21
-8982.0
 31
0.0
  0
LINE
  5
56
330
1F
100
AcDbEntity
  8
1
  6
Continuous
 62
     5
100
AcDbLine
 10
-1742.0
 20
-9051.82507682491
 30
0.0
 11
-1742.0
 21
-8982.0
 31
0.0
  0
LINE
  5
57
330
1F
100
AcDbEntity
  8
1
  6
Continuous
 62
     5
100
AcDbLine
 10
-1666.0
 20
-9096.39784220136
 30
0.0
 11
-1666.0
 21
-9084.55631287182
 31
0.0
  0
LINE
  5
58
330
1F
100
AcDbEntity
  8
1
  6
Continuous
 62
     5
100
AcDbLine
 10
-1742.0
 20
-9096.39784220136
 30
0.0
 11
-1666.0
 21
-9096.39784220136
 31
0.0
  0
LINE
  5
59
330
1F
100
AcDbEntity
  8
1
  6
Continuous
 62
     5
100
AcDbLine
 10
-1742.0
 20
-9089.33527291844
 30
0.0
 11
-1742.0
 21
-9096.39784220136
 31
0.0
  0
LINE
  5
5A
330
1F
100
AcDbEntity
  8
1
  6
Continuous
 62
     5
100
AcDbLine
 10
-1435.0
 20
-9133.0
 30
0.0
 11
-1435.0
 21
-9100.08899468676
 31
0.0
  0
LINE
  5
5B
330
1F
100
AcDbEntity
  8
1
  6
Continuous
 62
     5
100
AcDbLine
 10
-1435.0
 20
-9133.0
 30
0.0
 11
-1468.0
 21
-9133.0
 31
0.0
  0
LINE
  5
5C
330
1F
100
AcDbEntity
  8
1
  6
Continuous
 62
     5
100
AcDbLine
 10
-1468.0
 20
-9121.7916702471
 30
0.0
 11
-1468.0
 21
-9133.0
 31
0.0
  0
LINE
  5
5D
330
1F
100
AcDbEntity
  8
1
  6
Continuous
 62
     5
100
AcDbLine
 10
-1783.54603458035
 20
-9133.0
 30
0.0
 11
-1783.54603458035
 21
-9111.52148755313
 31
0.0
  0
LINE
  5
5E
330
1F
100
AcDbEntity
  8
1
  6
Continuous
 62
     5
100
AcDbLine
 10
-1816.27955089544
 20
-9133.0
 30
0.0
 11
-1783.54603458035
 21
-9133.0
 31
0.0
  0
LINE
  5
5F
330
1F
100
AcDbEntity
  8
1
  6
Continuous
 62
     5
100
AcDbLine
 10
-1816.27955089544
 20
-9104.82445017215
 30
0.0
 11
-1816.27955089544
 21
-9133.0
 31
0.0
  0
LINE
  5
60
330
1F
100
AcDbEntity
  8
1
  6
Continuous
 62
     5
100
AcDbLine
 10
-2032.7717232836
 20
-9098.55253610202
 30
0.0
 11
-2000.0
 21
-9121.7916702471
 31
0.0
  0
LINE
  5
61
330
1F
100
AcDbEntity
  8
1
  6
Continuous
 62
     5
100
AcDbLine
 10
-2032.7717232836
 20
-9133.0
 30
0.0
 11
-2032.7717232836
 21
-9098.55253610202
 31
0.0
  0
LINE
  5
62
330
1F
100
AcDbEntity
  8
1
  6
Continuous
 62
     5
100
AcDbLine
 10
-2000.0
 20
-9133.0
 30
0.0
 11
-2000.0
 21
-9121.7916702471
 31
0.0
  0
LINE
  5
63
330
1F
100
AcDbEntity
  8
1
  6
Continuous
 62
     5
100
AcDbLine
 10
-2032.7717232836
 20
-9133.0
 30
0.0
 11
-2000.0
 21
-9133.0
 31
0.0
  0
LINE
  5
64
330
1F
100
AcDbEntity
  8
1
  6
Continuous
 62
     7
100
AcDbLine
 10
-350.423877585613
 20
-8742.63294247844
 30
0.0
 11
-402.0
 21
-8742.63294247844
 31
0.0
  0
LINE
  5
65
330
1F
100
AcDbEntity
  8
1
  6
Continuous
 62
     7
100
AcDbLine
 10
-402.0
 20
-8742.63294247844
 30
0.0
 11
-402.0
 21
-8577.8818373562
 31
0.0
  0
LINE
  5
66
330
1F
100
AcDbEntity
  8
1
  6
Continuous
 62
     7
100
AcDbLine
 10
-350.423877585613
 20
-8710.63294247844
 30
0.0
 11
-368.423877585613
 21
-8710.63294247844
 31
0.0
  0
LINE
  5
67
330
1F
100
AcDbEntity
  8
1
  6
Continuous
 62
     7
100
AcDbLine
 10
-368.423877585613
 20
-8710.63294247844
 30
0.0
 11
-368.423877585613
 21
-8577.63294247844
 31
0.0
  0
LINE
  5
68
330
1F
100
AcDbEntity
  8
1
  6
Continuous
 62
     7
100
AcDbLine
 10
-368.423877585613
 20
-8587.69909963825
 30
0.0
 11
-366.423877585613
 21
-8587.69909963825
 31
0.0
  0
LINE
  5
69
330
1F
100
AcDbEntity
  8
1
  6
Continuous
 62
     7
100
AcDbLine
 10
-402.0
 20
-8587.69909963825
 30
0.0
 11
-404.0
 21
-8587.69909963825
 31
0.0
  0
LINE
  5
6A
330
1F
100
AcDbEntity
  8
1
  6
Continuous
 62
     7
100
AcDbLine
 10
-404.0
 20
-8587.69909963825
 30
0.0
 11
-404.0
 21
-8524.69909963825
 31
0.0
  0
LINE
  5
6B
330
1F
100
AcDbEntity
  8
1
  6
Continuous
 62
     7
100
AcDbLine
 10
-366.423877585613
 20
-8587.69909963825
 30
0.0
 11
-366.423877585613
 21
-8524.69909963825
 31
0.0
  0
LINE
  5
6C
330
1F
100
AcDbEntity
  8
1
  6
Continuous
 62
     7
100
AcDbLine
 10
-351.843374888855
 20
-8611.74213118393
 30
0.0
 11
-348.843374888855
 21
-8848.74213118393
 31
0.0
  0
LINE
  5
6D
330
1F
100
AcDbEntity
  8
1
  6
Continuous
 62
     7
100
AcDbLine
 10
-348.843374888855
 20
-8848.74213118393
 30
0.0
 11
-321.457317958118
 21
-9065.0
 31
0.0
  0
LINE
  5
6E
330
1F
100
AcDbEntity
  8
1
  6
Continuous
 62
     1
100
AcDbLine
 10
-311.776662369858
 20
-9065.0
 30
0.0
 11
-338.776662369858
 21
-8849.0
 31
0.0
  0
LINE
  5
6F
330
1F
100
AcDbEntity
  8
1
  6
Continuous
 62
     1
100
AcDbLine
 10
-338.776662369858
 20
-8849.0
 30
0.0
 11
-341.776662369858
 21
-8694.0
 31
0.0
  0
LINE
  5
70
330
1F
100
AcDbEntity
  8
1
  6
Continuous
 62
     1
100
AcDbLine
 10
-341.776662369858
 20
-8694.0
 30
0.0
 11
-341.776662369858
 21
-8581.0
 31
0.0
  0
LINE
  5
71
330
1F
100
AcDbEntity
  8
1
  6
Continuous
 62
     7
100
AcDbLine
 10
-351.843374888855
 20
-8611.74213118393
 30
0.0
 11
-343.843374888855
 21
-8316.74213118393
 31
0.0
  0
LINE
  5
72
330
1F
100
AcDbEntity
  8
1
  6
Continuous
 62
     7
100
AcDbLine
 10
-335.260858192204
 20
-8006.0
 30
0.0
 11
-343.843374888855
 21
-8316.74213118393
 31
0.0
  0
LINE
  5
73
330
1F
100
AcDbEntity
  8
1
  6
Continuous
 62
     1
100
AcDbLine
 10
-325.2225407537
 20
-8006.0
 30
0.0
 11
-338.776662369858
 21
-8577.8818373562
 31
0.0
  0
LINE
  5
74
330
1F
100
AcDbEntity
  8
1
  6
Continuous
 62
     7
100
AcDbLine
 10
-335.260858192204
 20
-8006.0
 30
0.0
 11
-325.2225407537
 21
-8006.0
 31
0.0
  0
LINE
  5
75
330
1F
100
AcDbEntity
  8
1
  6
Continuous
 62
     1
100
AcDbLine
 10
-262.678939318059
 20
-8336.25977205085
 30
0.0
 11
-68.0
 21
-8336.25977205085
 31
0.0
  0
LINE
  5
76
330
1F
100
AcDbEntity
  8
1
  6
Continuous
 62
     7
100
AcDbLine
 10
-68.0
 20
-7999.55210780715
 30
0.0
 11
-314.0
 21
-7999.55210780715
 31
0.0
  0
LINE
  5
77
330
1F
100
AcDbEntity
  8
1
  6
Continuous
 62
     5
100
AcDbLine
 10
-348.792819914686
 20
-9133.0
 30
0.0
 11
-381.494788241178
 21
-9133.0
 31
0.0
  0
LINE
  5
78
330
1F
100
AcDbEntity
  8
1
  6
Continuous
 62
     5
100
AcDbLine
 10
-381.494788241178
 20
-9133.0
 30
0.0
 11
-381.494788241178
 21
-9100.0
 31
0.0
  0
LINE
  5
79
330
1F
100
AcDbEntity
  8
1
  6
Continuous
 62
     5
100
AcDbLine
 10
-348.792819914686
 20
-9133.0
 30
0.0
 11
-348.792819914686
 21
-9121.0
 31
0.0
  0
LINE
  5
7A
330
1F
100
AcDbEntity
  8
1
  6
Continuous
 62
     5
100
AcDbLine
 10
-267.766283003254
 20
-9133.0
 30
0.0
 11
-267.766283003254
 21
-9101.0
 31
0.0
  0
LINE
  5
7B
330
1F
100
AcDbEntity
  8
1
  6
Continuous
 62
     5
100
AcDbLine
 10
-267.766283003254
 20
-9133.0
 30
0.0
 11
-234.435445931334
 21
-9133.0
 31
0.0
  0
LINE
  5
7C
330
1F
100
AcDbEntity
  8
1
  6
Continuous
 62
     5
100
AcDbLine
 10
-234.435445931334
 20
-9133.0
 30
0.0
 11
-234.435445931334
 21
-9120.0
 31
0.0
  0
LINE
  5
7D
330
1F
100
AcDbEntity
  8
1
  6
Continuous
 62
     5
100
AcDbLine
 10
-51.9964665310599
 20
-9133.0
 30
0.0
 11
-83.9932441054202
 21
-9133.0
 31
0.0
  0
LINE
  5
7E
330
1F
100
AcDbEntity
  8
1
  6
Continuous
 62
     5
100
AcDbLine
 10
-83.9932441054202
 20
-9133.0
 30
0.0
 11
-83.9932441054202
 21
-9065.0
 31
0.0
  0
LINE
  5
7F
330
1F
100
AcDbEntity
  8
1
  6
Continuous
 62
     5
100
AcDbLine
 10
-51.9964665310599
 20
-9133.0
 30
0.0
 11
-51.9964665310599
 21
-9065.0
 31
0.0
  0
LINE
  5
80
330
1F
100
AcDbEntity
  8
1
  6
Continuous
 62
     5
100
AcDbLine
 10
-83.9932441054202
 20
-9096.39784220136
 30
0.0
 11
-106.99324410542
 21
-9096.39784220136
 31
0.0
  0
LINE
  5
81
330
1F
100
AcDbEntity
  8
1
  6
Continuous
 62
     5
100
AcDbLine
 10
-106.99324410542
 20
-9096.39784220136
 30
0.0
 11
-106.99324410542
 21
-9085.84891406988
 31
0.0
  0
LINE
  5
82
330
1F
100
AcDbEntity
  8
1
  6
Continuous
 62
     7
100
AcDbLine
 10
-321.457317958118
 20
-9065.0
 30
0.0
 11
-68.0
 21
-9065.0
 31
0.0
  0
LINE
  5
83
330
1F
100
AcDbEntity
  8
1
  6
Continuous
 62
     5
100
AcDbLine
 10
-29.0067558945798
 20
-9085.84891406988
 30
0.0
 11
-29.0067558945798
 21
-9096.39784220136
 31
0.0
  0
LINE
  5
84
330
1F
100
AcDbEntity
  8
1
  6
Continuous
 62
     5
100
AcDbLine
 10
98.435445931334
 20
-9120.0
 30
0.0
 11
98.435445931334
 21
-9133.0
 31
0.0
  0
LINE
  5
85
330
1F
100
AcDbEntity
  8
1
  6
Continuous
 62
     5
100
AcDbLine
 10
98.435445931334
 20
-9133.0
 30
0.0
 11
131.766283003254
 21
-9133.0
 31
0.0
  0
LINE
  5
86
330
1F
100
AcDbEntity
  8
1
  6
Continuous
 62
     5
100
AcDbLine
 10
131.766283003254
 20
-9101.0
 30
0.0
 11
131.766283003254
 21
-9133.0
 31
0.0
  0
LINE
  5
87
330
1F
100
AcDbEntity
  8
1
  6
Continuous
 62
     5
100
AcDbLine
 10
212.792819914686
 20
-9121.0
 30
0.0
 11
212.792819914686
 21
-9133.0
 31
0.0
  0
LINE
  5
88
330
1F
100
AcDbEntity
  8
1
  6
Continuous
 62
     5
100
AcDbLine
 10
245.494788241178
 20
-9100.0
 30
0.0
 11
245.494788241178
 21
-9133.0
 31
0.0
  0
LINE
  5
89
330
1F
100
AcDbEntity
  8
1
  6
Continuous
 62
     5
100
AcDbLine
 10
245.494788241178
 20
-9133.0
 30
0.0
 11
212.792819914686
 21
-9133.0
 31
0.0
  0
LINE
  5
8A
330
1F
100
AcDbEntity
  8
1
  6
Continuous
 62
     7
100
AcDbLine
 10
189.2225407537
 20
-8006.0
 30
0.0
 11
199.260858192204
 21
-8006.0
 31
0.0
  0
LINE
  5
8B
330
1F
100
AcDbEntity
  8
1
  6
Continuous
 62
     1
100
AcDbLine
 10
202.776662369858
 20
-8577.8818373562
 30
0.0
 11
189.2225407537
 21
-8006.0
 31
0.0
  0
LINE
  5
8C
330
1F
100
AcDbEntity
  8
1
  6
Continuous
 62
     7
100
AcDbLine
 10
207.843374888855
 20
-8316.74213118393
 30
0.0
 11
199.260858192204
 21
-8006.0
 31
0.0
  0
LINE
  5
8D
330
1F
100
AcDbEntity
  8
1
  6
Continuous
 62
     7
100
AcDbLine
 10
207.843374888855
 20
-8316.74213118393
 30
0.0
 11
215.843374888855
 21
-8611.74213118393
 31
0.0
  0
LINE
  5
8E
330
1F
100
AcDbEntity
  8
1
  6
Continuous
 62
     1
100
AcDbLine
 10
205.776662369858
 20
-8581.0
 30
0.0
 11
205.776662369858
 21
-8694.0
 31
0.0
  0
LINE
  5
8F
330
1F
100
AcDbEntity
  8
1
  6
Continuous
 62
     1
100
AcDbLine
 10
202.776662369858
 20
-8849.0
 30
0.0
 11
175.776662369858
 21
-9065.0
 31
0.0
  0
LINE
  5
90
330
1F
100
AcDbEntity
  8
1
  6
Continuous
 62
     7
100
AcDbLine
 10
185.457317958118
 20
-9065.0
 30
0.0
 11
212.843374888855
 21
-8848.74213118393
 31
0.0
  0
LINE
  5
91
330
1F
100
AcDbEntity
  8
1
  6
Continuous
 62
     7
100
AcDbLine
 10
212.843374888855
 20
-8848.74213118393
 30
0.0
 11
215.843374888855
 21
-8611.74213118393
 31
0.0
  0
LINE
  5
92
330
1F
100
AcDbEntity
  8
1
  6
Continuous
 62
     7
100
AcDbLine
 10
230.423877585613
 20
-8524.69909963825
 30
0.0
 11
230.423877585613
 21
-8587.69909963825
 31
0.0
  0
LINE
  5
93
330
1F
100
AcDbEntity
  8
1
  6
Continuous
 62
     7
100
AcDbLine
 10
268.0
 20
-8524.69909963825
 30
0.0
 11
268.0
 21
-8587.69909963825
 31
0.0
  0
LINE
  5
94
330
1F
100
AcDbEntity
  8
1
  6
Continuous
 62
     7
100
AcDbLine
 10
268.0
 20
-8587.69909963825
 30
0.0
 11
266.0
 21
-8587.69909963825
 31
0.0
  0
LINE
  5
95
330
1F
100
AcDbEntity
  8
1
  6
Continuous
 62
     7
100
AcDbLine
 10
230.423877585613
 20
-8587.69909963825
 30
0.0
 11
232.423877585613
 21
-8587.69909963825
 31
0.0
  0
LINE
  5
96
330
1F
100
AcDbEntity
  8
1
  6
Continuous
 62
     7
100
AcDbLine
 10
232.423877585613
 20
-8577.63294247844
 30
0.0
 11
232.423877585613
 21
-8710.63294247844
 31
0.0
  0
LINE
  5
97
330
1F
100
AcDbEntity
  8
1
  6
Continuous
 62
     7
100
AcDbLine
 10
232.423877585613
 20
-8710.63294247844
 30
0.0
 11
214.423877585613
 21
-8710.63294247844
 31
0.0
  0
LINE
  5
98
330
1F
100
AcDbEntity
  8
1
  6
Continuous
 62
     7
100
AcDbLine
 10
266.0
 20
-8577.8818373562
 30
0.0
 11
266.0
 21
-8742.63294247844
 31
0.0
  0
LINE
  5
99
330
1F
100
AcDbEntity
  8
1
  6
Continuous
 62
     7
100
AcDbLine
 10
266.0
 20
-8742.63294247844
 30
0.0
 11
214.423877585613
 21
-8742.63294247844
 31
0.0
  0
LINE
  5
9A
330
1F
100
AcDbEntity
  8
1
  6
Continuous
 62
     1
100
AcDbLine
 10
-68.0
 20
-8336.25977205085
 30
0.0
 11
126.678939318059
 21
-8336.25977205085
 31
0.0
  0
LINE
  5
9B
330
1F
100
AcDbEntity
  8
1
  6
Continuous
 62
     7
100
AcDbLine
 10
178.0
 20
-7999.55210780715
 30
0.0
 11
-68.0
 21
-7999.55210780715
 31
0.0
  0
LINE
  5
9C
330
1F
100
AcDbEntity
  8
1
  6
Continuous
 62
     5
100
AcDbLine
 10
-29.0067558945798
 20
-9096.39784220136
 30
0.0
 11
-52.0067558945798
 21
-9096.39784220136
 31
0.0
  0
LINE
  5
9D
330
1F
100
AcDbEntity
  8
1
  6
Continuous
 62
     7
100
AcDbLine
 10
-68.0
 20
-9065.0
 30
0.0
 11
185.457317958118
 21
-9065.0
 31
0.0
  0
LINE
  5
9E
330
1F
100
AcDbEntity
  8
1
  6
DASHED
 62
     3
100
AcDbLine
 10
-2137.5374914481
 20
-8654.75921250588
 30
0.0
 11
-1856.66463988524
 21
-8747.10997494964
 31
0.0
  0
LINE
  5
9F
330
1F
100
AcDbEntity
  8
1
  6
Continuous
 62
     5
100
AcDbLine
 10
-2028.57680982332
 20
-9133.0
 30
0.0
 11
-2028.57680982332
 21
-9136.0
 31
0.0
  0
LINE
  5
A0
330
1F
100
AcDbEntity
  8
1
  6
Continuous
 62
     5
100
AcDbLine
 10
-2003.09416364844
 20
-9133.0
 30
0.0
 11
-2003.09416364844
 21
-9136.0
 31
0.0
  0
LINE
  5
A1
330
1F
100
AcDbEntity
  8
1
  6
Continuous
 62
     5
100
AcDbLine
 10
-2028.57680982332
 20
-9136.0
 30
0.0
 11
-2003.09416364844
 21
-9136.0
 31
0.0
  0
LINE
  5
A2
330
1F
100
AcDbEntity
  8
1
  6
Continuous
 62
     5
100
AcDbLine
 10
-1812.12284440367
 20
-9136.0
 30
0.0
 11
-1786.64019822879
 21
-9136.0
 31
0.0
  0
LINE
  5
A3
330
1F
100
AcDbEntity
  8
1
  6
Continuous
 62
     5
100
AcDbLine
 10
-1786.64019822879
 20
-9133.0
 30
0.0
 11
-1786.64019822879
 21
-9136.0
 31
0.0
  0
LINE
  5
A4
330
1F
100
AcDbEntity
  8
1
  6
Continuous
 62
     5
100
AcDbLine
 10
-1812.12284440367
 20
-9133.0
 30
0.0
 11
-1812.12284440367
 21
-9136.0
 31
0.0
  0
LINE
  5
A5
330
1F
100
AcDbEntity
  8
1
  6
Continuous
 62
     5
100
AcDbLine
 10
-1463.57680982332
 20
-9133.0
 30
0.0
 11
-1463.57680982332
 21
-9136.0
 31
0.0
  0
LINE
  5
A6
330
1F
100
AcDbEntity
  8
1
  6
Continuous
 62
     5
100
AcDbLine
 10
-1438.09416364844
 20
-9133.0
 30
0.0
 11
-1438.09416364844
 21
-9136.0
 31
0.0
  0
LINE
  5
A7
330
1F
100
AcDbEntity
  8
1
  6
Continuous
 62
     5
100
AcDbLine
 10
-1463.57680982332
 20
-9136.0
 30
0.0
 11
-1438.09416364844
 21
-9136.0
 31
0.0
  0
LINE
  5
A8
330
1F
100
AcDbEntity
  8
1
  6
Continuous
 62
     5
100
AcDbLine
 10
-377.369629738006
 20
-9136.0
 30
0.0
 11
-351.886983563126
 21
-9136.0
 31
0.0
  0
LINE
  5
A9
330
1F
100
AcDbEntity
  8
1
  6
Continuous
 62
     5
100
AcDbLine
 10
-351.886983563126
 20
-9133.0
 30
0.0
 11
-351.886983563126
 21
-9136.0
 31
0.0
  0
LINE
  5
AA
330
1F
100
AcDbEntity
  8
1
  6
Continuous
 62
     5
100
AcDbLine
 10
-377.369629738006
 20
-9133.0
 30
0.0
 11
-377.369629738006
 21
-9136.0
 31
0.0
  0
LINE
  5
AB
330
1F
100
AcDbEntity
  8
1
  6
Continuous
 62
     5
100
AcDbLine
 10
-263.012255754654
 20
-9133.0
 30
0.0
 11
-263.012255754654
 21
-9136.0
 31
0.0
  0
LINE
  5
AC
330
1F
100
AcDbEntity
  8
1
  6
Continuous
 62
     5
100
AcDbLine
 10
-237.529609579774
 20
-9133.0
 30
0.0
 11
-237.529609579774
 21
-9136.0
 31
0.0
  0
LINE
  5
AD
330
1F
100
AcDbEntity
  8
1
  6
Continuous
 62
     5
100
AcDbLine
 10
-263.012255754654
 20
-9136.0
 30
0.0
 11
-237.529609579774
 21
-9136.0
 31
0.0
  0
LINE
  5
AE
330
1F
100
AcDbEntity
  8
1
  6
Continuous
 62
     5
100
AcDbLine
 10
-80.5732763543798
 20
-9136.0
 30
0.0
 11
-55.0906301794997
 21
-9136.0
 31
0.0
  0
LINE
  5
AF
330
1F
100
AcDbEntity
  8
1
  6
Continuous
 62
     5
100
AcDbLine
 10
-55.0906301794997
 20
-9133.0
 30
0.0
 11
-55.0906301794997
 21
-9136.0
 31
0.0
  0
LINE
  5
B0
330
1F
100
AcDbEntity
  8
1
  6
Continuous
 62
     5
100
AcDbLine
 10
-80.5732763543798
 20
-9133.0
 30
0.0
 11
-80.5732763543798
 21
-9136.0
 31
0.0
  0
LINE
  5
B1
330
1F
100
AcDbEntity
  8
1
  6
Continuous
 62
     5
100
AcDbLine
 10
103.189473179934
 20
-9133.0
 30
0.0
 11
103.189473179934
 21
-9136.0
 31
0.0
  0
LINE
  5
B2
330
1F
100
AcDbEntity
  8
1
  6
Continuous
 62
     5
100
AcDbLine
 10
128.672119354814
 20
-9133.0
 30
0.0
 11
128.672119354814
 21
-9136.0
 31
0.0
  0
LINE
  5
B3
330
1F
100
AcDbEntity
  8
1
  6
Continuous
 62
     5
100
AcDbLine
 10
103.189473179934
 20
-9136.0
 30
0.0
 11
128.672119354814
 21
-9136.0
 31
0.0
  0
LINE
  5
B4
330
1F
100
AcDbEntity
  8
1
  6
Continuous
 62
     5
100
AcDbLine
 10
216.917978417858
 20
-9136.0
 30
0.0
 11
242.400624592738
 21
-9136.0
 31
0.0
  0
LINE
  5
B5
330
1F
100
AcDbEntity
  8
1
  6
Continuous
 62
     5
100
AcDbLine
 10
242.400624592738
 20
-9133.0
 30
0.0
 11
242.400624592738
 21
-9136.0
 31
0.0
  0
LINE
  5
B6
330
1F
100
AcDbEntity
  8
1
  6
Continuous
 62
     5
100
AcDbLine
 10
216.917978417858
 20
-9133.0
 30
0.0
 11
216.917978417858
 21
-9136.0
 31
0.0
  0
LINE
  5
B7
330
1F
100
AcDbEntity
  8
1
  6
Continuous
 62
     5
100
AcDbLine
 10
4353.91797841786
 20
-9133.0
 30
0.0
 11
4353.91797841786
 21
-9136.0
 31
0.0
  0
LINE
  5
B8
330
1F
100
AcDbEntity
  8
1
  6
Continuous
 62
     5
100
AcDbLine
 10
4379.40062459274
 20
-9133.0
 30
0.0
 11
4379.40062459274
 21
-9136.0
 31
0.0
  0
LINE
  5
B9
330
1F
100
AcDbEntity
  8
1
  6
Continuous
 62
     5
100
AcDbLine
 10
4353.91797841786
 20
-9136.0
 30
0.0
 11
4379.40062459274
 21
-9136.0
 31
0.0
  0
LINE
  5
BA
330
1F
100
AcDbEntity
  8
1
  6
Continuous
 62
     5
100
AcDbLine
 10
4240.18947317993
 20
-9136.0
 30
0.0
 11
4265.67211935481
 21
-9136.0
 31
0.0
  0
LINE
  5
BB
330
1F
100
AcDbEntity
  8
1
  6
Continuous
 62
     5
100
AcDbLine
 10
4265.67211935481
 20
-9133.0
 30
0.0
 11
4265.67211935481
 21
-9136.0
 31
0.0
  0
LINE
  5
BC
330
1F
100
AcDbEntity
  8
1
  6
Continuous
 62
     5
100
AcDbLine
 10
4240.18947317993
 20
-9133.0
 30
0.0
 11
4240.18947317993
 21
-9136.0
 31
0.0
  0
LINE
  5
BD
330
1F
100
AcDbEntity
  8
1
  6
Continuous
 62
     5
100
AcDbLine
 10
4056.42672364562
 20
-9133.0
 30
0.0
 11
4056.42672364562
 21
-9136.0
 31
0.0
  0
LINE
  5
BE
330
1F
100
AcDbEntity
  8
1
  6
Continuous
 62
     5
100
AcDbLine
 10
4081.9093698205
 20
-9133.0
 30
0.0
 11
4081.9093698205
 21
-9136.0
 31
0.0
  0
LINE
  5
BF
330
1F
100
AcDbEntity
  8
1
  6
Continuous
 62
     5
100
AcDbLine
 10
4056.42672364562
 20
-9136.0
 30
0.0
 11
4081.9093698205
 21
-9136.0
 31
0.0
  0
LINE
  5
C0
330
1F
100
AcDbEntity
  8
1
  6
Continuous
 62
     5
100
AcDbLine
 10
3873.98774424535
 20
-9136.0
 30
0.0
 11
3899.47039042023
 21
-9136.0
 31
0.0
  0
LINE
  5
C1
330
1F
100
AcDbEntity
  8
1
  6
Continuous
 62
     5
100
AcDbLine
 10
3899.47039042023
 20
-9133.0
 30
0.0
 11
3899.47039042023
 21
-9136.0
 31
0.0
  0
LINE
  5
C2
330
1F
100
AcDbEntity
  8
1
  6
Continuous
 62
     5
100
AcDbLine
 10
3873.98774424535
 20
-9133.0
 30
0.0
 11
3873.98774424535
 21
-9136.0
 31
0.0
  0
LINE
  5
C3
330
1F
100
AcDbEntity
  8
1
  6
Continuous
 62
     5
100
AcDbLine
 10
3759.63037026199
 20
-9133.0
 30
0.0
 11
3759.63037026199
 21
-9136.0
 31
0.0
  0
LINE
  5
C4
330
1F
100
AcDbEntity
  8
1
  6
Continuous
 62
     5
100
AcDbLine
 10
3785.11301643687
 20
-9133.0
 30
0.0
 11
3785.11301643687
 21
-9136.0
 31
0.0
  0
LINE
  5
C5
330
1F
100
AcDbEntity
  8
1
  6
Continuous
 62
     5
100
AcDbLine
 10
3759.63037026199
 20
-9136.0
 30
0.0
 11
3785.11301643687
 21
-9136.0
 31
0.0
  0
LINE
  5
C6
330
1F
100
AcDbEntity
  8
1
  6
Continuous
 62
     5
100
AcDbLine
 10
2673.42319017668
 20
-9136.0
 30
0.0
 11
2698.90583635156
 21
-9136.0
 31
0.0
  0
LINE
  5
C7
330
1F
100
AcDbEntity
  8
1
  6
Continuous
 62
     5
100
AcDbLine
 10
2698.90583635156
 20
-9133.0
 30
0.0
 11
2698.90583635156
 21
-9136.0
 31
0.0
  0
LINE
  5
C8
330
1F
100
AcDbEntity
  8
1
  6
Continuous
 62
     5
100
AcDbLine
 10
2673.42319017668
 20
-9133.0
 30
0.0
 11
2673.42319017668
 21
-9136.0
 31
0.0
  0
LINE
  5
C9
330
1F
100
AcDbEntity
  8
1
  6
Continuous
 62
     5
100
AcDbLine
 10
2324.87715559633
 20
-9133.0
 30
0.0
 11
2324.87715559633
 21
-9136.0
 31
0.0
  0
LINE
  5
CA
330
1F
100
AcDbEntity
  8
1
  6
Continuous
 62
     5
100
AcDbLine
 10
2350.35980177121
 20
-9133.0
 30
0.0
 11
2350.35980177121
 21
-9136.0
 31
0.0
  0
LINE
  5
CB
330
1F
100
AcDbEntity
  8
1
  6
Continuous
 62
     5
100
AcDbLine
 10
2324.87715559633
 20
-9136.0
 30
0.0
 11
2350.35980177121
 21
-9136.0
 31
0.0
  0
LINE
  5
CC
330
1F
100
AcDbEntity
  8
1
  6
Continuous
 62
     5
100
AcDbLine
 10
2108.42319017668
 20
-9136.0
 30
0.0
 11
2133.90583635156
 21
-9136.0
 31
0.0
  0
LINE
  5
CD
330
1F
100
AcDbEntity
  8
1
  6
Continuous
 62
     5
100
AcDbLine
 10
2133.90583635156
 20
-9133.0
 30
0.0
 11
2133.90583635156
 21
-9136.0
 31
0.0
  0
LINE
  5
CE
330
1F
100
AcDbEntity
  8
1
  6
Continuous
 62
     5
100
AcDbLine
 10
2108.42319017668
 20
-9133.0
 30
0.0
 11
2108.42319017668
 21
-9136.0
 31
0.0
  0
LINE
  5
CF
330
1F
100
AcDbEntity
  8
1
  6
Continuous
 62
     7
100
AcDbLine
 10
4069.0
 20
-9065.0
 30
0.0
 11
4316.92325109668
 21
-9065.0
 31
0.0
  0
LINE
  5
D0
330
1F
100
AcDbEntity
  8
1
  6
Continuous
 62
     5
100
AcDbLine
 10
4107.99324410542
 20
-9096.39784220136
 30
0.0
 11
4084.99324410542
 21
-9096.39784220136
 31
0.0
  0
LINE
  5
D1
330
1F
100
AcDbEntity
  8
1
  6
Continuous
 62
     7
100
AcDbLine
 10
4315.0
 20
-7886.0
 30
0.0
 11
4069.0
 21
-7886.0
 31
0.0
  0
LINE
  5
D2
330
1F
100
AcDbEntity
  8
1
  6
Continuous
 62
     1
100
AcDbLine
 10
4069.0
 20
-8292.55923099209
 30
0.0
 11
4263.67893931806
 21
-8292.55923099209
 31
0.0
  0
LINE
  5
D3
330
1F
100
AcDbEntity
  8
1
  6
Continuous
 62
     7
100
AcDbLine
 10
4403.0
 20
-8698.93240141968
 30
0.0
 11
4351.42387758561
 21
-8698.93240141968
 31
0.0
  0
LINE
  5
D4
330
1F
100
AcDbEntity
  8
1
  6
Continuous
 62
     7
100
AcDbLine
 10
4403.0
 20
-8534.18129629744
 30
0.0
 11
4403.0
 21
-8698.93240141968
 31
0.0
  0
LINE
  5
D5
330
1F
100
AcDbEntity
  8
1
  6
Continuous
 62
     7
100
AcDbLine
 10
4369.42387758561
 20
-8666.93240141968
 30
0.0
 11
4351.42387758561
 21
-8666.93240141968
 31
0.0
  0
LINE
  5
D6
330
1F
100
AcDbEntity
  8
1
  6
Continuous
 62
     7
100
AcDbLine
 10
4369.42387758561
 20
-8533.93240141968
 30
0.0
 11
4369.42387758561
 21
-8666.93240141968
 31
0.0
  0
LINE
  5
D7
330
1F
100
AcDbEntity
  8
1
  6
Continuous
 62
     7
100
AcDbLine
 10
4367.42387758561
 20
-8543.99855857949
 30
0.0
 11
4369.42387758561
 21
-8543.99855857949
 31
0.0
  0
LINE
  5
D8
330
1F
100
AcDbEntity
  8
1
  6
Continuous
 62
     7
100
AcDbLine
 10
4405.0
 20
-8543.99855857949
 30
0.0
 11
4403.0
 21
-8543.99855857949
 31
0.0
  0
LINE
  5
D9
330
1F
100
AcDbEntity
  8
1
  6
Continuous
 62
     7
100
AcDbLine
 10
4405.0
 20
-8480.99855857949
 30
0.0
 11
4405.0
 21
-8543.99855857949
 31
0.0
  0
LINE
  5
DA
330
1F
100
AcDbEntity
  8
1
  6
Continuous
 62
     7
100
AcDbLine
 10
4367.42387758561
 20
-8480.99855857949
 30
0.0
 11
4367.42387758561
 21
-8543.99855857949
 31
0.0
  0
LINE
  5
DB
330
1F
100
AcDbEntity
  8
1
  6
Continuous
 62
     7
100
AcDbLine
 10
4349.84337488885
 20
-8805.04159012517
 30
0.0
 11
4352.84337488885
 21
-8568.04159012517
 31
0.0
  0
LINE
  5
DC
330
1F
100
AcDbEntity
  8
1
  6
Continuous
 62
     7
100
AcDbLine
 10
4316.92325109668
 20
-9065.0
 30
0.0
 11
4349.84337488885
 21
-8805.04159012517
 31
0.0
  0
LINE
  5
DD
330
1F
100
AcDbEntity
  8
1
  6
Continuous
 62
     1
100
AcDbLine
 10
4339.77666236986
 20
-8805.29945894124
 30
0.0
 11
4307.31409473751
 21
-9065.0
 31
0.0
  0
LINE
  5
DE
330
1F
100
AcDbEntity
  8
1
  6
Continuous
 62
     1
100
AcDbLine
 10
4342.77666236986
 20
-8650.29945894124
 30
0.0
 11
4339.77666236986
 21
-8805.29945894124
 31
0.0
  0
LINE
  5
DF
330
1F
100
AcDbEntity
  8
1
  6
Continuous
 62
     1
100
AcDbLine
 10
4342.77666236986
 20
-8537.29945894124
 30
0.0
 11
4342.77666236986
 21
-8650.29945894124
 31
0.0
  0
LINE
  5
E0
330
1F
100
AcDbEntity
  8
1
  6
Continuous
 62
     7
100
AcDbLine
 10
4344.84337488885
 20
-8273.04159012517
 30
0.0
 11
4352.84337488885
 21
-8568.04159012517
 31
0.0
  0
LINE
  5
E1
330
1F
100
AcDbEntity
  8
1
  6
Continuous
 62
     7
100
AcDbLine
 10
4344.84337488885
 20
-8273.04159012517
 30
0.0
 11
4336.2608581922
 21
-7892.44789219285
 31
0.0
  0
LINE
  5
E2
330
1F
100
AcDbEntity
  8
1
  6
Continuous
 62
     1
100
AcDbLine
 10
4342.77666236986
 20
-8537.29945894124
 30
0.0
 11
4326.2225407537
 21
-7892.44789219285
 31
0.0
  0
LINE
  5
E3
330
1F
100
AcDbEntity
  8
1
  6
Continuous
 62
     7
100
AcDbLine
 10
4326.2225407537
 20
-7892.44789219285
 30
0.0
 11
4336.2608581922
 21
-7892.44789219285
 31
0.0
  0
LINE
  5
E4
330
1F
100
AcDbEntity
  8
1
  6
Continuous
 62
     5
100
AcDbLine
 10
4382.49478824118
 20
-9133.0
 30
0.0
 11
4349.79281991469
 21
-9133.0
 31
0.0
  0
LINE
  5
E5
330
1F
100
AcDbEntity
  8
1
  6
Continuous
 62
     5
100
AcDbLine
 10
4382.49478824118
 20
-9100.0
 30
0.0
 11
4382.49478824118
 21
-9133.0
 31
0.0
  0
LINE
  5
E6
330
1F
100
AcDbEntity
  8
1
  6
Continuous
 62
     5
100
AcDbLine
 10
4349.79281991469
 20
-9121.0
 30
0.0
 11
4349.79281991469
 21
-9133.0
 31
0.0
  0
LINE
  5
E7
330
1F
100
AcDbEntity
  8
1
  6
Continuous
 62
     5
100
AcDbLine
 10
4268.76628300325
 20
-9101.0
 30
0.0
 11
4268.76628300325
 21
-9133.0
 31
0.0
  0
LINE
  5
E8
330
1F
100
AcDbEntity
  8
1
  6
Continuous
 62
     5
100
AcDbLine
 10
4235.43544593133
 20
-9133.0
 30
0.0
 11
4268.76628300325
 21
-9133.0
 31
0.0
  0
LINE
  5
E9
330
1F
100
AcDbEntity
  8
1
  6
Continuous
 62
     5
100
AcDbLine
 10
4235.43544593133
 20
-9120.0
 30
0.0
 11
4235.43544593133
 21
-9133.0
 31
0.0
  0
LINE
  5
EA
330
1F
100
AcDbEntity
  8
1
  6
Continuous
 62
     5
100
AcDbLine
 10
4107.99324410542
 20
-9085.84891406988
 30
0.0
 11
4107.99324410542
 21
-9096.39784220136
 31
0.0
  0
LINE
  5
EB
330
1F
100
AcDbEntity
  8
1
  6
Continuous
 62
     7
100
AcDbLine
 10
3821.07674890332
 20
-9065.0
 30
0.0
 11
4069.0
 21
-9065.0
 31
0.0
  0
LINE
  5
EC
330
1F
100
AcDbEntity
  8
1
  6
Continuous
 62
     5
100
AcDbLine
 10
4030.00675589458
 20
-9096.39784220136
 30
0.0
 11
4030.00675589458
 21
-9085.84891406988
 31
0.0
  0
LINE
  5
ED
330
1F
100
AcDbEntity
  8
1
  6
Continuous
 62
     5
100
AcDbLine
 10
4053.00675589458
 20
-9096.39784220136
 30
0.0
 11
4030.00675589458
 21
-9096.39784220136
 31
0.0
  0
LINE
  5
EE
330
1F
100
AcDbEntity
  8
1
  6
Continuous
 62
     5
100
AcDbLine
 10
4085.00353346894
 20
-9133.0
 30
0.0
 11
4085.00353346894
 21
-9065.0
 31
0.0
  0
LINE
  5
EF
330
1F
100
AcDbEntity
  8
1
  6
Continuous
 62
     5
100
AcDbLine
 10
4053.00675589458
 20
-9133.0
 30
0.0
 11
4053.00675589458
 21
-9065.0
 31
0.0
  0
LINE
  5
F0
330
1F
100
AcDbEntity
  8
1
  6
Continuous
 62
     5
100
AcDbLine
 10
4085.00353346894
 20
-9133.0
 30
0.0
 11
4053.00675589458
 21
-9133.0
 31
0.0
  0
LINE
  5
F1
330
1F
100
AcDbEntity
  8
1
  6
Continuous
 62
     5
100
AcDbLine
 10
3902.56455406867
 20
-9133.0
 30
0.0
 11
3902.56455406867
 21
-9120.0
 31
0.0
  0
LINE
  5
F2
330
1F
100
AcDbEntity
  8
1
  6
Continuous
 62
     5
100
AcDbLine
 10
3869.23371699675
 20
-9133.0
 30
0.0
 11
3902.56455406867
 21
-9133.0
 31
0.0
  0
LINE
  5
F3
330
1F
100
AcDbEntity
  8
1
  6
Continuous
 62
     5
100
AcDbLine
 10
3869.23371699675
 20
-9133.0
 30
0.0
 11
3869.23371699675
 21
-9101.0
 31
0.0
  0
LINE
  5
F4
330
1F
100
AcDbEntity
  8
1
  6
Continuous
 62
     5
100
AcDbLine
 10
3788.20718008531
 20
-9133.0
 30
0.0
 11
3788.20718008531
 21
-9121.0
 31
0.0
  0
LINE
  5
F5
330
1F
100
AcDbEntity
  8
1
  6
Continuous
 62
     5
100
AcDbLine
 10
3755.50521175882
 20
-9133.0
 30
0.0
 11
3755.50521175882
 21
-9100.0
 31
0.0
  0
LINE
  5
F6
330
1F
100
AcDbEntity
  8
1
  6
Continuous
 62
     5
100
AcDbLine
 10
3788.20718008531
 20
-9133.0
 30
0.0
 11
3755.50521175882
 21
-9133.0
 31
0.0
  0
LINE
  5
F7
330
1F
100
AcDbEntity
  8
1
  6
Continuous
 62
     7
100
AcDbLine
 10
4069.0
 20
-7886.0
 30
0.0
 11
3823.0
 21
-7886.0
 31
0.0
  0
LINE
  5
F8
330
1F
100
AcDbEntity
  8
1
  6
Continuous
 62
     1
100
AcDbLine
 10
3874.32106068194
 20
-8292.55923099209
 30
0.0
 11
4069.0
 21
-8292.55923099209
 31
0.0
  0
LINE
  5
F9
330
1F
100
AcDbEntity
  8
1
  6
Continuous
 62
     7
100
AcDbLine
 10
3801.7391418078
 20
-7892.44789219285
 30
0.0
 11
3811.7774592463
 21
-7892.44789219285
 31
0.0
  0
LINE
  5
FA
330
1F
100
AcDbEntity
  8
1
  6
Continuous
 62
     1
100
AcDbLine
 10
3811.7774592463
 20
-7892.44789219285
 30
0.0
 11
3795.22333763014
 21
-8537.29945894124
 31
0.0
  0
LINE
  5
FB
330
1F
100
AcDbEntity
  8
1
  6
Continuous
 62
     7
100
AcDbLine
 10
3801.7391418078
 20
-7892.44789219285
 30
0.0
 11
3793.15662511114
 21
-8273.04159012517
 31
0.0
  0
LINE
  5
FC
330
1F
100
AcDbEntity
  8
1
  6
Continuous
 62
     7
100
AcDbLine
 10
3785.15662511114
 20
-8568.04159012517
 30
0.0
 11
3793.15662511114
 21
-8273.04159012517
 31
0.0
  0
LINE
  5
FD
330
1F
100
AcDbEntity
  8
1
  6
Continuous
 62
     1
100
AcDbLine
 10
3795.22333763014
 20
-8650.29945894124
 30
0.0
 11
3795.22333763014
 21
-8537.29945894124
 31
0.0
  0
LINE
  5
FE
330
1F
100
AcDbEntity
  8
1
  6
Continuous
 62
     1
100
AcDbLine
 10
3798.22333763014
 20
-8805.29945894124
 30
0.0
 11
3795.22333763014
 21
-8650.29945894124
 31
0.0
  0
LINE
  5
FF
330
1F
100
AcDbEntity
  8
1
  6
Continuous
 62
     1
100
AcDbLine
 10
3830.68590526249
 20
-9065.0
 30
0.0
 11
3798.22333763014
 21
-8805.29945894124
 31
0.0
  0
LINE
  5
100
330
1F
100
AcDbEntity
  8
1
  6
Continuous
 62
     7
100
AcDbLine
 10
3788.15662511114
 20
-8805.04159012517
 30
0.0
 11
3821.07674890332
 21
-9065.0
 31
0.0
  0
LINE
  5
101
330
1F
100
AcDbEntity
  8
1
  6
Continuous
 62
     7
100
AcDbLine
 10
3785.15662511114
 20
-8568.04159012517
 30
0.0
 11
3788.15662511114
 21
-8805.04159012517
 31
0.0
  0
LINE
  5
102
330
1F
100
AcDbEntity
  8
1
  6
Continuous
 62
     7
100
AcDbLine
 10
3770.57612241439
 20
-8543.99855857949
 30
0.0
 11
3770.57612241439
 21
-8480.99855857949
 31
0.0
  0
LINE
  5
103
330
1F
100
AcDbEntity
  8
1
  6
Continuous
 62
     7
100
AcDbLine
 10
3733.0
 20
-8543.99855857949
 30
0.0
 11
3733.0
 21
-8480.99855857949
 31
0.0
  0
LINE
  5
104
330
1F
100
AcDbEntity
  8
1
  6
Continuous
 62
     7
100
AcDbLine
 10
3735.0
 20
-8543.99855857949
 30
0.0
 11
3733.0
 21
-8543.99855857949
 31
0.0
  0
LINE
  5
105
330
1F
100
AcDbEntity
  8
1
  6
Continuous
 62
     7
100
AcDbLine
 10
3768.57612241439
 20
-8543.99855857949
 30
0.0
 11
3770.57612241439
 21
-8543.99855857949
 31
0.0
  0
LINE
  5
106
330
1F
100
AcDbEntity
  8
1
  6
Continuous
 62
     7
100
AcDbLine
 10
3768.57612241439
 20
-8666.93240141968
 30
0.0
 11
3768.57612241439
 21
-8533.93240141968
 31
0.0
  0
LINE
  5
107
330
1F
100
AcDbEntity
  8
1
  6
Continuous
 62
     7
100
AcDbLine
 10
3786.57612241439
 20
-8666.93240141968
 30
0.0
 11
3768.57612241439
 21
-8666.93240141968
 31
0.0
  0
LINE
  5
108
330
1F
100
AcDbEntity
  8
1
  6
Continuous
 62
     7
100
AcDbLine
 10
3735.0
 20
-8698.93240141968
 30
0.0
 11
3735.0
 21
-8534.18129629744
 31
0.0
  0
LINE
  5
109
330
1F
100
AcDbEntity
  8
1
  6
Continuous
 62
     7
100
AcDbLine
 10
3786.57612241439
 20
-8698.93240141968
 30
0.0
 11
3735.0
 21
-8698.93240141968
 31
0.0
  0
LINE
  5
10A
330
1F
100
AcDbEntity
  8
1
  6
Continuous
 62
     5
100
AcDbLine
 10
2104.2282767164
 20
-9133.0
 30
0.0
 11
2137.0
 21
-9133.0
 31
0.0
  0
LINE
  5
10B
330
1F
100
AcDbEntity
  8
1
  6
Continuous
 62
     5
100
AcDbLine
 10
2137.0
 20
-9133.0
 30
0.0
 11
2137.0
 21
-9121.7916702471
 31
0.0
  0
LINE
  5
10C
330
1F
100
AcDbEntity
  8
1
  6
Continuous
 62
     5
100
AcDbLine
 10
2104.2282767164
 20
-9133.0
 30
0.0
 11
2104.2282767164
 21
-9098.55253610202
 31
0.0
  0
LINE
  5
10D
330
1F
100
AcDbEntity
  8
1
  6
Continuous
 62
     5
100
AcDbLine
 10
2104.2282767164
 20
-9098.55253610202
 30
0.0
 11
2137.0
 21
-9121.7916702471
 31
0.0
  0
LINE
  5
10E
330
1F
100
AcDbEntity
  8
1
  6
Continuous
 62
     5
100
AcDbLine
 10
2320.72044910456
 20
-9104.82445017215
 30
0.0
 11
2320.72044910456
 21
-9133.0
 31
0.0
  0
LINE
  5
10F
330
1F
100
AcDbEntity
  8
1
  6
Continuous
 62
     5
100
AcDbLine
 10
2320.72044910456
 20
-9133.0
 30
0.0
 11
2353.45396541965
 21
-9133.0
 31
0.0
  0
LINE
  5
110
330
1F
100
AcDbEntity
  8
1
  6
Continuous
 62
     5
100
AcDbLine
 10
2353.45396541965
 20
-9133.0
 30
0.0
 11
2353.45396541965
 21
-9111.52148755313
 31
0.0
  0
LINE
  5
111
330
1F
100
AcDbEntity
  8
1
  6
Continuous
 62
     5
100
AcDbLine
 10
2669.0
 20
-9121.7916702471
 30
0.0
 11
2669.0
 21
-9133.0
 31
0.0
  0
LINE
  5
112
330
1F
100
AcDbEntity
  8
1
  6
Continuous
 62
     5
100
AcDbLine
 10
2702.0
 20
-9133.0
 30
0.0
 11
2669.0
 21
-9133.0
 31
0.0
  0
LINE
  5
113
330
1F
100
AcDbEntity
  8
1
  6
Continuous
 62
     5
100
AcDbLine
 10
2702.0
 20
-9133.0
 30
0.0
 11
2702.0
 21
-9100.08899468676
 31
0.0
  0
LINE
  5
114
330
1F
100
AcDbEntity
  8
1
  6
Continuous
 62
     5
100
AcDbLine
 10
2395.0
 20
-9089.33527291844
 30
0.0
 11
2395.0
 21
-9096.39784220136
 31
0.0
  0
LINE
  5
115
330
1F
100
AcDbEntity
  8
1
  6
Continuous
 62
     5
100
AcDbLine
 10
2395.0
 20
-9096.39784220136
 30
0.0
 11
2471.0
 21
-9096.39784220136
 31
0.0
  0
LINE
  5
116
330
1F
100
AcDbEntity
  8
1
  6
Continuous
 62
     5
100
AcDbLine
 10
2471.0
 20
-9096.39784220136
 30
0.0
 11
2471.0
 21
-9084.55631287182
 31
0.0
  0
LINE
  5
117
330
1F
100
AcDbEntity
  8
1
  6
Continuous
 62
     5
100
AcDbLine
 10
2395.0
 20
-9051.82507682491
 30
0.0
 11
2395.0
 21
-8938.29945894124
 31
0.0
  0
LINE
  5
118
330
1F
100
AcDbEntity
  8
1
  6
Continuous
 62
     7
100
AcDbLine
 10
2395.0
 20
-8938.29945894124
 30
0.0
 11
2471.0
 21
-8938.29945894124
 31
0.0
  0
LINE
  5
119
330
1F
100
AcDbEntity
  8
1
  6
Continuous
 62
     5
100
AcDbLine
 10
2471.0
 20
-8938.29945894124
 30
0.0
 11
2471.0
 21
-9052.54265078093
 31
0.0
  0
LINE
  5
11A
330
1F
100
AcDbEntity
  8
1
  6
Continuous
 62
     7
100
AcDbLine
 10
2838.11495330443
 20
-8636.0
 30
0.0
 11
2807.7678741452
 21
-8637.90474455878
 31
0.0
  0
LINE
  5
11B
330
1F
100
AcDbEntity
  8
1
  6
Continuous
 62
     7
100
AcDbLine
 10
2683.07078429486
 20
-8516.50023294368
 30
0.0
 11
2661.07078429486
 21
-8552.50023294368
 31
0.0
  0
LINE
  5
11C
330
1F
100
AcDbEntity
  8
1
  6
Continuous
 62
     7
100
AcDbLine
 10
2156.0011956161
 20
-8502.41556636779
 30
0.0
 11
2262.0011956161
 21
-8479.41556636779
 31
0.0
  0
LINE
  5
11D
330
1F
100
AcDbEntity
  8
1
  6
Continuous
 62
     7
100
AcDbLine
 10
2166.0923011402
 20
-8542.05919521245
 30
0.0
 11
2269.0923011402
 21
-8521.05919521245
 31
0.0
  0
LINE
  5
11E
330
1F
100
AcDbEntity
  8
1
  6
Continuous
 62
     1
100
AcDbLine
 10
2853.16693788871
 20
-8680.51830717697
 30
0.0
 11
2852.83430177558
 21
-8707.23224409328
 31
0.0
  0
LINE
  5
11F
330
1F
100
AcDbEntity
  8
1
  6
Continuous
 62
     1
100
AcDbLine
 10
2349.72541193903
 20
-8749.27252952542
 30
0.0
 11
2360.99172532495
 21
-8843.49982727134
 31
0.0
  0
LINE
  5
120
330
1F
100
AcDbEntity
  8
1
  6
Continuous
 62
     7
100
AcDbLine
 10
2091.20253027796
 20
-8010.80641282039
 30
0.0
 11
2093.20253027796
 21
-8140.0743712681
 31
0.0
  0
LINE
  5
121
330
1F
100
AcDbEntity
  8
1
  6
Continuous
 62
     7
100
AcDbLine
 10
2156.0011956161
 20
-8502.41556636779
 30
0.0
 11
2166.0923011402
 21
-8542.05919521245
 31
0.0
  0
LINE
  5
122
330
1F
100
AcDbEntity
  8
1
  6
Continuous
 62
     7
100
AcDbLine
 10
2165.77998068832
 20
-8500.2937545125
 30
0.0
 11
2175.90207964825
 21
-8540.05914328362
 31
0.0
  0
LINE
  5
123
330
1F
100
AcDbEntity
  8
1
  6
Continuous
 62
     7
100
AcDbLine
 10
2123.27643797094
 20
-8515.7386547127
 30
0.0
 11
2157.19483905824
 21
-8507.10487989048
 31
0.0
  0
LINE
  5
124
330
1F
100
AcDbEntity
  8
1
  6
Continuous
 62
     7
100
AcDbLine
 10
2164.73392340299
 20
-8536.72271124483
 30
0.0
 11
2130.81552231569
 21
-8545.35648606706
 31
0.0
  0
LINE
  5
125
330
1F
100
AcDbEntity
  8
1
  6
Continuous
 62
     7
100
AcDbLine
 10
2130.81552231569
 20
-8545.35648606706
 30
0.0
 11
2123.27643797094
 21
-8515.7386547127
 31
0.0
  0
LINE
  5
126
330
1F
100
AcDbEntity
  8
1
  6
Continuous
 62
     1
100
AcDbLine
 10
205.776662369858
 20
-8694.0
 30
0.0
 11
202.776662369858
 21
-8849.0
 31
0.0
  0
LINE
  5
127
330
1F
100
AcDbEntity
  8
1
  6
Continuous
 62
     7
100
AcDbLine
 10
-350.591592467406
 20
-11025.9456018167
 30
0.0
 11
-350.591592467406
 21
-11509.0
 31
0.0
  0
LINE
  5
128
330
1F
100
AcDbEntity
  8
1
  6
Continuous
 62
     7
100
AcDbLine
 10
214.676764195234
 20
-11025.9456018167
 30
0.0
 11
214.676764195234
 21
-11509.0
 31
0.0
  0
LINE
  5
129
330
1F
100
AcDbEntity
  8
1
  6
Continuous
 62
     7
100
AcDbLine
 10
-402.0
 20
-11458.2450448258
 30
0.0
 11
-402.0
 21
-11325.4648421955
 31
0.0
  0
LINE
  5
12A
330
1F
100
AcDbEntity
  8
1
  6
Continuous
 62
     7
100
AcDbLine
 10
-368.423877585613
 20
-11325.4648421955
 30
0.0
 11
-368.423877585613
 21
-11458.2450448258
 31
0.0
  0
LINE
  5
12B
330
1F
100
AcDbEntity
  8
1
  6
Continuous
 62
     7
100
AcDbLine
 10
-402.0
 20
-10770.6741959795
 30
0.0
 11
-402.0
 21
-10802.4744827538
 31
0.0
  0
LINE
  5
12C
330
1F
100
AcDbEntity
  8
1
  6
Continuous
 62
     7
100
AcDbLine
 10
-368.423877585613
 20
-10770.6741959795
 30
0.0
 11
-368.423877585613
 21
-10802.4744827538
 31
0.0
  0
LINE
  5
12D
330
1F
100
AcDbEntity
  8
1
  6
Continuous
 62
     7
100
AcDbLine
 10
-404.0
 20
-10803.8698283084
 30
0.0
 11
-404.0
 21
-11324.625934101
 31
0.0
  0
LINE
  5
12E
330
1F
100
AcDbEntity
  8
1
  6
Continuous
 62
     7
100
AcDbLine
 10
-366.423877585613
 20
-11324.625934101
 30
0.0
 11
-366.423877585613
 21
-10803.8698283084
 31
0.0
  0
LINE
  5
12F
330
1F
100
AcDbEntity
  8
1
  6
Continuous
 62
     7
100
AcDbLine
 10
-385.211938792807
 20
-11472.7184438769
 30
0.0
 11
-350.591592467406
 21
-11472.7184438769
 31
0.0
  0
LINE
  5
130
330
1F
100
AcDbEntity
  8
1
  6
Continuous
 62
     7
100
AcDbLine
 10
-368.423877585613
 20
-11443.6338428852
 30
0.0
 11
-350.591592467406
 21
-11443.6338428852
 31
0.0
  0
LINE
  5
131
330
1F
100
AcDbEntity
  8
1
  6
Continuous
 62
     7
100
AcDbLine
 10
213.673419330321
 20
-11472.7184438769
 30
0.0
 11
248.293765655722
 21
-11472.7184438769
 31
0.0
  0
LINE
  5
132
330
1F
100
AcDbEntity
  8
1
  6
Continuous
 62
     7
100
AcDbLine
 10
213.673419330321
 20
-11443.6338428852
 30
0.0
 11
231.505704448528
 21
-11443.6338428852
 31
0.0
  0
LINE
  5
133
330
1F
100
AcDbEntity
  8
1
  6
Continuous
 62
     7
100
AcDbLine
 10
265.081826862915
 20
-11325.4648421955
 30
0.0
 11
265.081826862915
 21
-11458.2450448258
 31
0.0
  0
LINE
  5
134
330
1F
100
AcDbEntity
  8
1
  6
Continuous
 62
     7
100
AcDbLine
 10
231.505704448528
 20
-11458.2450448258
 30
0.0
 11
231.505704448528
 21
-11325.4648421955
 31
0.0
  0
LINE
  5
135
330
1F
100
AcDbEntity
  8
1
  6
Continuous
 62
     7
100
AcDbLine
 10
267.081826862915
 20
-11324.625934101
 30
0.0
 11
267.081826862915
 21
-10803.8698283084
 31
0.0
  0
LINE
  5
136
330
1F
100
AcDbEntity
  8
1
  6
Continuous
 62
     7
100
AcDbLine
 10
229.505704448528
 20
-10803.8698283084
 30
0.0
 11
229.505704448528
 21
-11324.625934101
 31
0.0
  0
LINE
  5
137
330
1F
100
AcDbEntity
  8
1
  6
Continuous
 62
     7
100
AcDbLine
 10
265.081826862915
 20
-10802.4744827538
 30
0.0
 11
265.081826862915
 21
-10770.6741959795
 31
0.0
  0
LINE
  5
138
330
1F
100
AcDbEntity
  8
1
  6
Continuous
 62
     7
100
AcDbLine
 10
231.505704448528
 20
-10802.4744827538
 30
0.0
 11
231.505704448528
 21
-10770.6741959795
 31
0.0
  0
LINE
  5
139
330
1F
100
AcDbEntity
  8
1
  6
Continuous
 62
     1
100
AcDbLine
 10
-343.591592467406
 20
-11025.9456018167
 30
0.0
 11
-343.591592467406
 21
-11509.6353358453
 31
0.0
  0
LINE
  5
13A
330
1F
100
AcDbEntity
  8
1
  6
Continuous
 62
     1
100
AcDbLine
 10
207.676764195234
 20
-11509.6353358453
 30
0.0
 11
207.676764195234
 21
-11025.9456018167
 31
0.0
  0
LINE
  5
13B
330
1F
100
AcDbEntity
  8
1
  6
Continuous
 62
     7
100
AcDbLine
 10
2069.26390572117
 20
-8335.8639186599
 30
0.0
 11
2173.90151584671
 21
-8498.53153461964
 31
0.0
  0
ARC
  5
13C
330
1F
100
AcDbEntity
  8
1
  6
Continuous
 62
     7
100
AcDbCircle
 10
-1409.83861035018
 20
-9052.51013215804
 30
0.0
 40
13.44674916180282
100
AcDbArc
 50
180.1385600073884
 51
332.4481764085766
  0
ARC
  5
13D
330
1F
100
AcDbEntity
  8
1
  6
Continuous
 62
     7
100
AcDbCircle
 10
-1756.7784676603
 20
-8286.42383761938
 30
0.0
 40
303.9999999999965
100
AcDbArc
 50
191.9444758111071
 51
213.8670635057164
  0
ARC
  5
13E
330
1F
100
AcDbEntity
  8
1
  6
Continuous
 62
     7
100
AcDbCircle
 10
-1389.2819280662
 20
-8313.9017768319
 30
0.0
 40
665.858277057472
100
AcDbArc
 50
170.2790733781068
 51
183.0508988970147
  0
ARC
  5
13F
330
1F
100
AcDbEntity
  8
1
  6
Continuous
 62
     7
100
AcDbCircle
 10
-2450.04110890823
 20
-8156.08494391085
 30
0.0
 40
406.9999999999995
100
AcDbArc
 50
353.5972777589588
 51
19.23701911178195
  0
ARC
  5
140
330
1F
100
AcDbEntity
  8
1
  6
Continuous
 62
     7
100
AcDbCircle
 10
-2046.60166550766
 20
-8025.44316260799
 30
0.0
 40
19.47380689240579
100
AcDbArc
 50
62.7483654768648
 51
169.7798512340646
  0
ARC
  5
141
330
1F
100
AcDbEntity
  8
1
  6
Continuous
 62
     7
100
AcDbCircle
 10
-1080.89406000727
 20
-7956.02716345506
 30
0.0
 40
972.0000000000052
100
AcDbArc
 50
205.3328398513843
 51
215.6355562965907
  0
ARC
  5
142
330
1F
100
AcDbEntity
  8
1
  6
Continuous
 62
     7
100
AcDbCircle
 10
-1720.27075436401
 20
-8257.77055413827
 30
0.0
 40
265.000000000005
100
AcDbArc
 50
180.4914898394861
 51
205.5159599647463
  0
ARC
  5
143
330
1F
100
AcDbEntity
  8
1
  6
Continuous
 62
     7
100
AcDbCircle
 10
-2281.13478724989
 20
-8139.3897009905
 30
0.0
 40
294.0000000000115
100
AcDbArc
 50
1.67895447064098
 51
18.4822415044397
  0
ARC
  5
144
330
1F
100
AcDbEntity
  8
1
  6
Continuous
 62
     7
100
AcDbCircle
 10
-2056.32790168855
 20
-8059.87473974361
 30
0.0
 40
55.00000000001661
100
AcDbArc
 50
16.60346720256139
 51
70.18594609307956
  0
ARC
  5
145
330
1F
100
AcDbEntity
  8
1
  6
Continuous
 62
     1
100
AcDbCircle
 10
-2195.17318965296
 20
-8110.91427597391
 30
0.0
 40
185.9999999999677
100
AcDbArc
 50
10.41739467736315
 51
34.04826600039357
  0
ARC
  5
146
330
1F
100
AcDbEntity
  8
1
  6
Continuous
 62
     1
100
AcDbCircle
 10
-3312.40609230338
 20
-8198.69797089833
 30
0.0
 40
1305.82388091808
100
AcDbArc
 50
357.307334377605
 51
5.33508050096489
  0
ARC
  5
147
330
1F
100
AcDbEntity
  8
1
  6
Continuous
 62
     1
100
AcDbCircle
 10
-1777.78026554025
 20
-8278.72082377371
 30
0.0
 40
231.0
100
AcDbArc
 50
175.3623887396514
 51
202.7951269923274
  0
ARC
  5
148
330
1F
100
AcDbEntity
  8
1
  6
Continuous
 62
     1
100
AcDbCircle
 10
-1280.43777240843
 20
-8078.80179741154
 30
0.0
 40
766.999999999997
100
AcDbArc
 50
202.1687901262168
 51
215.9294115542024
  0
ARC
  5
149
330
1F
100
AcDbEntity
  8
1
  6
Continuous
 62
     1
100
AcDbCircle
 10
1965.6268219652
 20
-27077.9858658393
 30
0.0
 40
18666.17159237587
100
AcDbArc
 50
100.231826423518
 51
101.6272371294003
  0
ARC
  5
14A
330
1F
100
AcDbEntity
  8
1
  6
Continuous
 62
     1
100
AcDbCircle
 10
-1306.54398020248
 20
-8727.85398227196
 30
0.0
 40
23.00000000013244
100
AcDbArc
 50
9.09368905891287
 51
108.8715924495344
  0
ARC
  5
14B
330
1F
100
AcDbEntity
  8
1
  6
Continuous
 62
     7
100
AcDbCircle
 10
-1475.98328223269
 20
-8651.22043277977
 30
0.0
 40
174.9999999999441
100
AcDbArc
 50
320.721787414756
 51
328.8742985973518
  0
ARC
  5
14C
330
1F
100
AcDbEntity
  8
1
  6
Continuous
 62
     1
100
AcDbCircle
 10
-85940.6351724004
 20
15385.9666137223
 30
0.0
 40
87978.99999999996
100
AcDbArc
 50
343.8754473227476
 51
344.0693098003082
  0
ARC
  5
14D
330
1F
100
AcDbEntity
  8
1
  6
Continuous
 62
     7
100
AcDbCircle
 10
-1798.57681992356
 20
-8891.80131408142
 30
0.0
 40
15.66153082916452
100
AcDbArc
 50
197.0071242262687
 51
16.31608774611959
  0
ARC
  5
14E
330
1F
100
AcDbEntity
  8
1
  6
Continuous
 62
     7
100
AcDbCircle
 10
-2780.41221213772
 20
-9094.75839326569
 30
0.0
 40
987.0000000000052
100
AcDbArc
 50
11.59480407713245
 51
31.48954890821614
  0
ARC
  5
14F
330
1F
100
AcDbEntity
  8
1
  6
Continuous
 62
     1
100
AcDbCircle
 10
-2579.01687340367
 20
-8950.88484292618
 30
0.0
 40
798.0000000000019
100
AcDbArc
 50
4.562881689093
 51
28.7467029761185
  0
ARC
  5
150
330
1F
100
AcDbEntity
  8
1
  6
Continuous
 62
     7
100
AcDbCircle
 10
-3302.43813177225
 20
-9632.4745768851
 30
0.0
 40
1808.999999999998
100
AcDbArc
 50
32.89884764085264
 51
36.32989688549728
  0
ARC
  5
151
330
1F
100
AcDbEntity
  8
1
  6
Continuous
 62
     7
100
AcDbCircle
 10
-1987.27200710077
 20
-8766.741654698
 30
0.0
 40
234.8523990608893
100
AcDbArc
 50
2.30450451554895
 51
29.83475017474486
  0
ARC
  5
152
330
1F
100
AcDbEntity
  8
1
  6
Continuous
 62
     7
100
AcDbCircle
 10
-1694.89993403303
 20
-9485.78659083548
 30
0.0
 40
937.135077520263
100
AcDbArc
 50
88.23279817708291
 51
100.6385980893848
  0
ARC
  5
153
330
1F
100
AcDbEntity
  8
1
  6
Continuous
 62
     7
100
AcDbCircle
 10
-1701.82367390751
 20
-9432.77888790317
 30
0.0
 40
925.9999999999847
100
AcDbArc
 50
87.78287510294376
 51
100.7785861767841
  0
ARC
  5
154
330
1F
100
AcDbEntity
  8
1
  6
Continuous
 62
     7
100
AcDbCircle
 10
-1660.31409092221
 20
-8937.43449900804
 30
0.0
 40
429.9999999999613
100
AcDbArc
 50
61.31689522410328
 51
90.75764671458404
  0
ARC
  5
155
330
1F
100
AcDbEntity
  8
1
  6
Continuous
 62
     7
100
AcDbCircle
 10
-1668.96240130421
 20
-8968.086763598
 30
0.0
 40
418.9999999999922
100
AcDbArc
 50
62.56773117379448
 51
89.5949057134357
  0
ARC
  5
156
330
1F
100
AcDbEntity
  8
1
  6
Continuous
 62
     7
100
AcDbCircle
 10
-1633.12453140278
 20
-8883.11902084224
 30
0.0
 40
332.4976463423856
100
AcDbArc
 50
26.72003603736299
 51
61.23918122014574
  0
ARC
  5
157
330
1F
100
AcDbEntity
  8
1
  6
Continuous
 62
     7
100
AcDbCircle
 10
-1639.06850006835
 20
-8888.97993114068
 30
0.0
 40
372.9999999999965
100
AcDbArc
 50
27.51541226463487
 51
60.6393547768734
  0
ARC
  5
158
330
1F
100
AcDbEntity
  8
1
  6
Continuous
 62
     7
100
AcDbCircle
 10
-1321.69262412721
 20
-8725.96609017782
 30
0.0
 40
16.34221940815901
100
AcDbArc
 50
207.918027680641
 51
34.7174559988452
  0
ARC
  5
159
330
1F
100
AcDbEntity
  8
1
  6
Continuous
 62
     7
100
AcDbCircle
 10
-1206.23414536163
 20
-10580.1758060256
 30
0.0
 40
1903.000000000054
100
AcDbArc
 50
94.84210299330813
 51
106.6851742345285
  0
ARC
  5
15A
330
1F
100
AcDbEntity
  8
1
  6
Continuous
 62
     7
100
AcDbCircle
 10
-1300.59403845863
 20
-8723.66733929496
 30
0.0
 40
43.99999999987327
100
AcDbArc
 50
347.3838061812783
 51
87.77403063965211
  0
ARC
  5
15B
330
1F
100
AcDbEntity
  8
1
  6
Continuous
 62
     7
100
AcDbCircle
 10
-2940.47707754522
 20
-8200.9812259771
 30
0.0
 40
1764.999999999998
100
AcDbArc
 50
330.9235231897729
 51
342.4472063344876
  0
ARC
  5
15C
330
1F
100
AcDbEntity
  8
1
  6
Continuous
 62
     1
100
AcDbCircle
 10
-3010.69014223412
 20
-8287.78720776777
 30
0.0
 40
1787.565518131744
100
AcDbArc
 50
334.4511281169385
 51
344.9837537052291
  0
ARC
  5
15D
330
1F
100
AcDbEntity
  8
1
  6
Continuous
 62
     7
100
AcDbCircle
 10
-184.474659374048
 20
-9211.75680418679
 30
0.0
 40
1248.999999999993
100
AcDbArc
 50
160.6606279801578
 51
172.6763916519768
  0
ARC
  5
15E
330
1F
100
AcDbEntity
  8
1
  6
Continuous
 62
     1
100
AcDbCircle
 10
-1899.57937388839
 20
-7637.29389845357
 30
0.0
 40
1255.999999999997
100
AcDbArc
 50
275.302611575834
 51
296.4304841064316
  0
ARC
  5
15F
330
1F
100
AcDbEntity
  8
1
  6
Continuous
 62
     7
100
AcDbCircle
 10
-1652.62469781433
 20
-8592.85059865144
 30
0.0
 40
354.9999999999914
100
AcDbArc
 50
301.336918318732
 51
331.5424843002133
  0
ARC
  5
160
330
1F
100
AcDbEntity
  8
1
  6
Continuous
 62
     7
100
AcDbCircle
 10
-2272.38317324574
 20
-7313.79004702513
 30
0.0
 40
1774.999999999998
100
AcDbArc
 50
289.9758675351674
 51
296.9474830849097
  0
ARC
  5
161
330
1F
100
AcDbEntity
  8
1
  6
Continuous
 62
     7
100
AcDbCircle
 10
-1643.13194191941
 20
-8863.92753457562
 30
0.0
 40
154.0000000000585
100
AcDbArc
 50
195.7386909470698
 51
230.058855174618
  0
ARC
  5
162
330
1F
100
AcDbEntity
  8
1
  6
Continuous
 62
     5
100
AcDbCircle
 10
-1808.22798248229
 20
-9126.74651457322
 30
0.0
 40
28.99999999994115
100
AcDbArc
 50
31.66830597705271
 51
94.24731568853026
  0
ARC
  5
163
330
1F
100
AcDbEntity
  8
1
  6
Continuous
 62
     5
100
AcDbCircle
 10
-1430.24475592019
 20
-9137.77733709265
 30
0.0
 40
41.00000000028769
100
AcDbArc
 50
103.8689620130318
 51
157.0520765725494
  0
ARC
  5
164
330
1F
100
AcDbEntity
  8
1
  6
Continuous
 62
     5
100
AcDbCircle
 10
-1669.71892942873
 20
-9655.53118264858
 30
0.0
 40
602.9999999999861
100
AcDbArc
 50
67.09203807720846
 51
90.33597914320066
  0
ARC
  5
165
330
1F
100
AcDbEntity
  8
1
  6
Continuous
 62
     5
100
AcDbCircle
 10
-1662.6029784875
 20
-9611.54536422379
 30
0.0
 40
527.0000000000192
100
AcDbArc
 50
68.32966707976766
 51
91.15815897858353
  0
ARC
  5
166
330
1F
100
AcDbEntity
  8
1
  6
Continuous
 62
     5
100
AcDbCircle
 10
-1732.85626717406
 20
-10036.7826353776
 30
0.0
 40
985.0000000000299
100
AcDbArc
 50
88.80096418957443
 51
107.7270444077585
  0
ARC
  5
167
330
1F
100
AcDbEntity
  8
1
  6
Continuous
 62
     5
100
AcDbCircle
 10
-1771.02051295017
 20
-9870.56225895259
 30
0.0
 40
782.9999999999859
100
AcDbArc
 50
92.1739704454699
 51
107.0040128279272
  0
ARC
  5
168
330
1F
100
AcDbEntity
  8
1
  6
Continuous
 62
     5
100
AcDbCircle
 10
-1711.10027368488
 20
-9183.38954934249
 30
0.0
 40
98.9999999999743
100
AcDbArc
 50
90.66226259128358
 51
137.0354361693317
  0
ARC
  5
169
330
1F
100
AcDbEntity
  8
1
  6
Continuous
 62
     5
100
AcDbCircle
 10
-1707.14106648148
 20
-9190.90459433935
 30
0.0
 40
139.0000000000825
100
AcDbArc
 50
92.10413047598676
 51
141.7363070135802
  0
ARC
  5
16A
330
1F
100
AcDbEntity
  8
1
  6
Continuous
 62
     5
100
AcDbCircle
 10
-1667.66798038956
 20
-9068.59728739941
 30
0.0
 40
17.000000000253
100
AcDbArc
 50
109.1862710794229
 51
250.8137289205751
  0
ARC
  5
16B
330
1F
100
AcDbEntity
  8
1
  6
Continuous
 62
     5
100
AcDbCircle
 10
-1717.40157726108
 20
-9068.19723887873
 30
0.0
 40
16.99999999940982
100
AcDbArc
 50
287.6591761689185
 51
72.34082383109266
  0
ARC
  5
16C
330
1F
100
AcDbEntity
  8
1
  6
Continuous
 62
     7
100
AcDbCircle
 10
-385.211938792807
 20
-8527.52907420904
 30
0.0
 40
18.99999999991017
100
AcDbArc
 50
8.56585240639658
 51
171.4341475936029
  0
ARC
  5
16D
330
1F
100
AcDbEntity
  8
1
  6
Continuous
 62
     7
100
AcDbCircle
 10
-385.145993069116
 20
-8586.65352193607
 30
0.0
 40
18.99999999986934
100
AcDbArc
 50
28.34420263354467
 51
152.505232251264
  0
ARC
  5
16E
330
1F
100
AcDbEntity
  8
1
  6
Continuous
 62
     7
100
AcDbCircle
 10
-357.008440289435
 20
-8756.22557117416
 30
0.0
 40
47.00000000051887
100
AcDbArc
 50
104.056679996409
 51
163.1896415049285
  0
ARC
  5
16F
330
1F
100
AcDbEntity
  8
1
  6
Continuous
 62
     1
100
AcDbCircle
 10
-283.279734335818
 20
-8811.33797098948
 30
0.0
 40
96.99999999996162
100
AcDbArc
 50
88.00958177901563
 51
126.5269798550129
  0
ARC
  5
170
330
1F
100
AcDbEntity
  8
1
  6
Continuous
 62
     1
100
AcDbCircle
 10
-66.7600513798242
 20
-6618.20571194728
 30
0.0
 40
2106.999999999999
100
AcDbArc
 50
264.1938493492676
 51
269.9662819995967
  0
ARC
  5
171
330
1F
100
AcDbEntity
  8
1
  6
Continuous
 62
     7
100
AcDbCircle
 10
-217.420897964664
 20
-8952.63572606335
 30
0.0
 40
277.9999999999922
100
AcDbArc
 50
91.74089333690245
 51
116.5278864343818
  0
ARC
  5
172
330
1F
100
AcDbEntity
  8
1
  6
Continuous
 62
     7
100
AcDbCircle
 10
-242.089529350032
 20
-9486.71159718619
 30
0.0
 40
812.1096114993533
100
AcDbArc
 50
83.19413560544176
 51
88.85535597570536
  0
ARC
  5
173
330
1F
100
AcDbEntity
  8
1
  6
Continuous
 62
     7
100
AcDbCircle
 10
-72.1881310005824
 20
-7994.26781223794
 30
0.0
 40
689.9999999999959
100
AcDbArc
 50
263.8716348583853
 51
270.3477734838418
  0
ARC
  5
174
330
1F
100
AcDbEntity
  8
1
  6
Continuous
 62
     1
100
AcDbCircle
 10
-271.692652159274
 20
-8715.15257084862
 30
0.0
 40
378.9999999999898
100
AcDbArc
 50
88.6372126597803
 51
99.3346082952877
  0
ARC
  5
175
330
1F
100
AcDbEntity
  8
1
  6
Continuous
 62
     7
100
AcDbCircle
 10
-315.180021747132
 20
-8010.48863141719
 30
0.0
 40
10.99999999984873
100
AcDbArc
 50
83.84176209591381
 51
155.9171379113353
  0
ARC
  5
176
330
1F
100
AcDbEntity
  8
1
  6
Continuous
 62
     5
100
AcDbCircle
 10
-393.522920297146
 20
-9154.6929980826
 30
0.0
 40
56.00000000017043
100
AcDbArc
 50
36.98892790920368
 51
77.59690571872073
  0
ARC
  5
177
330
1F
100
AcDbEntity
  8
1
  6
Continuous
 62
     5
100
AcDbCircle
 10
-168.311809457215
 20
-9625.39700946696
 30
0.0
 40
567.0000000000257
100
AcDbArc
 50
98.75263473806689
 51
112.0851486423082
  0
ARC
  5
178
330
1F
100
AcDbEntity
  8
1
  6
Continuous
 62
     5
100
AcDbCircle
 10
-110.035169315836
 20
-9914.15278736024
 30
0.0
 40
828.3094589685666
100
AcDbArc
 50
89.78958363201455
 51
106.753030769571
  0
ARC
  5
179
330
1F
100
AcDbEntity
  8
1
  6
Continuous
 62
     5
100
AcDbCircle
 10
-86.8219705631882
 20
-9397.65883722024
 30
0.0
 40
314.4585314421627
100
AcDbArc
 50
97.73874448394221
 51
117.9967266073251
  0
ARC
  5
17A
330
1F
100
AcDbEntity
  8
1
  6
Continuous
 62
     5
100
AcDbCircle
 10
-241.691294613826
 20
-9093.99321896301
 30
0.0
 40
27.00000000016882
100
AcDbArc
 50
195.0410135251995
 51
285.5890139587872
  0
ARC
  5
17B
330
1F
100
AcDbEntity
  8
1
  6
Continuous
 62
     5
100
AcDbCircle
 10
-116.232921030517
 20
-9066.99080254412
 30
0.0
 40
20.9999999999567
100
AcDbArc
 50
296.102899548861
 51
5.43981567740273
  0
ARC
  5
17C
330
1F
100
AcDbEntity
  8
1
  6
Continuous
 62
     5
100
AcDbCircle
 10
-67.9948553182401
 20
-9116.69206196153
 30
0.0
 40
18.84100025904623
100
AcDbArc
 50
31.8832325487356
 51
148.1167674512643
  0
ARC
  5
17D
330
1F
100
AcDbEntity
  8
1
  6
Continuous
 62
     5
100
AcDbCircle
 10
-19.7670789694834
 20
-9066.99080254412
 30
0.0
 40
20.99999999995093
100
AcDbArc
 50
174.5601843225971
 51
243.8971004511405
  0
ARC
  5
17E
330
1F
100
AcDbEntity
  8
1
  6
Continuous
 62
     5
100
AcDbCircle
 10
105.691294613825
 20
-9093.99321896301
 30
0.0
 40
27.00000000016865
100
AcDbArc
 50
254.4109860412148
 51
344.958986474801
  0
ARC
  5
17F
330
1F
100
AcDbEntity
  8
1
  6
Continuous
 62
     5
100
AcDbCircle
 10
-49.1780294368118
 20
-9397.65883722024
 30
0.0
 40
314.4585314421572
100
AcDbArc
 50
62.00327339267488
 51
82.26125551605776
  0
ARC
  5
180
330
1F
100
AcDbEntity
  8
1
  6
Continuous
 62
     5
100
AcDbCircle
 10
-25.9648306841641
 20
-9914.15278736024
 30
0.0
 40
828.3094589685682
100
AcDbArc
 50
73.24696923042904
 51
90.21041636798543
  0
ARC
  5
181
330
1F
100
AcDbEntity
  8
1
  6
Continuous
 62
     5
100
AcDbCircle
 10
32.3118094572146
 20
-9625.39700946696
 30
0.0
 40
567.0000000000256
100
AcDbArc
 50
67.91485135769175
 51
81.24736526193308
  0
ARC
  5
182
330
1F
100
AcDbEntity
  8
1
  6
Continuous
 62
     5
100
AcDbCircle
 10
257.522920297146
 20
-9154.6929980826
 30
0.0
 40
56.00000000017121
100
AcDbArc
 50
102.4030942812793
 51
143.0110720907963
  0
ARC
  5
183
330
1F
100
AcDbEntity
  8
1
  6
Continuous
 62
     7
100
AcDbCircle
 10
179.180021747132
 20
-8010.48863141719
 30
0.0
 40
10.99999999984837
100
AcDbArc
 50
24.08286208866475
 51
96.1582379040862
  0
ARC
  5
184
330
1F
100
AcDbEntity
  8
1
  6
Continuous
 62
     1
100
AcDbCircle
 10
135.692652159274
 20
-8715.15257084862
 30
0.0
 40
378.9999999999879
100
AcDbArc
 50
80.6653917047123
 51
91.3627873402197
  0
ARC
  5
185
330
1F
100
AcDbEntity
  8
1
  6
Continuous
 62
     7
100
AcDbCircle
 10
106.089529350032
 20
-9486.71159718619
 30
0.0
 40
812.1096114993519
100
AcDbArc
 50
91.14464402429464
 51
96.80586439455755
  0
ARC
  5
186
330
1F
100
AcDbEntity
  8
1
  6
Continuous
 62
     7
100
AcDbCircle
 10
81.4208979646637
 20
-8952.63572606335
 30
0.0
 40
277.999999999994
100
AcDbArc
 50
63.47211356561812
 51
88.25910666309751
  0
ARC
  5
187
330
1F
100
AcDbEntity
  8
1
  6
Continuous
 62
     1
100
AcDbCircle
 10
147.279734335817
 20
-8811.33797098948
 30
0.0
 40
96.99999999995987
100
AcDbArc
 50
53.47302014498667
 51
91.9904182209838
  0
ARC
  5
188
330
1F
100
AcDbEntity
  8
1
  6
Continuous
 62
     7
100
AcDbCircle
 10
221.008440289435
 20
-8756.22557117416
 30
0.0
 40
47.00000000052182
100
AcDbArc
 50
16.81035849507154
 51
75.94332000359103
  0
ARC
  5
189
330
1F
100
AcDbEntity
  8
1
  6
Continuous
 62
     7
100
AcDbCircle
 10
249.145993069116
 20
-8586.65352193607
 30
0.0
 40
18.99999999986861
100
AcDbArc
 50
27.49476774873601
 51
151.6557973664553
  0
ARC
  5
18A
330
1F
100
AcDbEntity
  8
1
  6
Continuous
 62
     7
100
AcDbCircle
 10
249.211938792807
 20
-8527.52907420904
 30
0.0
 40
18.99999999990918
100
AcDbArc
 50
8.56585240639702
 51
171.4341475936034
  0
ARC
  5
18B
330
1F
100
AcDbEntity
  8
1
  6
Continuous
 62
     1
100
AcDbCircle
 10
-69.2399486201758
 20
-6618.20571194728
 30
0.0
 40
2107.0
100
AcDbArc
 50
270.0337180004033
 51
275.8061506507324
  0
ARC
  5
18C
330
1F
100
AcDbEntity
  8
1
  6
Continuous
 62
     7
100
AcDbCircle
 10
-63.8118689994177
 20
-7994.26781223794
 30
0.0
 40
689.9999999999958
100
AcDbArc
 50
269.6522265161582
 51
276.1283651416145
  0
ARC
  5
18D
330
1F
100
AcDbEntity
  8
1
  6
DASHED
 62
     3
100
AcDbCircle
 10
-2458.85874956687
 20
-8427.23591152553
 30
0.0
 40
30.00000000000177
100
AcDbArc
 50
74.33381146684816
 51
170.7870644954582
  0
ARC
  5
18E
330
1F
100
AcDbEntity
  8
1
  6
DASHED
 62
     3
100
AcDbCircle
 10
-2528.98247836055
 20
-8617.82678841736
 30
0.0
 40
232.9999999999327
100
AcDbArc
 50
32.56646261789544
 51
70.38316746262765
  0
ARC
  5
18F
330
1F
100
AcDbEntity
  8
1
  6
DASHED
 62
     3
100
AcDbCircle
 10
-1433.63988237583
 20
-7832.81428408252
 30
0.0
 40
1114.999999999996
100
AcDbArc
 50
216.2680711773478
 51
223.4609766648723
  0
ARC
  5
190
330
1F
100
AcDbEntity
  8
1
  6
DASHED
 62
     3
100
AcDbCircle
 10
-2073.67293995189
 20
-8403.75658490573
 30
0.0
 40
258.9999999999841
100
AcDbArc
 50
229.1865600661614
 51
255.7246982709947
  0
ARC
  5
191
330
1F
100
AcDbEntity
  8
1
  6
DASHED
 62
     3
100
AcDbCircle
 10
-2740.30850652862
 20
-8792.94898413243
 30
0.0
 40
447.9999999999846
100
AcDbArc
 50
31.00111944672001
 51
55.79638165333684
  0
ARC
  5
192
330
1F
100
AcDbEntity
  8
1
  6
DASHED
 62
     3
100
AcDbCircle
 10
-1817.90572591901
 20
-8256.76967937205
 30
0.0
 40
618.9999999999926
100
AcDbArc
 50
209.5664434949077
 51
223.9485158020591
  0
ARC
  5
193
330
1F
100
AcDbEntity
  8
1
  6
DASHED
 62
     3
100
AcDbCircle
 10
-2072.2958203956
 20
-8438.60141978018
 30
0.0
 40
313.000000000005
100
AcDbArc
 50
232.3325035214154
 51
252.7818741880975
  0
ARC
  5
194
330
1F
100
AcDbEntity
  8
1
  6
DASHED
 62
     3
100
AcDbCircle
 10
-3006.7293718126
 20
-11023.5091767114
 30
0.0
 40
2435.999999999976
100
AcDbArc
 50
60.60893860367509
 51
69.78406148914625
  0
ARC
  5
195
330
1F
100
AcDbEntity
  8
1
  6
DASHED
 62
     3
100
AcDbCircle
 10
-993.339004014515
 20
-10403.3552468046
 30
0.0
 40
1804.00000000002
100
AcDbArc
 50
103.034387609012
 51
112.803352897734
  0
ARC
  5
196
330
1F
100
AcDbEntity
  8
1
  6
DASHED
 62
     3
100
AcDbCircle
 10
-1035.32207218686
 20
-10050.1172693262
 30
0.0
 40
1450.000000000043
100
AcDbArc
 50
86.28671544095229
 51
103.0767440954502
  0
ARC
  5
197
330
1F
100
AcDbEntity
  8
1
  6
DASHED
 62
     3
100
AcDbCircle
 10
-1578.79377395065
 20
-7020.8824643184
 30
0.0
 40
1732.999999999995
100
AcDbArc
 50
280.7147877555562
 51
291.9092242175603
  0
ARC
  5
198
330
1F
100
AcDbEntity
  8
1
  6
DASHED
 62
     3
100
AcDbCircle
 10
-942.744016362057
 20
-8618.10234127955
 30
0.0
 40
14.99999999900025
100
AcDbArc
 50
314.9477690207476
 51
84.91584029184185
  0
ARC
  5
199
330
1F
100
AcDbEntity
  8
1
  6
Continuous
 62
     7
100
AcDbCircle
 10
4073.18813100058
 20
-7950.56727117917
 30
0.0
 40
690.0000000000049
100
AcDbArc
 50
269.6522265161584
 51
276.1283651416158
  0
ARC
  5
19A
330
1F
100
AcDbEntity
  8
1
  6
Continuous
 62
     1
100
AcDbCircle
 10
4067.76005137982
 20
-6574.50517088852
 30
0.0
 40
2106.999999999999
100
AcDbArc
 50
270.0337180004034
 51
275.8061506507325
  0
ARC
  5
19B
330
1F
100
AcDbEntity
  8
1
  6
Continuous
 62
     7
100
AcDbCircle
 10
4386.21193879281
 20
-8483.82853315028
 30
0.0
 40
18.99999999990657
100
AcDbArc
 50
8.56585240639821
 51
171.4341475936059
  0
ARC
  5
19C
330
1F
100
AcDbEntity
  8
1
  6
Continuous
 62
     7
100
AcDbCircle
 10
4386.14599306912
 20
-8542.95298087731
 30
0.0
 40
18.99999999986518
100
AcDbArc
 50
27.4947677487414
 51
151.6557973664698
  0
ARC
  5
19D
330
1F
100
AcDbEntity
  8
1
  6
Continuous
 62
     7
100
AcDbCircle
 10
4358.00844028944
 20
-8712.5250301154
 30
0.0
 40
47.00000000051656
100
AcDbArc
 50
16.81035849507116
 51
75.9433200035997
  0
ARC
  5
19E
330
1F
100
AcDbEntity
  8
1
  6
Continuous
 62
     1
100
AcDbCircle
 10
4284.27973433582
 20
-8767.63742993072
 30
0.0
 40
96.99999999996005
100
AcDbArc
 50
53.47302014498832
 51
91.990418220985
  0
ARC
  5
19F
330
1F
100
AcDbEntity
  8
1
  6
Continuous
 62
     7
100
AcDbCircle
 10
4218.42089796466
 20
-8908.93518500459
 30
0.0
 40
277.9999999999978
100
AcDbArc
 50
63.47211356561655
 51
88.25910666309639
  0
ARC
  5
1A0
330
1F
100
AcDbEntity
  8
1
  6
Continuous
 62
     7
100
AcDbCircle
 10
4243.08952935003
 20
-9443.01105612743
 30
0.0
 40
812.1096114993537
100
AcDbArc
 50
91.14464402429435
 51
96.80586439455715
  0
ARC
  5
1A1
330
1F
100
AcDbEntity
  8
1
  6
Continuous
 62
     1
100
AcDbCircle
 10
4272.69265215927
 20
-8671.45202978986
 30
0.0
 40
378.9999999999889
100
AcDbArc
 50
80.66539170471144
 51
91.36278734021906
  0
ARC
  5
1A2
330
1F
100
AcDbEntity
  8
1
  6
Continuous
 62
     7
100
AcDbCircle
 10
4316.18002174713
 20
-7896.93652361004
 30
0.0
 40
10.99999999985003
100
AcDbArc
 50
24.08286208866088
 51
96.15823790407589
  0
ARC
  5
1A3
330
1F
100
AcDbEntity
  8
1
  6
Continuous
 62
     5
100
AcDbCircle
 10
4394.52292029715
 20
-9154.6929980826
 30
0.0
 40
56.00000000017177
100
AcDbArc
 50
102.4030942812819
 51
143.0110720907966
  0
ARC
  5
1A4
330
1F
100
AcDbEntity
  8
1
  6
Continuous
 62
     5
100
AcDbCircle
 10
4169.31180945721
 20
-9625.39700946696
 30
0.0
 40
567.000000000028
100
AcDbArc
 50
67.91485135769116
 51
81.24736526193242
  0
ARC
  5
1A5
330
1F
100
AcDbEntity
  8
1
  6
Continuous
 62
     5
100
AcDbCircle
 10
4111.03516931584
 20
-9914.15278736024
 30
0.0
 40
828.309458968568
100
AcDbArc
 50
73.24696923042904
 51
90.21041636798574
  0
ARC
  5
1A6
330
1F
100
AcDbEntity
  8
1
  6
Continuous
 62
     5
100
AcDbCircle
 10
4087.82197056319
 20
-9397.65883722024
 30
0.0
 40
314.4585314421545
100
AcDbArc
 50
62.00327339267583
 51
82.26125551605762
  0
ARC
  5
1A7
330
1F
100
AcDbEntity
  8
1
  6
Continuous
 62
     5
100
AcDbCircle
 10
4242.69129461383
 20
-9093.99321896301
 30
0.0
 40
27.00000000017109
100
AcDbArc
 50
254.4109860411962
 51
344.9589864747958
  0
ARC
  5
1A8
330
1F
100
AcDbEntity
  8
1
  6
Continuous
 62
     5
100
AcDbCircle
 10
4117.23292103052
 20
-9066.99080254412
 30
0.0
 40
20.99999999995499
100
AcDbArc
 50
174.5601843225982
 51
243.8971004511318
  0
ARC
  5
1A9
330
1F
100
AcDbEntity
  8
1
  6
Continuous
 62
     5
100
AcDbCircle
 10
4069.00514468176
 20
-9116.69206196153
 30
0.0
 40
18.84100025904599
100
AcDbArc
 50
31.88323254873604
 51
148.1167674512647
  0
ARC
  5
1AA
330
1F
100
AcDbEntity
  8
1
  6
Continuous
 62
     5
100
AcDbCircle
 10
4020.76707896948
 20
-9066.99080254412
 30
0.0
 40
20.999999999958
100
AcDbArc
 50
296.1028995488683
 51
5.43981567740183
  0
ARC
  5
1AB
330
1F
100
AcDbEntity
  8
1
  6
Continuous
 62
     5
100
AcDbCircle
 10
3895.30870538618
 20
-9093.99321896301
 30
0.0
 40
27.00000000017077
100
AcDbArc
 50
195.0410135251985
 51
285.5890139587833
  0
ARC
  5
1AC
330
1F
100
AcDbEntity
  8
1
  6
Continuous
 62
     5
100
AcDbCircle
 10
4050.17802943681
 20
-9397.65883722024
 30
0.0
 40
314.4585314421628
100
AcDbArc
 50
97.73874448394238
 51
117.9967266073242
  0
ARC
  5
1AD
330
1F
100
AcDbEntity
  8
1
  6
Continuous
 62
     5
100
AcDbCircle
 10
4026.96483068416
 20
-9914.15278736024
 30
0.0
 40
828.3094589685666
100
AcDbArc
 50
89.78958363201428
 51
106.753030769571
  0
ARC
  5
1AE
330
1F
100
AcDbEntity
  8
1
  6
Continuous
 62
     5
100
AcDbCircle
 10
3968.68819054278
 20
-9625.39700946696
 30
0.0
 40
567.0000000000252
100
AcDbArc
 50
98.75263473806659
 51
112.0851486423079
  0
ARC
  5
1AF
330
1F
100
AcDbEntity
  8
1
  6
Continuous
 62
     5
100
AcDbCircle
 10
3743.47707970285
 20
-9154.6929980826
 30
0.0
 40
56.00000000017043
100
AcDbArc
 50
36.98892790920368
 51
77.59690571871853
  0
ARC
  5
1B0
330
1F
100
AcDbEntity
  8
1
  6
Continuous
 62
     7
100
AcDbCircle
 10
3821.81997825287
 20
-7896.93652361004
 30
0.0
 40
10.99999999984852
100
AcDbArc
 50
83.84176209592411
 51
155.9171379113391
  0
ARC
  5
1B1
330
1F
100
AcDbEntity
  8
1
  6
Continuous
 62
     1
100
AcDbCircle
 10
3865.30734784073
 20
-8671.45202978986
 30
0.0
 40
378.9999999999879
100
AcDbArc
 50
88.6372126597811
 51
99.33460829528858
  0
ARC
  5
1B2
330
1F
100
AcDbEntity
  8
1
  6
Continuous
 62
     7
100
AcDbCircle
 10
4064.81186899942
 20
-7950.56727117917
 30
0.0
 40
690.0000000000066
100
AcDbArc
 50
263.8716348583842
 51
270.3477734838416
  0
ARC
  5
1B3
330
1F
100
AcDbEntity
  8
1
  6
Continuous
 62
     7
100
AcDbCircle
 10
3894.91047064997
 20
-9443.01105612743
 30
0.0
 40
812.1096114993533
100
AcDbArc
 50
83.19413560544282
 51
88.85535597570565
  0
ARC
  5
1B4
330
1F
100
AcDbEntity
  8
1
  6
Continuous
 62
     7
100
AcDbCircle
 10
3919.57910203534
 20
-8908.93518500459
 30
0.0
 40
277.9999999999924
100
AcDbArc
 50
91.74089333690362
 51
116.5278864343816
  0
ARC
  5
1B5
330
1F
100
AcDbEntity
  8
1
  6
Continuous
 62
     1
100
AcDbCircle
 10
4070.23994862018
 20
-6574.50517088852
 30
0.0
 40
2106.999999999999
100
AcDbArc
 50
264.1938493492675
 51
269.9662819995966
  0
ARC
  5
1B6
330
1F
100
AcDbEntity
  8
1
  6
Continuous
 62
     1
100
AcDbCircle
 10
3853.72026566418
 20
-8767.63742993072
 30
0.0
 40
96.99999999996348
100
AcDbArc
 50
88.009581779015
 51
126.5269798550117
  0
ARC
  5
1B7
330
1F
100
AcDbEntity
  8
1
  6
Continuous
 62
     7
100
AcDbCircle
 10
3779.99155971057
 20
-8712.5250301154
 30
0.0
 40
47.00000000051764
100
AcDbArc
 50
104.0566799964122
 51
163.1896415049324
  0
ARC
  5
1B8
330
1F
100
AcDbEntity
  8
1
  6
Continuous
 62
     7
100
AcDbCircle
 10
3751.85400693088
 20
-8542.95298087731
 30
0.0
 40
18.99999999987438
100
AcDbArc
 50
28.34420263353024
 51
152.5052322512586
  0
ARC
  5
1B9
330
1F
100
AcDbEntity
  8
1
  6
Continuous
 62
     7
100
AcDbCircle
 10
3751.78806120719
 20
-8483.82853315028
 30
0.0
 40
18.99999999991601
100
AcDbArc
 50
8.56585240639392
 51
171.4341475936016
  0
ARC
  5
1BA
330
1F
100
AcDbEntity
  8
1
  6
Continuous
 62
     5
100
AcDbCircle
 10
2419.59842273892
 20
-9068.19723887873
 30
0.0
 40
16.99999999940975
100
AcDbArc
 50
287.6591761689178
 51
72.34082383109337
  0
ARC
  5
1BB
330
1F
100
AcDbEntity
  8
1
  6
Continuous
 62
     5
100
AcDbCircle
 10
2469.33201961044
 20
-9068.59728739941
 30
0.0
 40
17.00000000025292
100
AcDbArc
 50
109.1862710794221
 51
250.8137289205758
  0
ARC
  5
1BC
330
1F
100
AcDbEntity
  8
1
  6
Continuous
 62
     5
100
AcDbCircle
 10
2429.85893351852
 20
-9190.90459433935
 30
0.0
 40
139.0000000000825
100
AcDbArc
 50
92.10413047598695
 51
141.7363070135803
  0
ARC
  5
1BD
330
1F
100
AcDbEntity
  8
1
  6
Continuous
 62
     5
100
AcDbCircle
 10
2425.89972631512
 20
-9183.38954934249
 30
0.0
 40
98.9999999999743
100
AcDbArc
 50
90.66226259128372
 51
137.0354361693317
  0
ARC
  5
1BE
330
1F
100
AcDbEntity
  8
1
  6
Continuous
 62
     5
100
AcDbCircle
 10
2365.97948704983
 20
-9870.56225895259
 30
0.0
 40
782.9999999999859
100
AcDbArc
 50
92.17397044546989
 51
107.0040128279272
  0
ARC
  5
1BF
330
1F
100
AcDbEntity
  8
1
  6
Continuous
 62
     5
100
AcDbCircle
 10
2404.14373282594
 20
-10036.7826353776
 30
0.0
 40
985.0000000000299
100
AcDbArc
 50
88.80096418957443
 51
107.7270444077585
  0
ARC
  5
1C0
330
1F
100
AcDbEntity
  8
1
  6
Continuous
 62
     5
100
AcDbCircle
 10
2474.3970215125
 20
-9611.54536422379
 30
0.0
 40
527.0000000000192
100
AcDbArc
 50
68.32966707976766
 51
91.15815897858351
  0
ARC
  5
1C1
330
1F
100
AcDbEntity
  8
1
  6
Continuous
 62
     5
100
AcDbCircle
 10
2467.28107057128
 20
-9655.53118264858
 30
0.0
 40
602.9999999999823
100
AcDbArc
 50
67.09203807720932
 51
90.33597914320157
  0
ARC
  5
1C2
330
1F
100
AcDbEntity
  8
1
  6
Continuous
 62
     5
100
AcDbCircle
 10
2706.75524407981
 20
-9137.77733709265
 30
0.0
 40
41.00000000028764
100
AcDbArc
 50
103.8689620130315
 51
157.0520765725494
  0
ARC
  5
1C3
330
1F
100
AcDbEntity
  8
1
  6
Continuous
 62
     5
100
AcDbCircle
 10
2328.77201751771
 20
-9126.74651457322
 30
0.0
 40
28.99999999994115
100
AcDbArc
 50
31.66830597705271
 51
94.24731568853026
  0
ARC
  5
1C4
330
1F
100
AcDbEntity
  8
1
  6
Continuous
 62
     7
100
AcDbCircle
 10
2493.86805808059
 20
-8820.22699351686
 30
0.0
 40
154.0000000000578
100
AcDbArc
 50
195.7386909470691
 51
230.0588551746176
  0
ARC
  5
1C5
330
1F
100
AcDbEntity
  8
1
  6
Continuous
 62
     7
100
AcDbCircle
 10
1864.61682675426
 20
-7270.08950596637
 30
0.0
 40
1774.999999999997
100
AcDbArc
 50
289.9758675351674
 51
296.9474830849097
  0
ARC
  5
1C6
330
1F
100
AcDbEntity
  8
1
  6
Continuous
 62
     7
100
AcDbCircle
 10
2484.37530218567
 20
-8549.15005759268
 30
0.0
 40
354.9999999999899
100
AcDbArc
 50
301.3369183187322
 51
331.5424843002133
  0
ARC
  5
1C7
330
1F
100
AcDbEntity
  8
1
  6
Continuous
 62
     1
100
AcDbCircle
 10
2237.42062611161
 20
-7593.59335739481
 30
0.0
 40
1256.0
100
AcDbArc
 50
275.302611575834
 51
296.4304841064315
  0
ARC
  5
1C8
330
1F
100
AcDbEntity
  8
1
  6
Continuous
 62
     7
100
AcDbCircle
 10
3936.01287493231
 20
-9210.79992286696
 30
0.0
 40
1248.999999999992
100
AcDbArc
 50
158.6648056972434
 51
172.6763916519763
  0
ARC
  5
1C9
330
1F
100
AcDbEntity
  8
1
  6
Continuous
 62
     1
100
AcDbCircle
 10
886.190192626323
 20
-8175.88645256707
 30
0.0
 40
2037.159149949772
100
AcDbArc
 50
334.3482446307735
 51
344.880870219064
  0
ARC
  5
1CA
330
1F
100
AcDbEntity
  8
1
  6
Continuous
 62
     7
100
AcDbCircle
 10
976.462002874094
 20
-8096.8294410312
 30
0.0
 40
1993.065042430493
100
AcDbArc
 50
331.1745003309957
 51
342.6981834757103
  0
ARC
  5
1CB
330
1F
100
AcDbEntity
  8
1
  6
Continuous
 62
     7
100
AcDbCircle
 10
2836.40596154137
 20
-8679.9667982362
 30
0.0
 40
43.99999999987309
100
AcDbArc
 50
347.3838061812807
 51
87.7740306396519
  0
ARC
  5
1CC
330
1F
100
AcDbEntity
  8
1
  6
Continuous
 62
     7
100
AcDbCircle
 10
2930.76585463837
 20
-10536.4752649668
 30
0.0
 40
1903.000000000016
100
AcDbArc
 50
94.84210299330825
 51
106.6851742345289
  0
ARC
  5
1CD
330
1F
100
AcDbEntity
  8
1
  6
Continuous
 62
     7
100
AcDbCircle
 10
2815.30737587279
 20
-8682.26554911906
 30
0.0
 40
16.34221940815966
100
AcDbArc
 50
207.918027680647
 51
34.71745599884565
  0
ARC
  5
1CE
330
1F
100
AcDbEntity
  8
1
  6
Continuous
 62
     7
100
AcDbCircle
 10
2497.93149993165
 20
-8845.27939008192
 30
0.0
 40
372.9999999999965
100
AcDbArc
 50
27.51541226463487
 51
60.63935477687323
  0
ARC
  5
1CF
330
1F
100
AcDbEntity
  8
1
  6
Continuous
 62
     7
100
AcDbCircle
 10
2503.87546859722
 20
-8839.41847978348
 30
0.0
 40
332.4976463423861
100
AcDbArc
 50
26.72003603736296
 51
61.23918122014568
  0
ARC
  5
1D0
330
1F
100
AcDbEntity
  8
1
  6
Continuous
 62
     7
100
AcDbCircle
 10
2468.03759869579
 20
-8924.38622253924
 30
0.0
 40
418.9999999999937
100
AcDbArc
 50
62.56773117379462
 51
89.59490571343572
  0
ARC
  5
1D1
330
1F
100
AcDbEntity
  8
1
  6
Continuous
 62
     7
100
AcDbCircle
 10
2476.68590907779
 20
-8893.73395794928
 30
0.0
 40
429.9999999999614
100
AcDbArc
 50
61.31689522410324
 51
90.75764671458403
  0
ARC
  5
1D2
330
1F
100
AcDbEntity
  8
1
  6
Continuous
 62
     7
100
AcDbCircle
 10
2435.17632609249
 20
-9389.07834684441
 30
0.0
 40
925.9999999999828
100
AcDbArc
 50
87.78287510294376
 51
100.7785861767841
  0
ARC
  5
1D3
330
1F
100
AcDbEntity
  8
1
  6
Continuous
 62
     7
100
AcDbCircle
 10
2442.10006596697
 20
-9442.08604977672
 30
0.0
 40
937.135077520263
100
AcDbArc
 50
88.2327981770829
 51
100.6385980893848
  0
ARC
  5
1D4
330
1F
100
AcDbEntity
  8
1
  6
Continuous
 62
     7
100
AcDbCircle
 10
2149.72799289923
 20
-8723.04111363924
 30
0.0
 40
234.8523990608897
100
AcDbArc
 50
2.3045045155485
 51
29.83475017474445
  0
ARC
  5
1D5
330
1F
100
AcDbEntity
  8
1
  6
Continuous
 62
     7
100
AcDbCircle
 10
834.561868227747
 20
-9588.77403582634
 30
0.0
 40
1809.0
100
AcDbArc
 50
32.89884764085254
 51
36.32989688549745
  0
ARC
  5
1D6
330
1F
100
AcDbEntity
  8
1
  6
Continuous
 62
     1
100
AcDbCircle
 10
1557.98312659633
 20
-8907.18430186742
 30
0.0
 40
798.0000000000017
100
AcDbArc
 50
4.562881689093
 51
28.74670297611852
  0
ARC
  5
1D7
330
1F
100
AcDbEntity
  8
1
  6
Continuous
 62
     7
100
AcDbCircle
 10
1356.58778786228
 20
-9051.05785220693
 30
0.0
 40
987.0000000000049
100
AcDbArc
 50
11.59480407713234
 51
31.48954890821614
  0
ARC
  5
1D8
330
1F
100
AcDbEntity
  8
1
  6
Continuous
 62
     7
100
AcDbCircle
 10
2338.42318007644
 20
-8848.10077302266
 30
0.0
 40
15.66153082916506
100
AcDbArc
 50
197.0071242262751
 51
16.3160877461132
  0
ARC
  5
1D9
330
1F
100
AcDbEntity
  8
1
  6
Continuous
 62
     1
100
AcDbCircle
 10
-81820.1476380941
 20
15386.9234950422
 30
0.0
 40
87979.00000000001
100
AcDbArc
 50
343.8754473227476
 51
344.0881211809198
  0
ARC
  5
1DA
330
1F
100
AcDbEntity
  8
1
  6
Continuous
 62
     7
100
AcDbCircle
 10
2661.01671776731
 20
-8607.51989172101
 30
0.0
 40
174.9999999999452
100
AcDbArc
 50
320.7217874147555
 51
328.8742985973548
  0
ARC
  5
1DB
330
1F
100
AcDbEntity
  8
1
  6
Continuous
 62
     1
100
AcDbCircle
 10
2830.45601979752
 20
-8684.1534412132
 30
0.0
 40
23.0000000001325
100
AcDbArc
 50
9.09368905891744
 51
108.871592449534
  0
ARC
  5
1DC
330
1F
100
AcDbEntity
  8
1
  6
Continuous
 62
     1
100
AcDbCircle
 10
6102.6268219652
 20
-27034.2853247805
 30
0.0
 40
18666.17159237583
100
AcDbArc
 50
100.231826423518
 51
101.6272371294003
  0
ARC
  5
1DD
330
1F
100
AcDbEntity
  8
1
  6
Continuous
 62
     1
100
AcDbCircle
 10
2799.10781655827
 20
-7995.21660179866
 30
0.0
 40
755.0435451829395
100
AcDbArc
 50
199.5800496552558
 51
220.657797176105
  0
ARC
  5
1DE
330
1F
100
AcDbEntity
  8
1
  6
Continuous
 62
     1
100
AcDbCircle
 10
2300.68326927182
 20
-8158.75146805813
 30
0.0
 40
230.9999999999898
100
AcDbArc
 50
175.3623887396512
 51
202.7951269923284
  0
ARC
  5
1DF
330
1F
100
AcDbEntity
  8
1
  6
Continuous
 62
     1
100
AcDbCircle
 10
766.057442508696
 20
-8078.72861518274
 30
0.0
 40
1305.823880918084
100
AcDbArc
 50
357.3073343776046
 51
5.33508050096439
  0
ARC
  5
1E0
330
1F
100
AcDbEntity
  8
1
  6
Continuous
 62
     1
100
AcDbCircle
 10
1883.29034515912
 20
-7990.94492025833
 30
0.0
 40
185.9999999999677
100
AcDbArc
 50
10.41739467736315
 51
34.0482660003936
  0
ARC
  5
1E1
330
1F
100
AcDbEntity
  8
1
  6
Continuous
 62
     7
100
AcDbCircle
 10
2022.13563312353
 20
-7939.90538402802
 30
0.0
 40
55.00000000001396
100
AcDbArc
 50
16.60346720255133
 51
70.18594609308914
  0
ARC
  5
1E2
330
1F
100
AcDbEntity
  8
1
  6
Continuous
 62
     7
100
AcDbCircle
 10
1797.32874756219
 20
-8019.42034527492
 30
0.0
 40
294.0000000000113
100
AcDbArc
 50
1.67895447064099
 51
18.48224150443953
  0
ARC
  5
1E3
330
1F
100
AcDbEntity
  8
1
  6
Continuous
 62
     7
100
AcDbCircle
 10
2358.19278044807
 20
-8137.80119842269
 30
0.0
 40
265.0000000000052
100
AcDbArc
 50
180.4914898394859
 51
205.5159599647465
  0
ARC
  5
1E4
330
1F
100
AcDbEntity
  8
1
  6
Continuous
 62
     7
100
AcDbCircle
 10
2997.56947480481
 20
-7836.05780773947
 30
0.0
 40
972.0000000000097
100
AcDbArc
 50
205.3328398513849
 51
221.3564764251055
  0
ARC
  5
1E5
330
1F
100
AcDbEntity
  8
1
  6
Continuous
 62
     7
100
AcDbCircle
 10
2031.86186930442
 20
-7905.47380689241
 30
0.0
 40
19.4738068924093
100
AcDbArc
 50
62.74836547690322
 51
169.7798512340672
  0
ARC
  5
1E6
330
1F
100
AcDbEntity
  8
1
  6
Continuous
 62
     7
100
AcDbCircle
 10
1628.42242590385
 20
-8036.11558819527
 30
0.0
 40
406.9999999999997
100
AcDbArc
 50
353.5972777589588
 51
19.23701911178194
  0
ARC
  5
1E7
330
1F
100
AcDbEntity
  8
1
  6
Continuous
 62
     7
100
AcDbCircle
 10
2689.18160674587
 20
-8193.93242111632
 30
0.0
 40
665.8582770574618
100
AcDbArc
 50
170.2790733781067
 51
183.0508988970149
  0
ARC
  5
1E8
330
1F
100
AcDbEntity
  8
1
  6
Continuous
 62
     7
100
AcDbCircle
 10
2321.68506715178
 20
-8166.4544819038
 30
0.0
 40
303.9999999999969
100
AcDbArc
 50
191.9444758111075
 51
213.8670635057164
  0
ARC
  5
1E9
330
1F
100
AcDbEntity
  8
1
  6
Continuous
 62
     7
100
AcDbCircle
 10
2710.64892395618
 20
-9051.5532508382
 30
0.0
 40
13.44674916180305
100
AcDbArc
 50
180.1385600073884
 51
332.4481764085756
  0
ARC
  5
1EA
330
1F
100
AcDbEntity
  8
1
  6
Continuous
 62
     7
100
AcDbCircle
 10
-68.0
 20
-12064.1242803493
 30
0.0
 40
1351.335617367265
100
AcDbArc
 50
79.0269706376881
 51
100.9730293623119
  0
ARC
  5
1EB
330
1F
100
AcDbEntity
  8
1
  6
Continuous
 62
     7
100
AcDbCircle
 10
-67.9574141360857
 20
-8433.87455730087
 30
0.0
 40
3088.086554340171
100
AcDbArc
 50
264.7487095473834
 51
275.2512904526166
  0
ARC
  5
1EC
330
1F
100
AcDbEntity
  8
1
  6
Continuous
 62
     7
100
AcDbCircle
 10
-67.9574141360857
 20
-12194.1043287556
 30
0.0
 40
1201.863923281056
100
AcDbArc
 50
76.39875635599007
 51
103.60124364401
  0
ARC
  5
1ED
330
1F
100
AcDbEntity
  8
1
  6
Continuous
 62
     7
100
AcDbCircle
 10
1301.95695801374
 20
-11025.9456018167
 30
0.0
 40
1652.548550481146
100
AcDbArc
 50
169.9475992953705
 51
180.0
  0
ARC
  5
1EE
330
1F
100
AcDbEntity
  8
1
  6
Continuous
 62
     7
100
AcDbCircle
 10
-1432.427264963
 20
-11025.9456018167
 30
0.0
 40
1647.104029158234
100
AcDbArc
 50
0.0
 51
10.0859759703674
  0
ARC
  5
1EF
330
1F
100
AcDbEntity
  8
1
  6
Continuous
 62
     7
100
AcDbCircle
 10
-385.211938792807
 20
-11282.6377362822
 30
0.0
 40
45.99999999995598
100
AcDbArc
 50
245.8933683274668
 51
294.1066316725344
  0
ARC
  5
1F0
330
1F
100
AcDbEntity
  8
1
  6
Continuous
 62
     7
100
AcDbCircle
 10
-385.211938792807
 20
-10828.6684365738
 30
0.0
 40
31.11209115160959
100
AcDbArc
 50
52.85149783357836
 51
127.1485021664201
  0
ARC
  5
1F1
330
1F
100
AcDbEntity
  8
1
  6
Continuous
 62
     7
100
AcDbCircle
 10
-385.211938792807
 20
-10791.8454090323
 30
0.0
 40
27.01960882809959
100
AcDbArc
 50
51.58676423781926
 51
128.413235762179
  0
ARC
  5
1F2
330
1F
100
AcDbEntity
  8
1
  6
Continuous
 62
     7
100
AcDbCircle
 10
-385.211938792807
 20
-11455.745296192
 30
0.0
 40
16.97314768475906
100
AcDbArc
 50
188.4691382959398
 51
351.5308617040607
  0
ARC
  5
1F3
330
1F
100
AcDbEntity
  8
1
  6
Continuous
 62
     7
100
AcDbCircle
 10
248.293765655722
 20
-11455.745296192
 30
0.0
 40
16.97314768476006
100
AcDbArc
 50
188.4691382959393
 51
351.5308617040602
  0
ARC
  5
1F4
330
1F
100
AcDbEntity
  8
1
  6
Continuous
 62
     7
100
AcDbCircle
 10
248.293765655722
 20
-11282.6377362822
 30
0.0
 40
45.9999999999564
100
AcDbArc
 50
245.8933683274656
 51
294.1066316725333
  0
ARC
  5
1F5
330
1F
100
AcDbEntity
  8
1
  6
Continuous
 62
     7
100
AcDbCircle
 10
248.293765655722
 20
-10791.8454090323
 30
0.0
 40
27.01960882809897
100
AcDbArc
 50
51.58676423782092
 51
128.4132357621807
  0
ARC
  5
1F6
330
1F
100
AcDbEntity
  8
1
  6
Continuous
 62
     7
100
AcDbCircle
 10
248.293765655722
 20
-10791.8454090323
 30
0.0
 40
27.01960882809897
100
AcDbArc
 50
51.58676423782092
 51
128.4132357621807
  0
ARC
  5
1F7
330
1F
100
AcDbEntity
  8
1
  6
Continuous
 62
     7
100
AcDbCircle
 10
248.293765655722
 20
-10828.6684365738
 30
0.0
 40
31.112091151609
100
AcDbArc
 50
52.85149783357983
 51
127.1485021664217
  0
ARC
  5
1F8
330
1F
100
AcDbEntity
  8
1
  6
Continuous
 62
     1
100
AcDbCircle
 10
-1965.08271164054
 20
-8367.16527331535
 30
0.0
 40
31.99999999981122
100
AcDbArc
 50
105.0285112265761
 51
160.6357041292807
  0
ARC
  5
1F9
330
1F
100
AcDbEntity
  8
1
  6
Continuous
 62
     7
100
AcDbCircle
 10
-259.011548903537
 20
-10502.1071683078
 30
0.0
 40
303.0000000000506
100
AcDbArc
 50
255.5825073589329
 51
269.3064979426011
  0
ARC
  5
1FA
330
1F
100
AcDbEntity
  8
1
  6
Continuous
 62
     7
100
AcDbCircle
 10
123.096720631366
 20
-10502.1071683078
 30
0.0
 40
303.0000000000879
100
AcDbArc
 50
270.6935020573987
 51
284.4174926410667
  0
ARC
  5
1FB
330
1F
100
AcDbEntity
  8
1
  6
Continuous
 62
     1
100
AcDbCircle
 10
1308.95695801374
 20
-11025.9456018167
 30
0.0
 40
1652.548550481142
100
AcDbArc
 50
169.8988473119877
 51
180.0
  0
ARC
  5
1FC
330
1F
100
AcDbEntity
  8
1
  6
Continuous
 62
     1
100
AcDbCircle
 10
-1444.87178628591
 20
-11025.9456018167
 30
0.0
 40
1652.548550481144
100
AcDbArc
 50
0.0
 51
10.10056838335388
  0
ARC
  5
1FD
330
1F
100
AcDbEntity
  8
1
  6
Continuous
 62
     7
100
AcDbCircle
 10
-67.9574141360857
 20
-12615.6441485855
 30
0.0
 40
1820.999999999931
100
AcDbArc
 50
83.86156331836254
 51
96.1384366816375
  0
ENDSEC
  0
SECTION
  2
OBJECTS
  0
DICTIONARY
  5
C
330
0
100
AcDbDictionary
281
     1
  3
ACAD_GROUP
350
D
  3
ACAD_LAYOUT
350
1A
  3
ACAD_MATERIAL
350
3B
  3
ACAD_MLEADERSTYLE
350
200
  3
ACAD_MLINESTYLE
350
17
  3
ACAD_PLOTSETTINGS
350
19
  3
ACAD_PLOTSTYLENAME
350
E
  3
ACAD_VISUALSTYLE
350
2A
  3
AcDbVariableDictionary
350
1FE
  0
DICTIONARY
  5
D
102
{ACAD_REACTORS
330
C
102
}
330
C
100
AcDbDictionary
281
     1
  0
DICTIONARY
  5
1A
102
{ACAD_REACTORS
330
C
102
}
330
C
100
AcDbDictionary
281
     1
  3
Layout1
350
1E
  3
Layout2
350
26
  3
Model
350
22
  0
DICTIONARY
  5
3B
102
{ACAD_REACTORS
330
C
102
}
330
C
100
AcDbDictionary
281
     1
  3
ByBlock
350
3D
  3
ByLayer
350
3C
  3
Global
350
3E
  0
DICTIONARY
  5
200
102
{ACAD_REACTORS
330
C
102
}
330
C
100
AcDbDictionary
281
     1
  0
DICTIONARY
  5
17
102
{ACAD_REACTORS
330
C
102
}
330
C
100
AcDbDictionary
281
     1
  3
Standard
350
18
  0
DICTIONARY
  5
19
102
{ACAD_REACTORS
330
C
102
}
330
C
100
AcDbDictionary
281
     1
  0
ACDBDICTIONARYWDFLT
  5
E
102
{ACAD_REACTORS
330
C
102
}
330
C
100
AcDbDictionary
281
     1
  3
Normal
350
F
100
AcDbDictionaryWithDefault
340
F
  0
DICTIONARY
  5
2A
102
{ACAD_REACTORS
330
C
102
}
330
C
100
AcDbDictionary
281
     1
  3
2dWireframe
350
2F
  3
3D Hidden
350
31
  3
3dWireframe
350
30
  3
Basic
350
32
  3
Brighten
350
36
  3
ColorChange
350
3A
  3
Conceptual
350
34
  3
Dim
350
35
  3
Facepattern
350
39
  3
Flat
350
2B
  3
FlatWithEdges
350
2C
  3
Gouraud
350
2D
  3
GouraudWithEdges
350
2E
  3
Linepattern
350
38
  3
Realistic
350
33
  3
Thicken
350
37
  0
DICTIONARY
  5
1FE
102
{ACAD_REACTORS
330
C
102
}
330
C
100
AcDbDictionary
281
     1
  3
DIMASSOC
350
201
  3
HIDETEXT
350
202
  0
LAYOUT
  5
1E
102
{ACAD_REACTORS
330
1A
102
}
330
1A
100
AcDbPlotSettings
  1

  2
none_device
  4

  6

 40
0.0
 41
0.0
 42
0.0
 43
0.0
 44
0.0
 45
0.0
 46
0.0
 47
0.0
 48
0.0
 49
0.0
140
0.0
141
0.0
142
1.0
143
1.0
 70
   688
 72
     0
 73
     0
 74
     5
  7

 75
    16
147
1.0
148
0.0
149
0.0
100
AcDbLayout
  1
Layout1
 70
     1
 71
     1
 10
0.0
 20
0.0
 11
12.0
 21
9.0
 12
0.0
 22
0.0
 32
0.0
 14
1.00000000000000E+20
 24
1.00000000000000E+20
 34
1.00000000000000E+20
 15
-1.00000000000000E+20
 25
-1.00000000000000E+20
 35
-1.00000000000000E+20
146
0.0
 13
0.0
 23
0.0
 33
0.0
 16
1.0
 26
0.0
 36
0.0
 17
0.0
 27
1.0
 37
0.0
 76
     0
330
1B
  0
LAYOUT
  5
26
102
{ACAD_REACTORS
330
1A
102
}
330
1A
100
AcDbPlotSettings
  1

  2
none_device
  4

  6

 40
0.0
 41
0.0
 42
0.0
 43
0.0
 44
0.0
 45
0.0
 46
0.0
 47
0.0
 48
0.0
 49
0.0
140
0.0
141
0.0
142
1.0
143
1.0
 70
   688
 72
     0
 73
     0
 74
     5
  7

 75
    16
147
1.0
148
0.0
149
0.0
100
AcDbLayout
  1
Layout2
 70
     1
 71
     2
 10
0.0
 20
0.0
 11
0.0
 21
0.0
 12
0.0
 22
0.0
 32
0.0
 14
0.0
 24
0.0
 34
0.0
 15
0.0
 25
0.0
 35
0.0
146
0.0
 13
0.0
 23
0.0
 33
0.0
 16
1.0
 26
0.0
 36
0.0
 17
0.0
 27
1.0
 37
0.0
 76
     0
330
23
  0
LAYOUT
  5
22
102
{ACAD_REACTORS
330
1A
102
}
330
1A
100
AcDbPlotSettings
  1

  2
none_device
  4

  6

 40
0.0
 41
0.0
 42
0.0
 43
0.0
 44
0.0
 45
0.0
 46
0.0
 47
0.0
 48
0.0
 49
0.0
140
0.0
141
0.0
142
1.0
143
1.0
 70
  1712
 72
     0
 73
     0
 74
     0
  7

 75
     0
147
1.0
148
0.0
149
0.0
100
AcDbLayout
  1
Model
 70
     1
 71
     0
 10
0.0
 20
0.0
 11
12.0
 21
9.0
 12
0.0
 22
0.0
 32
0.0
 14
-2488.47175388677
 24
-11521.96111164104
 34
0.0
 15
4405.0
 25
-7885.93652361019
 35
0.0
146
0.0
 13
0.0
 23
0.0
 33
0.0
 16
1.0
 26
0.0
 36
0.0
 17
0.0
 27
1.0
 37
0.0
 76
     0
330
1F
331
29
  0
MATERIAL
  5
3D
102
{ACAD_REACTORS
330
3B
102
}
102
{ACAD_XDICTIONARY
360
225
102
}
330
3B
100
AcDbMaterial
  1
ByBlock
  0
MATERIAL
  5
3C
102
{ACAD_REACTORS
330
3B
102
}
102
{ACAD_XDICTIONARY
360
223
102
}
330
3B
100
AcDbMaterial
  1
ByLayer
  0
MATERIAL
  5
3E
102
{ACAD_REACTORS
330
3B
102
}
102
{ACAD_XDICTIONARY
360
227
102
}
330
3B
100
AcDbMaterial
  1
Global
  0
MLINESTYLE
  5
18
102
{ACAD_REACTORS
330
17
102
}
330
17
100
AcDbMlineStyle
  2
Standard
 70
     0
  3

 62
   256
 51
90.0
 52
90.0
 71
     2
 49
0.5
 62
   256
  6
BYLAYER
 49
-0.5
 62
   256
  6
BYLAYER
  0
ACDBPLACEHOLDER
  5
F
102
{ACAD_REACTORS
330
E
102
}
330
E
  0
VISUALSTYLE
  5
2F
102
{ACAD_REACTORS
330
2A
102
}
102
{ACAD_XDICTIONARY
360
20B
102
}
330
2A
100
AcDbVisualStyle
  2
2dWireframe
 70
     4
 71
     0
 72
     2
 73
     0
 90
        0
 40
-0.6
 41
-30.0
 62
     5
 63
     7
 74
     1
 91
        4
 64
     7
 65
   257
 75
     1
175
     1
 42
1.0
 92
        0
 66
   257
 43
1.0
 76
     1
 77
     6
 78
     2
 67
     7
 79
     5
170
     0
171
     0
290
     0
174
     0
 93
        1
 44
0.0
173
     0
291
     0
 45
0.0
1001
ACAD
1000
AcDbSavedByObjectVersion
1070
     0
  0
VISUALSTYLE
  5
31
102
{ACAD_REACTORS
330
2A
102
}
102
{ACAD_XDICTIONARY
360
20F
102
}
330
2A
100
AcDbVisualStyle
  2
3D Hidden
 70
     6
 71
     1
 72
     2
 73
     2
 90
        0
 40
-0.6
 41
-30.0
 62
     5
 63
     7
 74
     2
 91
        2
 64
     7
 65
   257
 75
     2
175
     1
 42
40.0
 92
        0
 66
   257
 43
1.0
 76
     1
 77
     6
 78
     2
 67
     7
 79
     3
170
     0
171
     0
290
     0
174
     0
 93
        1
 44
0.0
173
     0
291
     0
 45
0.0
1001
ACAD
1000
AcDbSavedByObjectVersion
1070
     0
  0
VISUALSTYLE
  5
30
102
{ACAD_REACTORS
330
2A
102
}
102
{ACAD_XDICTIONARY
360
20D
102
}
330
2A
100
AcDbVisualStyle
  2
3dWireframe
 70
     5
 71
     0
 72
     2
 73
     0
 90
        0
 40
-0.6
 41
-30.0
 62
     5
 63
     7
 74
     1
 91
        4
 64
     7
 65
   257
 75
     1
175
     1
 42
1.0
 92
        0
 66
   257
 43
1.0
 76
     1
 77
     6
 78
     2
 67
     7
 79
     5
170
     0
171
     0
290
     0
174
     0
 93
        1
 44
0.0
173
     0
291
     0
 45
0.0
1001
ACAD
1000
AcDbSavedByObjectVersion
1070
     0
  0
VISUALSTYLE
  5
32
102
{ACAD_REACTORS
330
2A
102
}
102
{ACAD_XDICTIONARY
360
211
102
}
330
2A
100
AcDbVisualStyle
  2
Basic
 70
     7
 71
     1
 72
     0
 73
     1
 90
        0
 40
-0.6
 41
-30.0
 62
     5
 63
     7
 74
     0
 91
        4
 64
     7
 65
   257
 75
     1
175
     1
 42
1.0
 92
        8
 66
     7
 43
1.0
 76
     1
 77
     6
 78
     2
 67
     7
 79
     5
170
     0
171
     0
290
     0
174
     0
 93
        1
 44
0.0
173
     0
291
     1
 45
0.0
1001
ACAD
1000
AcDbSavedByObjectVersion
1070
     0
  0
VISUALSTYLE
  5
36
102
{ACAD_REACTORS
330
2A
102
}
102
{ACAD_XDICTIONARY
360
219
102
}
330
2A
100
AcDbVisualStyle
  2
Brighten
 70
    12
 71
     2
 72
     2
 73
     0
 90
        0
 40
-0.6
 41
-30.0
 62
     5
 63
     7
 74
     1
 91
        4
 64
     7
 65
   257
 75
     1
175
     1
 42
1.0
 92
        8
 66
     7
 43
1.0
 76
     1
 77
     6
 78
     2
 67
     7
 79
     5
170
     0
171
     0
290
     0
174
     0
 93
        1
 44
50.0
173
     0
291
     1
 45
0.0
1001
ACAD
1000
AcDbSavedByObjectVersion
1070
     0
  0
VISUALSTYLE
  5
3A
102
{ACAD_REACTORS
330
2A
102
}
102
{ACAD_XDICTIONARY
360
221
102
}
330
2A
100
AcDbVisualStyle
  2
ColorChange
 70
    16
 71
     2
 72
     2
 73
     3
 90
        0
 40
-0.6
 41
-30.0
 62
     5
 63
     8
 74
     1
 91
        4
 64
     7
 65
   257
 75
     1
175
     1
 42
1.0
 92
        8
 66
     8
 43
1.0
 76
     1
 77
     6
 78
     2
 67
     7
 79
     5
170
     0
171
     0
290
     0
174
     0
 93
        1
 44
0.0
173
     0
291
     1
 45
0.0
1001
ACAD
1000
AcDbSavedByObjectVersion
1070
     0
  0
VISUALSTYLE
  5
34
102
{ACAD_REACTORS
330
2A
102
}
102
{ACAD_XDICTIONARY
360
215
102
}
330
2A
100
AcDbVisualStyle
  2
Conceptual
 70
     9
 71
     3
 72
     2
 73
     0
 90
        0
 40
-0.6
 41
-30.0
 62
     5
 63
     7
 74
     2
 91
        2
 64
     7
 65
   257
 75
     1
175
     1
 42
40.0
 92
        8
 66
     7
 43
1.0
 76
     1
 77
     6
 78
     2
 67
     7
 79
     3
170
     0
171
     0
290
     0
174
     0
 93
        1
 44
0.0
173
     0
291
     0
 45
0.0
1001
ACAD
1000
AcDbSavedByObjectVersion
1070
     0
  0
VISUALSTYLE
  5
35
102
{ACAD_REACTORS
330
2A
102
}
102
{ACAD_XDICTIONARY
360
217
102
}
330
2A
100
AcDbVisualStyle
  2
Dim
 70
    11
 71
     2
 72
     2
 73
     0
 90
        0
 40
-0.6
 41
-30.0
 62
     5
 63
     7
 74
     1
 91
        4
 64
     7
 65
   257
 75
     1
175
     1
 42
1.0
 92
        8
 66
     7
 43
1.0
 76
     1
 77
     6
 78
     2
 67
     7
 79
     5
170
     0
171
     0
290
     0
174
     0
 93
        1
 44
-50.0
173
     0
291
     1
 45
0.0
1001
ACAD
1000
AcDbSavedByObjectVersion
1070
     0
  0
VISUALSTYLE
  5
39
102
{ACAD_REACTORS
330
2A
102
}
102
{ACAD_XDICTIONARY
360
21F
102
}
330
2A
100
AcDbVisualStyle
  2
Facepattern
 70
    15
 71
     2
 72
     2
 73
     0
 90
        0
 40
-0.6
 41
-30.0
 62
     5
 63
     7
 74
     1
 91
        4
 64
     7
 65
   257
 75
     1
175
     1
 42
1.0
 92
        8
 66
     7
 43
1.0
 76
     1
 77
     6
 78
     2
 67
     7
 79
     5
170
     0
171
     0
290
     0
174
     0
 93
        1
 44
0.0
173
     0
291
     1
 45
0.0
1001
ACAD
1000
AcDbSavedByObjectVersion
1070
     0
  0
VISUALSTYLE
  5
2B
102
{ACAD_REACTORS
330
2A
102
}
102
{ACAD_XDICTIONARY
360
203
102
}
330
2A
100
AcDbVisualStyle
  2
Flat
 70
     0
 71
     2
 72
     1
 73
     1
 90
        2
 40
-0.6
 41
30.0
 62
     5
 63
     7
 74
     0
 91
        4
 64
     7
 65
   257
 75
     1
175
     1
 42
1.0
 92
        8
 66
     7
 43
1.0
 76
     1
 77
     6
 78
     2
 67
     7
 79
     5
170
     0
171
     0
290
     0
174
     0
 93
       13
 44
0.0
173
     0
291
     1
 45
0.0
1001
ACAD
1000
AcDbSavedByObjectVersion
1070
     0
  0
VISUALSTYLE
  5
2C
102
{ACAD_REACTORS
330
2A
102
}
102
{ACAD_XDICTIONARY
360
205
102
}
330
2A
100
AcDbVisualStyle
  2
FlatWithEdges
 70
     1
 71
     2
 72
     1
 73
     1
 90
        2
 40
-0.6
 41
30.0
 62
     5
 63
     7
 74
     1
 91
        4
 64
     7
 65
   257
 75
     1
175
     1
 42
1.0
 92
        0
 66
   257
 43
1.0
 76
     1
 77
     6
 78
     2
 67
     7
 79
     5
170
     0
171
     0
290
     0
174
     0
 93
       13
 44
0.0
173
     0
291
     1
 45
0.0
1001
ACAD
1000
AcDbSavedByObjectVersion
1070
     0
  0
VISUALSTYLE
  5
2D
102
{ACAD_REACTORS
330
2A
102
}
102
{ACAD_XDICTIONARY
360
207
102
}
330
2A
100
AcDbVisualStyle
  2
Gouraud
 70
     2
 71
     2
 72
     2
 73
     1
 90
        2
 40
-0.6
 41
30.0
 62
     5
 63
     7
 74
     0
 91
        4
 64
     7
 65
   257
 75
     1
175
     1
 42
1.0
 92
        0
 66
     7
 43
1.0
 76
     1
 77
     6
 78
     2
 67
     7
 79
     5
170
     0
171
     0
290
     0
174
     0
 93
       13
 44
0.0
173
     0
291
     1
 45
0.0
1001
ACAD
1000
AcDbSavedByObjectVersion
1070
     0
  0
VISUALSTYLE
  5
2E
102
{ACAD_REACTORS
330
2A
102
}
102
{ACAD_XDICTIONARY
360
209
102
}
330
2A
100
AcDbVisualStyle
  2
GouraudWithEdges
 70
     3
 71
     2
 72
     2
 73
     1
 90
        2
 40
-0.6
 41
30.0
 62
     5
 63
     7
 74
     1
 91
        4
 64
     7
 65
   257
 75
     1
175
     1
 42
1.0
 92
        0
 66
   257
 43
1.0
 76
     1
 77
     6
 78
     2
 67
     7
 79
     5
170
     0
171
     0
290
     0
174
     0
 93
       13
 44
0.0
173
     0
291
     1
 45
0.0
1001
ACAD
1000
AcDbSavedByObjectVersion
1070
     0
  0
VISUALSTYLE
  5
38
102
{ACAD_REACTORS
330
2A
102
}
102
{ACAD_XDICTIONARY
360
21D
102
}
330
2A
100
AcDbVisualStyle
  2
Linepattern
 70
    14
 71
     2
 72
     2
 73
     0
 90
        0
 40
-0.6
 41
-30.0
 62
     5
 63
     7
 74
     1
 91
        4
 64
     7
 65
   257
 75
     7
175
     7
 42
1.0
 92
        8
 66
     7
 43
1.0
 76
     1
 77
     6
 78
     2
 67
     7
 79
     5
170
     0
171
     0
290
     0
174
     0
 93
        1
 44
0.0
173
     0
291
     1
 45
0.0
1001
ACAD
1000
AcDbSavedByObjectVersion
1070
     0
  0
VISUALSTYLE
  5
33
102
{ACAD_REACTORS
330
2A
102
}
102
{ACAD_XDICTIONARY
360
213
102
}
330
2A
100
AcDbVisualStyle
  2
Realistic
 70
     8
 71
     2
 72
     2
 73
     0
 90
        0
 40
-0.6
 41
-30.0
 62
     5
 63
     7
 74
     1
 91
        0
 64
     7
 65
   257
 75
     1
175
     1
 42
1.0
 92
        8
 66
     8
 43
1.0
 76
     1
 77
     6
 78
     2
 67
     7
 79
     5
170
     0
171
     0
290
     0
174
     0
 93
       13
 44
0.0
173
     0
291
     0
 45
0.0
1001
ACAD
1000
AcDbSavedByObjectVersion
1070
     0
  0
VISUALSTYLE
  5
37
102
{ACAD_REACTORS
330
2A
102
}
102
{ACAD_XDICTIONARY
360
21B
102
}
330
2A
100
AcDbVisualStyle
  2
Thicken
 70
    13
 71
     2
 72
     2
 73
     0
 90
        0
 40
-0.6
 41
-30.0
 62
     5
 63
     7
 74
     1
 91
        4
 64
     7
 65
   257
 75
     1
175
     1
 42
1.0
 92
       12
 66
     7
 43
1.0
 76
     1
 77
     6
 78
     2
 67
     7
 79
     5
170
     0
171
     0
290
     0
174
     0
 93
        1
 44
0.0
173
     0
291
     1
 45
0.0
1001
ACAD
1000
AcDbSavedByObjectVersion
1070
     0
  0
DICTIONARYVAR
  5
201
102
{ACAD_REACTORS
330
1FE
102
}
330
1FE
100
DictionaryVariables
280
     0
  1
2
  0
DICTIONARYVAR
  5
202
102
{ACAD_REACTORS
330
1FE
102
}
330
1FE
100
DictionaryVariables
280
     0
  1
1
  0
DICTIONARY
  5
225
330
3D
100
AcDbDictionary
280
     1
281
     1
  3
ACAD_XREC_ROUNDTRIP
360
226
  0
DICTIONARY
  5
223
330
3C
100
AcDbDictionary
280
     1
281
     1
  3
ACAD_XREC_ROUNDTRIP
360
224
  0
DICTIONARY
  5
227
330
3E
100
AcDbDictionary
280
     1
281
     1
  3
ACAD_XREC_ROUNDTRIP
360
228
  0
DICTIONARY
  5
20B
330
2F
100
AcDbDictionary
280
     1
281
     1
  3
ACAD_XREC_ROUNDTRIP
360
20C
  0
DICTIONARY
  5
20F
330
31
100
AcDbDictionary
280
     1
281
     1
  3
ACAD_XREC_ROUNDTRIP
360
210
  0
DICTIONARY
  5
20D
330
30
100
AcDbDictionary
280
     1
281
     1
  3
ACAD_XREC_ROUNDTRIP
360
20E
  0
DICTIONARY
  5
211
330
32
100
AcDbDictionary
280
     1
281
     1
  3
ACAD_XREC_ROUNDTRIP
360
212
  0
DICTIONARY
  5
219
330
36
100
AcDbDictionary
280
     1
281
     1
  3
ACAD_XREC_ROUNDTRIP
360
21A
  0
DICTIONARY
  5
221
330
3A
100
AcDbDictionary
280
     1
281
     1
  3
ACAD_XREC_ROUNDTRIP
360
222
  0
DICTIONARY
  5
215
330
34
100
AcDbDictionary
280
     1
281
     1
  3
ACAD_XREC_ROUNDTRIP
360
216
  0
DICTIONARY
  5
217
330
35
100
AcDbDictionary
280
     1
281
     1
  3
ACAD_XREC_ROUNDTRIP
360
218
  0
DICTIONARY
  5
21F
330
39
100
AcDbDictionary
280
     1
281
     1
  3
ACAD_XREC_ROUNDTRIP
360
220
  0
DICTIONARY
  5
203
330
2B
100
AcDbDictionary
280
     1
281
     1
  3
ACAD_XREC_ROUNDTRIP
360
204
  0
DICTIONARY
  5
205
330
2C
100
AcDbDictionary
280
     1
281
     1
  3
ACAD_XREC_ROUNDTRIP
360
206
  0
DICTIONARY
  5
207
330
2D
100
AcDbDictionary
280
     1
281
     1
  3
ACAD_XREC_ROUNDTRIP
360
208
  0
DICTIONARY
  5
209
330
2E
100
AcDbDictionary
280
     1
281
     1
  3
ACAD_XREC_ROUNDTRIP
360
20A
  0
DICTIONARY
  5
21D
330
38
100
AcDbDictionary
280
     1
281
     1
  3
ACAD_XREC_ROUNDTRIP
360
21E
  0
DICTIONARY
  5
213
330
33
100
AcDbDictionary
280
     1
281
     1
  3
ACAD_XREC_ROUNDTRIP
360
214
  0
DICTIONARY
  5
21B
330
37
100
AcDbDictionary
280
     1
281
     1
  3
ACAD_XREC_ROUNDTRIP
360
21C
  0
XRECORD
  5
226
102
{ACAD_REACTORS
330
225
102
}
330
225
100
AcDbXrecord
280
     1
102
MATERIAL
148
0.0
149
0.0
149
0.0
 93
        0
 94
      127
282
     0
 72
     1
 77
     1
171
     1
175
     1
179
     1
273
     0
  0
XRECORD
  5
224
102
{ACAD_REACTORS
330
223
102
}
330
223
100
AcDbXrecord
280
     1
102
MATERIAL
148
0.0
149
0.0
149
0.0
 93
        0
 94
      127
282
     0
 72
     1
 77
     1
171
     1
175
     1
179
     1
273
     0
  0
XRECORD
  5
228
102
{ACAD_REACTORS
330
227
102
}
330
227
100
AcDbXrecord
280
     1
102
MATERIAL
148
0.0
149
0.0
149
0.0
 93
        0
 94
      127
282
     0
 72
     1
 77
     1
171
     1
175
     1
179
     1
273
     0
  0
XRECORD
  5
20C
102
{ACAD_REACTORS
330
20B
102
}
330
20B
100
AcDbXrecord
280
     1
102
RTVSPropertyOp0
 70
     1
102
RTVSPropertyOp1
 70
     1
102
RTVSPropertyOp2
 70
     1
102
RTVSPropertyOp3
 70
     1
102
RTVSPropertyOp4
 70
     1
102
RTVSPropertyOp5
 70
     1
102
RTVSPropertyOp6
 70
     1
102
RTVSPropertyOp7
 70
     1
102
RTVSPropertyOp8
 70
     1
102
RTVSPropertyOp9
 70
     1
102
RTVSPropertyOp10
 70
     1
102
RTVSPropertyOp11
 70
     1
102
RTVSPropertyOp12
 70
     1
102
RTVSPropertyOp13
 70
     1
102
RTVSPropertyOp14
 70
     1
102
RTVSPropertyOp15
 70
     1
102
RTVSPropertyOp16
 70
     1
102
RTVSPropertyOp17
 70
     1
102
RTVSPropertyOp18
 70
     1
102
RTVSPropertyOp19
 70
     1
102
RTVSPropertyOp20
 70
     1
102
RTVSPropertyOp21
 70
     1
102
RTVSPropertyOp22
 70
     1
102
RTVSPropertyOp23
 70
     1
102
RTVSPropertyOp24
 70
     1
102
RTVSPropertyOp25
 70
     1
102
RTVSPropertyOp26
 70
     1
102
RTVSPropertyOp27
 70
     1
  0
XRECORD
  5
210
102
{ACAD_REACTORS
330
20F
102
}
330
20F
100
AcDbXrecord
280
     1
102
RTVSPropertyOp0
 70
     1
102
RTVSPropertyOp1
 70
     1
102
RTVSPropertyOp2
 70
     1
102
RTVSPropertyOp3
 70
     1
102
RTVSPropertyOp4
 70
     1
102
RTVSPropertyOp5
 70
     1
102
RTVSPropertyOp6
 70
     1
102
RTVSPropertyOp7
 70
     1
102
RTVSPropertyOp8
 70
     1
102
RTVSPropertyOp9
 70
     1
102
RTVSPropertyOp10
 70
     1
102
RTVSPropertyOp11
 70
     1
102
RTVSPropertyOp12
 70
     1
102
RTVSPropertyOp13
 70
     1
102
RTVSPropertyOp14
 70
     1
102
RTVSPropertyOp15
 70
     1
102
RTVSPropertyOp16
 70
     1
102
RTVSPropertyOp17
 70
     1
102
RTVSPropertyOp18
 70
     1
102
RTVSPropertyOp19
 70
     1
102
RTVSPropertyOp20
 70
     1
102
RTVSPropertyOp21
 70
     1
102
RTVSPropertyOp22
 70
     1
102
RTVSPropertyOp23
 70
     1
102
RTVSPropertyOp24
 70
     1
102
RTVSPropertyOp25
 70
     1
102
RTVSPropertyOp26
 70
     1
102
RTVSPropertyOp27
 70
     1
  0
XRECORD
  5
20E
102
{ACAD_REACTORS
330
20D
102
}
330
20D
100
AcDbXrecord
280
     1
102
RTVSPropertyOp0
 70
     1
102
RTVSPropertyOp1
 70
     1
102
RTVSPropertyOp2
 70
     1
102
RTVSPropertyOp3
 70
     1
102
RTVSPropertyOp4
 70
     1
102
RTVSPropertyOp5
 70
     1
102
RTVSPropertyOp6
 70
     1
102
RTVSPropertyOp7
 70
     1
102
RTVSPropertyOp8
 70
     1
102
RTVSPropertyOp9
 70
     1
102
RTVSPropertyOp10
 70
     1
102
RTVSPropertyOp11
 70
     1
102
RTVSPropertyOp12
 70
     1
102
RTVSPropertyOp13
 70
     1
102
RTVSPropertyOp14
 70
     1
102
RTVSPropertyOp15
 70
     1
102
RTVSPropertyOp16
 70
     1
102
RTVSPropertyOp17
 70
     1
102
RTVSPropertyOp18
 70
     1
102
RTVSPropertyOp19
 70
     1
102
RTVSPropertyOp20
 70
     1
102
RTVSPropertyOp21
 70
     1
102
RTVSPropertyOp22
 70
     1
102
RTVSPropertyOp23
 70
     1
102
RTVSPropertyOp24
 70
     1
102
RTVSPropertyOp25
 70
     1
102
RTVSPropertyOp26
 70
     1
102
RTVSPropertyOp27
 70
     1
  0
XRECORD
  5
212
102
{ACAD_REACTORS
330
211
102
}
330
211
100
AcDbXrecord
280
     1
102
RTVSPropertyOp0
 70
     1
102
RTVSPropertyOp1
 70
     1
102
RTVSPropertyOp2
 70
     1
102
RTVSPropertyOp3
 70
     1
102
RTVSPropertyOp4
 70
     1
102
RTVSPropertyOp5
 70
     1
102
RTVSPropertyOp6
 70
     1
102
RTVSPropertyOp7
 70
     1
102
RTVSPropertyOp8
 70
     1
102
RTVSPropertyOp9
 70
     1
102
RTVSPropertyOp10
 70
     1
102
RTVSPropertyOp11
 70
     1
102
RTVSPropertyOp12
 70
     1
102
RTVSPropertyOp13
 70
     1
102
RTVSPropertyOp14
 70
     1
102
RTVSPropertyOp15
 70
     1
102
RTVSPropertyOp16
 70
     1
102
RTVSPropertyOp17
 70
     1
102
RTVSPropertyOp18
 70
     1
102
RTVSPropertyOp19
 70
     1
102
RTVSPropertyOp20
 70
     1
102
RTVSPropertyOp21
 70
     1
102
RTVSPropertyOp22
 70
     1
102
RTVSPropertyOp23
 70
     1
102
RTVSPropertyOp24
 70
     1
102
RTVSPropertyOp25
 70
     1
102
RTVSPropertyOp26
 70
     1
102
RTVSPropertyOp27
 70
     1
  0
XRECORD
  5
21A
102
{ACAD_REACTORS
330
219
102
}
330
219
100
AcDbXrecord
280
     1
102
RTVSPropertyOp0
 70
     1
102
RTVSPropertyOp1
 70
     1
102
RTVSPropertyOp2
 70
     1
102
RTVSPropertyOp3
 70
     1
102
RTVSPropertyOp4
 70
     1
102
RTVSPropertyOp5
 70
     1
102
RTVSPropertyOp6
 70
     1
102
RTVSPropertyOp7
 70
     1
102
RTVSPropertyOp8
 70
     1
102
RTVSPropertyOp9
 70
     1
102
RTVSPropertyOp10
 70
     1
102
RTVSPropertyOp11
 70
     1
102
RTVSPropertyOp12
 70
     1
102
RTVSPropertyOp13
 70
     1
102
RTVSPropertyOp14
 70
     1
102
RTVSPropertyOp15
 70
     1
102
RTVSPropertyOp16
 70
     1
102
RTVSPropertyOp17
 70
     1
102
RTVSPropertyOp18
 70
     1
102
RTVSPropertyOp19
 70
     1
102
RTVSPropertyOp20
 70
     1
102
RTVSPropertyOp21
 70
     1
102
RTVSPropertyOp22
 70
     1
102
RTVSPropertyOp23
 70
     1
102
RTVSPropertyOp24
 70
     1
102
RTVSPropertyOp25
 70
     1
102
RTVSPropertyOp26
 70
     1
102
RTVSPropertyOp27
 70
     1
  0
XRECORD
  5
222
102
{ACAD_REACTORS
330
221
102
}
330
221
100
AcDbXrecord
280
     1
102
RTVSPropertyOp0
 70
     1
102
RTVSPropertyOp1
 70
     1
102
RTVSPropertyOp2
 70
     1
102
RTVSPropertyOp3
 70
     1
102
RTVSPropertyOp4
 70
     1
102
RTVSPropertyOp5
 70
     1
102
RTVSPropertyOp6
 70
     1
102
RTVSPropertyOp7
 70
     1
102
RTVSPropertyOp8
 70
     1
102
RTVSPropertyOp9
 70
     1
102
RTVSPropertyOp10
 70
     1
102
RTVSPropertyOp11
 70
     1
102
RTVSPropertyOp12
 70
     1
102
RTVSPropertyOp13
 70
     1
102
RTVSPropertyOp14
 70
     1
102
RTVSPropertyOp15
 70
     1
102
RTVSPropertyOp16
 70
     1
102
RTVSPropertyOp17
 70
     1
102
RTVSPropertyOp18
 70
     1
102
RTVSPropertyOp19
 70
     1
102
RTVSPropertyOp20
 70
     1
102
RTVSPropertyOp21
 70
     1
102
RTVSPropertyOp22
 70
     1
102
RTVSPropertyOp23
 70
     1
102
RTVSPropertyOp24
 70
     1
102
RTVSPropertyOp25
 70
     1
102
RTVSPropertyOp26
 70
     1
102
RTVSPropertyOp27
 70
     1
  0
XRECORD
  5
216
102
{ACAD_REACTORS
330
215
102
}
330
215
100
AcDbXrecord
280
     1
102
RTVSPropertyOp0
 70
     1
102
RTVSPropertyOp1
 70
     1
102
RTVSPropertyOp2
 70
     1
102
RTVSPropertyOp3
 70
     1
102
RTVSPropertyOp4
 70
     1
102
RTVSPropertyOp5
 70
     1
102
RTVSPropertyOp6
 70
     1
102
RTVSPropertyOp7
 70
     1
102
RTVSPropertyOp8
 70
     1
102
RTVSPropertyOp9
 70
     1
102
RTVSPropertyOp10
 70
     1
102
RTVSPropertyOp11
 70
     1
102
RTVSPropertyOp12
 70
     1
102
RTVSPropertyOp13
 70
     1
102
RTVSPropertyOp14
 70
     1
102
RTVSPropertyOp15
 70
     1
102
RTVSPropertyOp16
 70
     1
102
RTVSPropertyOp17
 70
     1
102
RTVSPropertyOp18
 70
     1
102
RTVSPropertyOp19
 70
     1
102
RTVSPropertyOp20
 70
     1
102
RTVSPropertyOp21
 70
     1
102
RTVSPropertyOp22
 70
     1
102
RTVSPropertyOp23
 70
     1
102
RTVSPropertyOp24
 70
     1
102
RTVSPropertyOp25
 70
     1
102
RTVSPropertyOp26
 70
     1
102
RTVSPropertyOp27
 70
     1
  0
XRECORD
  5
218
102
{ACAD_REACTORS
330
217
102
}
330
217
100
AcDbXrecord
280
     1
102
RTVSPropertyOp0
 70
     1
102
RTVSPropertyOp1
 70
     1
102
RTVSPropertyOp2
 70
     1
102
RTVSPropertyOp3
 70
     1
102
RTVSPropertyOp4
 70
     1
102
RTVSPropertyOp5
 70
     1
102
RTVSPropertyOp6
 70
     1
102
RTVSPropertyOp7
 70
     1
102
RTVSPropertyOp8
 70
     1
102
RTVSPropertyOp9
 70
     1
102
RTVSPropertyOp10
 70
     1
102
RTVSPropertyOp11
 70
     1
102
RTVSPropertyOp12
 70
     1
102
RTVSPropertyOp13
 70
     1
102
RTVSPropertyOp14
 70
     1
102
RTVSPropertyOp15
 70
     1
102
RTVSPropertyOp16
 70
     1
102
RTVSPropertyOp17
 70
     1
102
RTVSPropertyOp18
 70
     1
102
RTVSPropertyOp19
 70
     1
102
RTVSPropertyOp20
 70
     1
102
RTVSPropertyOp21
 70
     1
102
RTVSPropertyOp22
 70
     1
102
RTVSPropertyOp23
 70
     1
102
RTVSPropertyOp24
 70
     1
102
RTVSPropertyOp25
 70
     1
102
RTVSPropertyOp26
 70
     1
102
RTVSPropertyOp27
 70
     1
  0
XRECORD
  5
220
102
{ACAD_REACTORS
330
21F
102
}
330
21F
100
AcDbXrecord
280
     1
102
RTVSPropertyOp0
 70
     1
102
RTVSPropertyOp1
 70
     1
102
RTVSPropertyOp2
 70
     1
102
RTVSPropertyOp3
 70
     1
102
RTVSPropertyOp4
 70
     1
102
RTVSPropertyOp5
 70
     1
102
RTVSPropertyOp6
 70
     1
102
RTVSPropertyOp7
 70
     1
102
RTVSPropertyOp8
 70
     1
102
RTVSPropertyOp9
 70
     1
102
RTVSPropertyOp10
 70
     1
102
RTVSPropertyOp11
 70
     1
102
RTVSPropertyOp12
 70
     1
102
RTVSPropertyOp13
 70
     1
102
RTVSPropertyOp14
 70
     1
102
RTVSPropertyOp15
 70
     1
102
RTVSPropertyOp16
 70
     1
102
RTVSPropertyOp17
 70
     1
102
RTVSPropertyOp18
 70
     1
102
RTVSPropertyOp19
 70
     1
102
RTVSPropertyOp20
 70
     1
102
RTVSPropertyOp21
 70
     1
102
RTVSPropertyOp22
 70
     1
102
RTVSPropertyOp23
 70
     1
102
RTVSPropertyOp24
 70
     1
102
RTVSPropertyOp25
 70
     1
102
RTVSPropertyOp26
 70
     1
102
RTVSPropertyOp27
 70
     1
  0
XRECORD
  5
204
102
{ACAD_REACTORS
330
203
102
}
330
203
100
AcDbXrecord
280
     1
102
RTVSPropertyOp0
 70
     1
102
RTVSPropertyOp1
 70
     1
102
RTVSPropertyOp2
 70
     1
102
RTVSPropertyOp3
 70
     1
102
RTVSPropertyOp4
 70
     1
102
RTVSPropertyOp5
 70
     1
102
RTVSPropertyOp6
 70
     1
102
RTVSPropertyOp7
 70
     1
102
RTVSPropertyOp8
 70
     1
102
RTVSPropertyOp9
 70
     1
102
RTVSPropertyOp10
 70
     1
102
RTVSPropertyOp11
 70
     1
102
RTVSPropertyOp12
 70
     1
102
RTVSPropertyOp13
 70
     1
102
RTVSPropertyOp14
 70
     1
102
RTVSPropertyOp15
 70
     1
102
RTVSPropertyOp16
 70
     1
102
RTVSPropertyOp17
 70
     1
102
RTVSPropertyOp18
 70
     1
102
RTVSPropertyOp19
 70
     1
102
RTVSPropertyOp20
 70
     1
102
RTVSPropertyOp21
 70
     1
102
RTVSPropertyOp22
 70
     1
102
RTVSPropertyOp23
 70
     1
102
RTVSPropertyOp24
 70
     1
102
RTVSPropertyOp25
 70
     1
102
RTVSPropertyOp26
 70
     1
102
RTVSPropertyOp27
 70
     1
  0
XRECORD
  5
206
102
{ACAD_REACTORS
330
205
102
}
330
205
100
AcDbXrecord
280
     1
102
RTVSPropertyOp0
 70
     1
102
RTVSPropertyOp1
 70
     1
102
RTVSPropertyOp2
 70
     1
102
RTVSPropertyOp3
 70
     1
102
RTVSPropertyOp4
 70
     1
102
RTVSPropertyOp5
 70
     1
102
RTVSPropertyOp6
 70
     1
102
RTVSPropertyOp7
 70
     1
102
RTVSPropertyOp8
 70
     1
102
RTVSPropertyOp9
 70
     1
102
RTVSPropertyOp10
 70
     1
102
RTVSPropertyOp11
 70
     1
102
RTVSPropertyOp12
 70
     1
102
RTVSPropertyOp13
 70
     1
102
RTVSPropertyOp14
 70
     1
102
RTVSPropertyOp15
 70
     1
102
RTVSPropertyOp16
 70
     1
102
RTVSPropertyOp17
 70
     1
102
RTVSPropertyOp18
 70
     1
102
RTVSPropertyOp19
 70
     1
102
RTVSPropertyOp20
 70
     1
102
RTVSPropertyOp21
 70
     1
102
RTVSPropertyOp22
 70
     1
102
RTVSPropertyOp23
 70
     1
102
RTVSPropertyOp24
 70
     1
102
RTVSPropertyOp25
 70
     1
102
RTVSPropertyOp26
 70
     1
102
RTVSPropertyOp27
 70
     1
  0
XRECORD
  5
208
102
{ACAD_REACTORS
330
207
102
}
330
207
100
AcDbXrecord
280
     1
102
RTVSPropertyOp0
 70
     1
102
RTVSPropertyOp1
 70
     1
102
RTVSPropertyOp2
 70
     1
102
RTVSPropertyOp3
 70
     1
102
RTVSPropertyOp4
 70
     1
102
RTVSPropertyOp5
 70
     1
102
RTVSPropertyOp6
 70
     1
102
RTVSPropertyOp7
 70
     1
102
RTVSPropertyOp8
 70
     1
102
RTVSPropertyOp9
 70
     1
102
RTVSPropertyOp10
 70
     1
102
RTVSPropertyOp11
 70
     1
102
RTVSPropertyOp12
 70
     1
102
RTVSPropertyOp13
 70
     1
102
RTVSPropertyOp14
 70
     1
102
RTVSPropertyOp15
 70
     1
102
RTVSPropertyOp16
 70
     1
102
RTVSPropertyOp17
 70
     1
102
RTVSPropertyOp18
 70
     1
102
RTVSPropertyOp19
 70
     1
102
RTVSPropertyOp20
 70
     1
102
RTVSPropertyOp21
 70
     1
102
RTVSPropertyOp22
 70
     1
102
RTVSPropertyOp23
 70
     1
102
RTVSPropertyOp24
 70
     1
102
RTVSPropertyOp25
 70
     1
102
RTVSPropertyOp26
 70
     1
102
RTVSPropertyOp27
 70
     1
  0
XRECORD
  5
20A
102
{ACAD_REACTORS
330
209
102
}
330
209
100
AcDbXrecord
280
     1
102
RTVSPropertyOp0
 70
     1
102
RTVSPropertyOp1
 70
     1
102
RTVSPropertyOp2
 70
     1
102
RTVSPropertyOp3
 70
     1
102
RTVSPropertyOp4
 70
     1
102
RTVSPropertyOp5
 70
     1
102
RTVSPropertyOp6
 70
     1
102
RTVSPropertyOp7
 70
     1
102
RTVSPropertyOp8
 70
     1
102
RTVSPropertyOp9
 70
     1
102
RTVSPropertyOp10
 70
     1
102
RTVSPropertyOp11
 70
     1
102
RTVSPropertyOp12
 70
     1
102
RTVSPropertyOp13
 70
     1
102
RTVSPropertyOp14
 70
     1
102
RTVSPropertyOp15
 70
     1
102
RTVSPropertyOp16
 70
     1
102
RTVSPropertyOp17
 70
     1
102
RTVSPropertyOp18
 70
     1
102
RTVSPropertyOp19
 70
     1
102
RTVSPropertyOp20
 70
     1
102
RTVSPropertyOp21
 70
     1
102
RTVSPropertyOp22
 70
     1
102
RTVSPropertyOp23
 70
     1
102
RTVSPropertyOp24
 70
     1
102
RTVSPropertyOp25
 70
     1
102
RTVSPropertyOp26
 70
     1
102
RTVSPropertyOp27
 70
     1
  0
XRECORD
  5
21E
102
{ACAD_REACTORS
330
21D
102
}
330
21D
100
AcDbXrecord
280
     1
102
RTVSPropertyOp0
 70
     1
102
RTVSPropertyOp1
 70
     1
102
RTVSPropertyOp2
 70
     1
102
RTVSPropertyOp3
 70
     1
102
RTVSPropertyOp4
 70
     1
102
RTVSPropertyOp5
 70
     1
102
RTVSPropertyOp6
 70
     1
102
RTVSPropertyOp7
 70
     1
102
RTVSPropertyOp8
 70
     1
102
RTVSPropertyOp9
 70
     1
102
RTVSPropertyOp10
 70
     1
102
RTVSPropertyOp11
 70
     1
102
RTVSPropertyOp12
 70
     1
102
RTVSPropertyOp13
 70
     1
102
RTVSPropertyOp14
 70
     1
102
RTVSPropertyOp15
 70
     1
102
RTVSPropertyOp16
 70
     1
102
RTVSPropertyOp17
 70
     1
102
RTVSPropertyOp18
 70
     1
102
RTVSPropertyOp19
 70
     1
102
RTVSPropertyOp20
 70
     1
102
RTVSPropertyOp21
 70
     1
102
RTVSPropertyOp22
 70
     1
102
RTVSPropertyOp23
 70
     1
102
RTVSPropertyOp24
 70
     1
102
RTVSPropertyOp25
 70
     1
102
RTVSPropertyOp26
 70
     1
102
RTVSPropertyOp27
 70
     1
  0
XRECORD
  5
214
102
{ACAD_REACTORS
330
213
102
}
330
213
100
AcDbXrecord
280
     1
102
RTVSPropertyOp0
 70
     1
102
RTVSPropertyOp1
 70
     1
102
RTVSPropertyOp2
 70
     1
102
RTVSPropertyOp3
 70
     1
102
RTVSPropertyOp4
 70
     1
102
RTVSPropertyOp5
 70
     1
102
RTVSPropertyOp6
 70
     1
102
RTVSPropertyOp7
 70
     1
102
RTVSPropertyOp8
 70
     1
102
RTVSPropertyOp9
 70
     1
102
RTVSPropertyOp10
 70
     1
102
RTVSPropertyOp11
 70
     1
102
RTVSPropertyOp12
 70
     1
102
RTVSPropertyOp13
 70
     1
102
RTVSPropertyOp14
 70
     1
102
RTVSPropertyOp15
 70
     1
102
RTVSPropertyOp16
 70
     1
102
RTVSPropertyOp17
 70
     1
102
RTVSPropertyOp18
 70
     1
102
RTVSPropertyOp19
 70
     1
102
RTVSPropertyOp20
 70
     1
102
RTVSPropertyOp21
 70
     1
102
RTVSPropertyOp22
 70
     1
102
RTVSPropertyOp23
 70
     1
102
RTVSPropertyOp24
 70
     1
102
RTVSPropertyOp25
 70
     1
102
RTVSPropertyOp26
 70
     1
102
RTVSPropertyOp27
 70
     1
  0
XRECORD
  5
21C
102
{ACAD_REACTORS
330
21B
102
}
330
21B
100
AcDbXrecord
280
     1
102
RTVSPropertyOp0
 70
     1
102
RTVSPropertyOp1
 70
     1
102
RTVSPropertyOp2
 70
     1
102
RTVSPropertyOp3
 70
     1
102
RTVSPropertyOp4
 70
     1
102
RTVSPropertyOp5
 70
     1
102
RTVSPropertyOp6
 70
     1
102
RTVSPropertyOp7
 70
     1
102
RTVSPropertyOp8
 70
     1
102
RTVSPropertyOp9
 70
     1
102
RTVSPropertyOp10
 70
     1
102
RTVSPropertyOp11
 70
     1
102
RTVSPropertyOp12
 70
     1
102
RTVSPropertyOp13
 70
     1
102
RTVSPropertyOp14
 70
     1
102
RTVSPropertyOp15
 70
     1
102
RTVSPropertyOp16
 70
     1
102
RTVSPropertyOp17
 70
     1
102
RTVSPropertyOp18
 70
     1
102
RTVSPropertyOp19
 70
     1
102
RTVSPropertyOp20
 70
     1
102
RTVSPropertyOp21
 70
     1
102
RTVSPropertyOp22
 70
     1
102
RTVSPropertyOp23
 70
     1
102
RTVSPropertyOp24
 70
     1
102
RTVSPropertyOp25
 70
     1
102
RTVSPropertyOp26
 70
     1
102
RTVSPropertyOp27
 70
     1
  0
ENDSEC
  0
EOF
