  0
SECTION
  2
HEADER
  9
$ACADVER
  1
AC1009
  9
$DWGCODEPAGE
  3
ansi_1252
  9
$INSBASE
 10
0.0
 20
0.0
 30
0.0
  9
$EXTMIN
 10
-1495.95160080654
 20
-68.5
 30
0.0
  9
$EXTMAX
 10
2612.130343039999
 20
688.0505214558759
 30
0.0
  9
$LIMMIN
 10
0.0
 20
0.0
  9
$LIMMAX
 10
12.0
 20
9.0
  9
$ORTHOMODE
 70
     0
  9
$REGENMODE
 70
     1
  9
$FILLMODE
 70
     1
  9
$QTEXTMODE
 70
     0
  9
$MIRRTEXT
 70
     1
  9
$DRAGMODE
 70
     2
  9
$LTSCALE
 40
1.0
  9
$OSMODE
 70
    37
  9
$ATTMODE
 70
     1
  9
$TEXTSIZE
 40
0.2
  9
$TRACEWID
 40
0.05
  9
$TEXTSTYLE
  7
STANDARD
  9
$CLAYER
  8
0
  9
$CELTYPE
  6
BYLAYER
  9
$CECOLOR
 62
   256
  9
$DIMSCALE
 40
1.0
  9
$DIMASZ
 40
0.18
  9
$DIMEXO
 40
0.0625
  9
$DIMDLI
 40
0.38
  9
$DIMRND
 40
0.0
  9
$DIMDLE
 40
0.0
  9
$DIMEXE
 40
0.18
  9
$DIMTP
 40
0.0
  9
$DIMTM
 40
0.0
  9
$DIMTXT
 40
0.18
  9
$DIMCEN
 40
0.09
  9
$DIMTSZ
 40
0.0
  9
$DIMTOL
 70
     0
  9
$DIMLIM
 70
     0
  9
$DIMTIH
 70
     1
  9
$DIMTOH
 70
     1
  9
$DIMSE1
 70
     0
  9
$DIMSE2
 70
     0
  9
$DIMTAD
 70
     0
  9
$DIMZIN
 70
     0
  9
$DIMBLK
  1

  9
$DIMASO
 70
     1
  9
$DIMSHO
 70
     1
  9
$DIMPOST
  1

  9
$DIMAPOST
  1

  9
$DIMALT
 70
     0
  9
$DIMALTD
 70
     2
  9
$DIMALTF
 40
25.4
  9
$DIMLFAC
 40
1.0
  9
$DIMTOFL
 70
     0
  9
$DIMTVP
 40
0.0
  9
$DIMTIX
 70
     0
  9
$DIMSOXD
 70
     0
  9
$DIMSAH
 70
     0
  9
$DIMBLK1
  1

  9
$DIMBLK2
  1

  9
$DIMSTYLE
  2
STANDARD
  9
$DIMCLRD
 70
     0
  9
$DIMCLRE
 70
     0
  9
$DIMCLRT
 70
     0
  9
$DIMTFAC
 40
1.0
  9
$DIMGAP
 40
0.09
  9
$LUNITS
 70
     2
  9
$LUPREC
 70
     4
  9
$SKETCHINC
 40
0.1
  9
$FILLETRAD
 40
0.5
  9
$AUNITS
 70
     0
  9
$AUPREC
 70
     0
  9
$MENU
  1
.
  9
$ELEVATION
 40
0.0
  9
$PELEVATION
 40
0.0
  9
$THICKNESS
 40
0.0
  9
$LIMCHECK
 70
     0
  9
$CHAMFERA
 40
0.5
  9
$CHAMFERB
 40
0.5
  9
$SKPOLY
 70
     0
  9
$TDCREATE
 40
2456657.433584792
  9
$TDUPDATE
 40
2456657.433584803
  9
$TDINDWG
 40
0.0000000116
  9
$TDUSRTIMER
 40
0.0000000116
  9
$USRTIMER
 70
     1
  9
$ANGBASE
 50
0.0
  9
$ANGDIR
 70
     0
  9
$PDMODE
 70
     0
  9
$PDSIZE
 40
0.0
  9
$PLINEWID
 40
0.0
  9
$COORDS
 70
     1
  9
$SPLFRAME
 70
     0
  9
$SPLINETYPE
 70
     6
  9
$SPLINESEGS
 70
     8
  9
$ATTDIA
 70
     0
  9
$ATTREQ
 70
     1
  9
$HANDLING
 70
     1
  9
$HANDSEED
  5
22C
  9
$SURFTAB1
 70
     6
  9
$SURFTAB2
 70
     6
  9
$SURFTYPE
 70
     6
  9
$SURFU
 70
     6
  9
$SURFV
 70
     6
  9
$UCSNAME
  2

  9
$UCSORG
 10
0.0
 20
0.0
 30
0.0
  9
$UCSXDIR
 10
1.0
 20
0.0
 30
0.0
  9
$UCSYDIR
 10
0.0
 20
1.0
 30
0.0
  9
$PUCSNAME
  2

  9
$PUCSORG
 10
0.0
 20
0.0
 30
0.0
  9
$PUCSXDIR
 10
1.0
 20
0.0
 30
0.0
  9
$PUCSYDIR
 10
0.0
 20
1.0
 30
0.0
  9
$USERI1
 70
     0
  9
$USERI2
 70
     0
  9
$USERI3
 70
     0
  9
$USERI4
 70
     0
  9
$USERI5
 70
     0
  9
$USERR1
 40
17.0
  9
$USERR2
 40
0.0
  9
$USERR3
 40
0.0
  9
$USERR4
 40
0.0
  9
$USERR5
 40
0.0
  9
$WORLDVIEW
 70
     1
  9
$SHADEDGE
 70
     3
  9
$SHADEDIF
 70
    70
  9
$TILEMODE
 70
     1
  9
$MAXACTVP
 70
    64
  9
$PLIMCHECK
 70
     0
  9
$PEXTMIN
 10
1.00000000000000E+20
 20
1.00000000000000E+20
 30
1.00000000000000E+20
  9
$PEXTMAX
 10
-1.00000000000000E+20
 20
-1.00000000000000E+20
 30
-1.00000000000000E+20
  9
$PLIMMIN
 10
0.0
 20
0.0
  9
$PLIMMAX
 10
12.0
 20
9.0
  9
$UNITMODE
 70
     0
  9
$VISRETAIN
 70
     1
  9
$PLINEGEN
 70
     0
  9
$PSLTSCALE
 70
     1
  0
ENDSEC
  0
SECTION
  2
TABLES
  0
TABLE
  2
VPORT
 70
     1
  0
VPORT
  2
*ACTIVE
 70
     0
 10
0.0
 20
0.0
 11
1.0
 21
1.0
 12
558.0893711167295
 22
309.775260727938
 13
0.0
 23
0.0
 14
0.5
 24
0.5
 15
0.5
 25
0.5
 16
0.0
 26
0.0
 36
1.0
 17
0.0
 27
0.0
 37
0.0
 40
2819.58604725289
 41
1.60267857142857
 42
50.0
 43
0.0
 44
0.0
 50
0.0
 51
0.0
 71
     0
 72
   100
 73
     1
 74
     3
 75
     0
 76
     0
 77
     0
 78
     0
  0
ENDTAB
  0
TABLE
  2
LTYPE
 70
     8
  0
LTYPE
  2
CONTINUOUS
 70
     0
  3
Solid line
 72
    65
 73
     0
 40
0.0
  0
LTYPE
  2
DASHED
 70
     0
  3
Dashed
 72
    65
 73
     2
 40
15.0
 49
7.0
 49
-8.0
  0
LTYPE
  2
DOTTED
 70
     0
  3
Dotted
 72
    65
 73
     2
 40
1.0
 49
0.0
 49
-1.0
  0
LTYPE
  2
DOT_CENTER
 70
     0
  3
Dot_Center
 72
    65
 73
     4
 40
14.0
 49
12.0
 49
-1.0
 49
0.0
 49
-1.0
  0
LTYPE
  2
LONG_DASHED
 70
     0
  3
Long_Dashed
 72
    65
 73
     2
 40
15.0
 49
10.0
 49
-5.0
  0
LTYPE
  2
DASH_CENTER
 70
     0
  3
Dash_Center
 72
    65
 73
     4
 40
14.0
 49
11.0
 49
-1.0
 49
1.0
 49
-1.0
  0
LTYPE
  2
PHANTOM
 70
     0
  3
Phantom
 72
    65
 73
     6
 40
13.0
 49
10.0
 49
-1.0
 49
0.0
 49
-1.0
 49
0.0
 49
-1.0
  0
LTYPE
  2
CENTER_DASH_DASH
 70
     0
  3
Center_Dash_Dash
 72
    65
 73
     6
 40
14.0
 49
9.0
 49
-1.0
 49
1.0
 49
-1.0
 49
1.0
 49
-1.0
  0
ENDTAB
  0
TABLE
  2
LAYER
 70
     2
  0
LAYER
  2
0
 70
     0
 62
     7
  6
CONTINUOUS
  0
LAYER
  2
1
 70
     0
 62
     7
  6
CONTINUOUS
  0
ENDTAB
  0
TABLE
  2
STYLE
 70
     2
  0
STYLE
  2
STANDARD
 70
     0
 40
0.0
 41
1.0
 50
0.0
 71
     0
 42
0.2
  3
txt
  4

  0
STYLE
  2
CONVERTER_11
 70
     0
 40
0.0
 41
0.9
 50
0.0
 71
     0
 42
0.2
  3
txt.shx
  4

  0
ENDTAB
  0
TABLE
  2
VIEW
 70
     0
  0
ENDTAB
  0
TABLE
  2
UCS
 70
     0
  0
ENDTAB
  0
TABLE
  2
APPID
 70
     1
  0
APPID
  2
ACAD
 70
     0
  0
ENDTAB
  0
TABLE
  2
DIMSTYLE
 70
     1
  0
DIMSTYLE
  2
STANDARD
 70
     0
  3

  4

  5

  6

  7

 40
1.0
 41
0.18
 42
0.0625
 43
0.38
 44
0.18
 45
0.0
 46
0.0
 47
0.0
 48
0.0
140
0.18
141
0.09
142
0.0
143
25.4
144
1.0
145
0.0
146
1.0
147
0.09
 71
     0
 72
     0
 73
     1
 74
     1
 75
     0
 76
     0
 77
     0
 78
     0
170
     0
171
     2
172
     0
173
     0
174
     0
175
     0
176
     0
177
     0
178
     0
  0
ENDTAB
  0
ENDSEC
  0
SECTION
  2
BLOCKS
  0
BLOCK
  8
0
  2
$MODEL_SPACE
 70
     0
 10
0.0
 20
0.0
 30
0.0
  3
$MODEL_SPACE
  1

  0
ENDBLK
  5
21
  8
0
  0
BLOCK
 67
     1
  8
0
  2
$PAPER_SPACE
 70
     0
 10
0.0
 20
0.0
 30
0.0
  3
$PAPER_SPACE
  1

  0
ENDBLK
  5
1D
 67
     1
  8
0
  0
ENDSEC
  0
SECTION
  2
ENTITIES
  0
LINE
  5
47
  8
1
  6
DOTTED
 62
     1
 10
-241.0
 20
60.9999999999882
 30
0.0
 11
-241.0
 21
60.9999999999882
 31
0.0
  0
LINE
  5
48
  8
1
  6
DOTTED
 62
     1
 10
-241.0
 20
60.9999999999882
 30
0.0
 11
-241.0
 21
60.9999999999882
 31
0.0
  0
LINE
  5
49
  8
1
  6
DOTTED
 62
     1
 10
-118.0
 20
111.699999999988
 30
0.0
 11
-118.0
 21
111.699999999988
 31
0.0
  0
LINE
  5
4A
  8
1
  6
DOTTED
 62
     1
 10
61.1758328901497
 20
60.9999999999882
 30
0.0
 11
61.1758328901497
 21
60.9999999999882
 31
0.0
  0
LINE
  5
4B
  8
0
  6
CONTINUOUS
 62
     7
 10
1802.06354950648
 20
74.5556069852994
 30
0.0
 11
1810.01968794465
 21
72.1846692287138
 31
0.0
  0
LINE
  5
4C
  8
0
  6
CONTINUOUS
 62
     7
 10
1883.1974014612
 20
73.7744271464758
 30
0.0
 11
1840.03821103593
 21
63.2391172694196
 31
0.0
  0
LINE
  5
4D
  8
0
  6
CONTINUOUS
 62
     7
 10
597.645324210101
 20
75.5860314366079
 30
0.0
 11
636.144950589675
 21
63.6289769810704
 31
0.0
  0
LINE
  5
4E
  8
0
  6
CONTINUOUS
 62
     7
 10
62.3552720829374
 20
139.946869388244
 30
0.0
 11
60.9702958035407
 21
139.652784049554
 31
0.0
  0
LINE
  5
4F
  8
0
  6
CONTINUOUS
 62
     7
 10
110.544215316987
 20
73.6954082852213
 30
0.0
 11
112.873643056681
 21
74.1900380893359
 31
0.0
  0
LINE
  5
50
  8
0
  6
CONTINUOUS
 62
     7
 10
29.6584268810811
 20
78.2139959672208
 30
0.0
 11
27.3248635863245
 21
79.3019171500188
 31
0.0
  0
LINE
  5
51
  8
0
  6
CONTINUOUS
 62
     7
 10
1270.64714690441
 20
147.944347981407
 30
0.0
 11
1327.35475794162
 21
158.897966120612
 31
0.0
  0
LINE
  5
52
  8
0
  6
CONTINUOUS
 62
     7
 10
1229.04080400953
 20
76.2427952533721
 30
0.0
 11
1268.40122230008
 21
63.6191154043407
 31
0.0
  0
LINE
  5
53
  8
0
  6
CONTINUOUS
 62
     7
 10
1327.35475794162
 20
158.897966120612
 30
0.0
 11
1328.67353959365
 21
159.152701426175
 31
0.0
  0
LINE
  5
54
  8
0
  6
CONTINUOUS
 62
     7
 10
2491.71284802147
 20
74.0872769589892
 30
0.0
 11
2489.50367081253
 21
75.1437909673783
 31
0.0
  0
LINE
  5
55
  8
0
  6
CONTINUOUS
 62
     7
 10
2515.90610537616
 20
138.674625633452
 30
0.0
 11
2514.65659387688
 21
138.493086019269
 31
0.0
  0
LINE
  5
56
  8
0
  6
CONTINUOUS
 62
     7
 10
1797.41677086022
 20
153.305532632768
 30
0.0
 11
1809.58801517252
 21
149.67848882139
 31
0.0
  0
LINE
  5
57
  8
0
  6
CONTINUOUS
 62
     7
 10
1810.69449192818
 20
149.34875756581
 30
0.0
 11
1839.46288757544
 21
140.775744920734
 31
0.0
  0
LINE
  5
58
  8
0
  6
CONTINUOUS
 62
     7
 10
592.830434948919
 20
157.700513487052
 30
0.0
 11
635.602080734328
 21
144.416672943591
 31
0.0
  0
LINE
  5
59
  8
0
  6
CONTINUOUS
 62
     7
 10
635.602080734328
 20
144.416672943591
 30
0.0
 11
636.671371878963
 21
144.084576930004
 31
0.0
  0
LINE
  5
5A
  8
0
  6
CONTINUOUS
 62
     7
 10
1268.30924762024
 20
148.016464250991
 30
0.0
 11
1269.32836525238
 21
147.689612675844
 31
0.0
  0
LINE
  5
5B
  8
0
  6
CONTINUOUS
 62
     7
 10
60.0431429080628
 20
140.085028281776
 30
0.0
 11
60.9702958035407
 21
139.652784049554
 31
0.0
  0
LINE
  5
5C
  8
0
  6
CONTINUOUS
 62
     7
 10
2513.96411284368
 20
138.824257239557
 30
0.0
 11
2487.649833582284
 21
151.4087636104697
 31
0.0
  0
LINE
  5
5D
  8
0
  6
CONTINUOUS
 62
     7
 10
-241.0
 20
9.49999999999994
 30
0.0
 11
-239.0
 21
9.49999999999994
 31
0.0
  0
LINE
  5
5E
  8
0
  6
CONTINUOUS
 62
     7
 10
-241.0
 20
9.49999999999994
 30
0.0
 11
-241.0
 21
7.49999999999993
 31
0.0
  0
LINE
  5
5F
  8
0
  6
CONTINUOUS
 62
     7
 10
-163.55
 20
60.9999999999882
 30
0.0
 11
-164.45
 21
60.9999999999882
 31
0.0
  0
LINE
  5
60
  8
0
  6
CONTINUOUS
 62
     7
 10
-239.0
 20
62.9999999999882
 30
0.0
 11
-165.0
 21
62.9999999999882
 31
0.0
  0
LINE
  5
61
  8
0
  6
CONTINUOUS
 62
     7
 10
-239.0
 20
60.9999999999882
 30
0.0
 11
-165.0
 21
60.9999999999882
 31
0.0
  0
LINE
  5
62
  8
0
  6
CONTINUOUS
 62
     7
 10
-241.0
 20
160.999999999988
 30
0.0
 11
-241.0
 21
160.399999999988
 31
0.0
  0
LINE
  5
63
  8
0
  6
CONTINUOUS
 62
     7
 10
-163.0
 20
160.399999999988
 30
0.0
 11
-163.0
 21
160.999999999988
 31
0.0
  0
LINE
  5
64
  8
0
  6
CONTINUOUS
 62
     7
 10
-233.45
 20
160.999999999988
 30
0.0
 11
-241.0
 21
160.999999999988
 31
0.0
  0
LINE
  5
65
  8
0
  6
CONTINUOUS
 62
     7
 10
-171.45
 20
160.999999999988
 30
0.0
 11
-232.55
 21
160.999999999988
 31
0.0
  0
LINE
  5
66
  8
0
  6
CONTINUOUS
 62
     7
 10
-170.55
 20
160.999999999988
 30
0.0
 11
-171.45
 21
160.999999999988
 31
0.0
  0
LINE
  5
67
  8
0
  6
CONTINUOUS
 62
     7
 10
-163.0
 20
160.999999999988
 30
0.0
 11
-170.55
 21
160.999999999988
 31
0.0
  0
LINE
  5
68
  8
0
  6
CONTINUOUS
 62
     7
 10
-232.55
 20
160.999999999988
 30
0.0
 11
-233.45
 21
160.999999999988
 31
0.0
  0
LINE
  5
69
  8
0
  6
CONTINUOUS
 62
     7
 10
-163.0
 20
60.9999999999882
 30
0.0
 11
-163.55
 21
60.9999999999882
 31
0.0
  0
LINE
  5
6A
  8
0
  6
CONTINUOUS
 62
     7
 10
-164.45
 20
60.9999999999882
 30
0.0
 11
-165.0
 21
60.9999999999882
 31
0.0
  0
LINE
  5
6B
  8
0
  6
CONTINUOUS
 62
     7
 10
-165.0
 20
62.9999999999882
 30
0.0
 11
-165.0
 21
160.999999999988
 31
0.0
  0
LINE
  5
6C
  8
0
  6
CONTINUOUS
 62
     7
 10
-163.0
 20
62.9999999999882
 30
0.0
 11
-163.0
 21
160.399999999988
 31
0.0
  0
LINE
  5
6D
  8
0
  6
CONTINUOUS
 62
     7
 10
-163.0
 20
60.9999999999882
 30
0.0
 11
-163.0
 21
62.9999999999882
 31
0.0
  0
LINE
  5
6E
  8
0
  6
CONTINUOUS
 62
     7
 10
-241.0
 20
60.9999999999882
 30
0.0
 11
-241.0
 21
62.9999999999882
 31
0.0
  0
LINE
  5
6F
  8
0
  6
CONTINUOUS
 62
     7
 10
-240.45
 20
60.9999999999882
 30
0.0
 11
-241.0
 21
60.9999999999882
 31
0.0
  0
LINE
  5
70
  8
0
  6
CONTINUOUS
 62
     7
 10
-239.55
 20
60.9999999999882
 30
0.0
 11
-240.45
 21
60.9999999999882
 31
0.0
  0
LINE
  5
71
  8
0
  6
CONTINUOUS
 62
     7
 10
-239.0
 20
60.9999999999882
 30
0.0
 11
-239.55
 21
60.9999999999882
 31
0.0
  0
LINE
  5
72
  8
0
  6
CONTINUOUS
 62
     7
 10
-241.0
 20
62.9999999999882
 30
0.0
 11
-241.0
 21
160.399999999988
 31
0.0
  0
LINE
  5
73
  8
0
  6
CONTINUOUS
 62
     7
 10
-239.0
 20
62.9999999999882
 30
0.0
 11
-239.0
 21
160.999999999988
 31
0.0
  0
LINE
  5
74
  8
0
  6
CONTINUOUS
 62
     7
 10
-118.0
 20
160.999999999988
 30
0.0
 11
-40.0
 21
160.999999999988
 31
0.0
  0
LINE
  5
75
  8
0
  6
CONTINUOUS
 62
     7
 10
-40.0
 20
160.999999999988
 30
0.0
 11
-40.0
 21
160.399999999988
 31
0.0
  0
LINE
  5
76
  8
0
  6
CONTINUOUS
 62
     7
 10
-118.0
 20
160.399999999988
 30
0.0
 11
-118.0
 21
160.999999999988
 31
0.0
  0
LINE
  5
77
  8
0
  6
CONTINUOUS
 62
     7
 10
-118.0
 20
160.399999999988
 30
0.0
 11
-118.0
 21
62.9999999999882
 31
0.0
  0
LINE
  5
78
  8
0
  6
CONTINUOUS
 62
     7
 10
-118.0
 20
62.9999999999882
 30
0.0
 11
-118.0
 21
60.9999999999882
 31
0.0
  0
LINE
  5
79
  8
0
  6
CONTINUOUS
 62
     7
 10
-116.0
 20
62.9999999999882
 30
0.0
 11
-116.0
 21
160.999999999988
 31
0.0
  0
LINE
  5
7A
  8
0
  6
CONTINUOUS
 62
     7
 10
-118.0
 20
60.9999999999882
 30
0.0
 11
-116.0
 21
60.9999999999882
 31
0.0
  0
LINE
  5
7B
  8
0
  6
CONTINUOUS
 62
     7
 10
-42.0
 20
160.999999999988
 30
0.0
 11
-42.0
 21
62.9999999999882
 31
0.0
  0
LINE
  5
7C
  8
0
  6
CONTINUOUS
 62
     7
 10
-40.0
 20
62.9999999999882
 30
0.0
 11
-40.0
 21
160.399999999988
 31
0.0
  0
LINE
  5
7D
  8
0
  6
CONTINUOUS
 62
     7
 10
-40.0
 20
60.9999999999882
 30
0.0
 11
-40.0
 21
62.9999999999882
 31
0.0
  0
LINE
  5
7E
  8
0
  6
CONTINUOUS
 62
     7
 10
-42.0
 20
60.9999999999882
 30
0.0
 11
-40.0
 21
60.9999999999882
 31
0.0
  0
LINE
  5
7F
  8
0
  6
CONTINUOUS
 62
     7
 10
-116.0
 20
60.9999999999882
 30
0.0
 11
-42.0
 21
60.9999999999882
 31
0.0
  0
LINE
  5
80
  8
0
  6
CONTINUOUS
 62
     7
 10
-116.0
 20
62.9999999999882
 30
0.0
 11
-42.0
 21
62.9999999999882
 31
0.0
  0
LINE
  5
81
  8
0
  6
CONTINUOUS
 62
     7
 10
77.5045126309698
 20
143.163653389341
 30
0.0
 11
77.6418330285218
 21
90.6153189137639
 31
0.0
  0
LINE
  5
82
  8
0
  6
CONTINUOUS
 62
     7
 10
79.9539622033963
 20
90.477160020232
 30
0.0
 11
79.8149986998445
 21
143.654261126247
 31
0.0
  0
LINE
  5
83
  8
0
  6
CONTINUOUS
 62
     7
 10
78.5689859239997
 20
90.1830746815422
 30
0.0
 11
78.4300224204478
 21
143.360175787557
 31
0.0
  0
LINE
  5
84
  8
0
  6
CONTINUOUS
 62
     7
 10
62.5608091695463
 20
61.2940853386779
 30
0.0
 11
61.1758328901497
 21
60.9999999999882
 31
0.0
  0
LINE
  5
85
  8
0
  6
CONTINUOUS
 62
     7
 10
61.1758328901497
 20
60.9999999999882
 30
0.0
 11
60.9702958035407
 21
139.652784049554
 31
0.0
  0
LINE
  5
86
  8
0
  6
CONTINUOUS
 62
     7
 10
60.0431429080628
 20
140.085028281776
 30
0.0
 11
60.2445444396092
 21
63.0147952191227
 31
0.0
  0
LINE
  5
87
  8
0
  6
CONTINUOUS
 62
     7
 10
62.5566736144838
 20
62.8766363255907
 30
0.0
 11
62.3552720829374
 21
139.946869388244
 31
0.0
  0
LINE
  5
88
  8
0
  6
CONTINUOUS
 62
     7
 10
60.2486799946718
 20
61.4322442322099
 30
0.0
 11
61.1758328901497
 21
60.9999999999882
 31
0.0
  0
LINE
  5
89
  8
0
  6
CONTINUOUS
 62
     7
 10
78.5689859239997
 20
90.1830746815422
 30
0.0
 11
112.873643056681
 21
74.1900380893359
 31
0.0
  0
LINE
  5
8A
  8
0
  6
CONTINUOUS
 62
     7
 10
78.5731214790623
 20
88.6005236946293
 30
0.0
 11
110.544215316987
 21
73.6954082852213
 31
0.0
  0
LINE
  5
8B
  8
0
  6
CONTINUOUS
 62
     7
 10
79.9539622033963
 20
90.477160020232
 30
0.0
 11
112.871184235759
 21
75.1309539805916
 31
0.0
  0
LINE
  5
8C
  8
0
  6
CONTINUOUS
 62
     7
 10
62.5566736144838
 20
62.8766363255907
 30
0.0
 11
113.800795952159
 21
73.757793857114
 31
0.0
  0
LINE
  5
8D
  8
0
  6
CONTINUOUS
 62
     7
 10
62.5608091695463
 20
61.2940853386779
 30
0.0
 11
113.804931507222
 21
72.1752428702012
 31
0.0
  0
LINE
  5
8E
  8
0
  6
CONTINUOUS
 62
     7
 10
62.555030508484
 20
63.5054029560286
 30
0.0
 11
110.544215316987
 21
73.6954082852213
 31
0.0
  0
LINE
  5
8F
  8
0
  6
CONTINUOUS
 62
     7
 10
113.800795952159
 20
73.757793857114
 30
0.0
 11
113.599394420613
 21
150.828026919767
 31
0.0
  0
LINE
  5
90
  8
0
  6
CONTINUOUS
 62
     7
 10
112.673884631135
 20
150.631504521551
 30
0.0
 11
112.873643056681
 21
74.1900380893359
 31
0.0
  0
LINE
  5
91
  8
0
  6
CONTINUOUS
 62
     7
 10
115.189907786618
 20
72.4693282088911
 30
0.0
 11
113.804931507222
 21
72.1752428702012
 31
0.0
  0
LINE
  5
92
  8
0
  6
CONTINUOUS
 62
     7
 10
115.189907786618
 20
72.4693282088911
 30
0.0
 11
114.984370700009
 21
151.122112258457
 31
0.0
  0
LINE
  5
93
  8
0
  6
CONTINUOUS
 62
     7
 10
24.8113328799037
 20
156.510309106204
 30
0.0
 11
78.8241671098533
 21
168.454402611181
 31
0.0
  0
LINE
  5
94
  8
0
  6
CONTINUOUS
 62
     7
 10
25.7384857753814
 20
156.078064873982
 30
0.0
 11
60.0431429080628
 21
140.085028281776
 31
0.0
  0
LINE
  5
95
  8
0
  6
CONTINUOUS
 62
     7
 10
113.599394420613
 20
150.828026919767
 30
0.0
 11
62.3552720829374
 21
139.946869388244
 31
0.0
  0
LINE
  5
96
  8
0
  6
CONTINUOUS
 62
     7
 10
114.984370700009
 20
151.122112258457
 30
0.0
 11
113.599394420613
 21
150.828026919767
 31
0.0
  0
LINE
  5
97
  8
0
  6
CONTINUOUS
 62
     7
 10
78.8241671098533
 20
168.454402611181
 30
0.0
 11
114.984370700009
 21
151.122112258457
 31
0.0
  0
LINE
  5
98
  8
0
  6
CONTINUOUS
 62
     7
 10
27.3248635863245
 20
79.3019171500188
 30
0.0
 11
27.1259208757006
 21
155.431234321416
 31
0.0
  0
LINE
  5
99
  8
0
  6
CONTINUOUS
 62
     7
 10
24.8113328799037
 20
156.510309106204
 30
0.0
 11
25.0168699665125
 21
77.857525056638
 31
0.0
  0
LINE
  5
9A
  8
0
  6
CONTINUOUS
 62
     7
 10
24.8113328799037
 20
156.510309106204
 30
0.0
 11
25.7384857753814
 21
156.078064873982
 31
0.0
  0
LINE
  5
9B
  8
0
  6
CONTINUOUS
 62
     7
 10
25.0168699665125
 20
77.857525056638
 30
0.0
 11
25.9440228619905
 21
77.4252808244163
 31
0.0
  0
LINE
  5
9C
  8
0
  6
CONTINUOUS
 62
     7
 10
25.9398873069279
 20
79.007831811329
 30
0.0
 11
25.7384857753814
 21
156.078064873982
 31
0.0
  0
LINE
  5
9D
  8
0
  6
CONTINUOUS
 62
     7
 10
60.2486799946718
 20
61.4322442322099
 30
0.0
 11
25.9440228619905
 21
77.4252808244163
 31
0.0
  0
LINE
  5
9E
  8
0
  6
CONTINUOUS
 62
     7
 10
60.2445444396092
 20
63.0147952191227
 30
0.0
 11
25.9398873069279
 21
79.007831811329
 31
0.0
  0
LINE
  5
9F
  8
0
  6
CONTINUOUS
 62
     7
 10
60.2420856186868
 20
63.9557111103784
 30
0.0
 11
29.6584268810811
 21
78.2139959672208
 31
0.0
  0
LINE
  5
A0
  8
0
  6
CONTINUOUS
 62
     7
 10
78.5689859239997
 20
90.1830746815422
 30
0.0
 11
62.4942355864892
 21
86.7697682822293
 31
0.0
  0
LINE
  5
A1
  8
0
  6
CONTINUOUS
 62
     7
 10
77.6418330285218
 20
90.6153189137639
 30
0.0
 11
62.4925924804895
 21
87.3985349126671
 31
0.0
  0
LINE
  5
A2
  8
0
  6
CONTINUOUS
 62
     7
 10
78.5731214790623
 20
88.6005236946293
 30
0.0
 11
62.4983711415518
 21
85.1872172953165
 31
0.0
  0
LINE
  5
A3
  8
0
  6
CONTINUOUS
 62
     7
 10
60.1821064116148
 20
86.9079271757612
 30
0.0
 11
27.3232204803247
 21
79.9306837804567
 31
0.0
  0
LINE
  5
A4
  8
0
  6
CONTINUOUS
 62
     7
 10
60.1878850726772
 20
84.6966095584105
 30
0.0
 11
29.6584268810811
 21
78.2139959672208
 31
0.0
  0
LINE
  5
A5
  8
0
  6
CONTINUOUS
 62
     7
 10
60.1837495176146
 20
86.2791605453233
 30
0.0
 11
27.3248635863245
 21
79.3019171500188
 31
0.0
  0
LINE
  5
A6
  8
0
  6
CONTINUOUS
 62
     7
 10
-163.0
 20
7.49999999999993
 30
0.0
 11
-163.0
 21
-66.5
 31
0.0
  0
LINE
  5
A7
  8
0
  6
CONTINUOUS
 62
     7
 10
-239.0
 20
9.49999999999994
 30
0.0
 11
-165.0
 21
9.49999999999994
 31
0.0
  0
LINE
  5
A8
  8
0
  6
CONTINUOUS
 62
     7
 10
-165.0
 20
9.49999999999994
 30
0.0
 11
-163.0
 21
9.49999999999994
 31
0.0
  0
LINE
  5
A9
  8
0
  6
CONTINUOUS
 62
     7
 10
-163.0
 20
-66.5
 30
0.0
 11
-163.0
 21
-68.5
 31
0.0
  0
LINE
  5
AA
  8
0
  6
CONTINUOUS
 62
     7
 10
-241.0
 20
7.49999999999993
 30
0.0
 11
-241.0
 21
-66.5
 31
0.0
  0
LINE
  5
AB
  8
0
  6
CONTINUOUS
 62
     7
 10
-165.0
 20
-68.5
 30
0.0
 11
-239.0
 21
-68.5
 31
0.0
  0
LINE
  5
AC
  8
0
  6
CONTINUOUS
 62
     7
 10
-163.0
 20
-68.5
 30
0.0
 11
-165.0
 21
-68.5
 31
0.0
  0
LINE
  5
AD
  8
0
  6
CONTINUOUS
 62
     7
 10
-239.0
 20
-68.5
 30
0.0
 11
-241.0
 21
-68.5
 31
0.0
  0
LINE
  5
AE
  8
0
  6
CONTINUOUS
 62
     7
 10
-163.0
 20
9.49999999999994
 30
0.0
 11
-163.0
 21
7.49999999999993
 31
0.0
  0
LINE
  5
AF
  8
0
  6
CONTINUOUS
 62
     7
 10
-241.0
 20
-66.5
 30
0.0
 11
-241.0
 21
-68.5
 31
0.0
  0
LINE
  5
B0
  8
0
  6
CONTINUOUS
 62
     7
 10
395.340043592018
 20
32.5000000000002
 30
0.0
 11
397.340043592018
 21
32.5000000000002
 31
0.0
  0
LINE
  5
B1
  8
0
  6
CONTINUOUS
 62
     7
 10
315.340043592018
 20
32.5000000000002
 30
0.0
 11
395.340043592018
 21
32.5000000000002
 31
0.0
  0
LINE
  5
B2
  8
0
  6
CONTINUOUS
 62
     7
 10
397.340043592018
 20
-51.4999999999998
 30
0.0
 11
397.340043592018
 21
-49.4999999999998
 31
0.0
  0
LINE
  5
B3
  8
0
  6
CONTINUOUS
 62
     7
 10
313.340043592018
 20
-51.4999999999998
 30
0.0
 11
315.340043592018
 21
-51.4999999999998
 31
0.0
  0
LINE
  5
B4
  8
0
  6
CONTINUOUS
 62
     7
 10
315.340043592018
 20
-51.4999999999998
 30
0.0
 11
395.340043592018
 21
-51.4999999999998
 31
0.0
  0
LINE
  5
B5
  8
0
  6
CONTINUOUS
 62
     7
 10
313.340043592018
 20
32.5000000000002
 30
0.0
 11
313.340043592018
 21
30.5000000000002
 31
0.0
  0
LINE
  5
B6
  8
0
  6
CONTINUOUS
 62
     7
 10
313.340043592018
 20
30.5000000000002
 30
0.0
 11
313.340043592018
 21
-49.4999999999998
 31
0.0
  0
LINE
  5
B7
  8
0
  6
CONTINUOUS
 62
     7
 10
313.340043592018
 20
32.5000000000002
 30
0.0
 11
315.340043592018
 21
32.5000000000002
 31
0.0
  0
LINE
  5
B8
  8
0
  6
CONTINUOUS
 62
     7
 10
397.340043592018
 20
30.5000000000002
 30
0.0
 11
397.340043592018
 21
32.5000000000002
 31
0.0
  0
LINE
  5
B9
  8
0
  6
CONTINUOUS
 62
     7
 10
397.340043592018
 20
-49.4999999999998
 30
0.0
 11
397.340043592018
 21
30.5000000000002
 31
0.0
  0
LINE
  5
BA
  8
0
  6
CONTINUOUS
 62
     7
 10
395.340043592018
 20
-51.4999999999998
 30
0.0
 11
397.340043592018
 21
-51.4999999999998
 31
0.0
  0
LINE
  5
BB
  8
0
  6
CONTINUOUS
 62
     7
 10
313.340043592018
 20
-49.4999999999998
 30
0.0
 11
313.340043592018
 21
-51.4999999999998
 31
0.0
  0
LINE
  5
BC
  8
0
  6
CONTINUOUS
 62
     7
 10
593.377940256085
 20
76.2229883351794
 30
0.0
 11
636.149586041494
 21
62.9391477917182
 31
0.0
  0
LINE
  5
BD
  8
0
  6
CONTINUOUS
 62
     7
 10
594.656333278674
 20
76.514339856586
 30
0.0
 11
597.645324210101
 21
75.5860314366079
 31
0.0
  0
LINE
  5
BE
  8
0
  6
CONTINUOUS
 62
     7
 10
593.388739177331
 20
74.615936557036
 30
0.0
 11
636.16038496274
 21
61.3320960135747
 31
0.0
  0
LINE
  5
BF
  8
0
  6
CONTINUOUS
 62
     7
 10
592.830434948919
 20
157.700513487052
 30
0.0
 11
593.377940256085
 21
76.2229883351794
 31
0.0
  0
LINE
  5
C0
  8
0
  6
CONTINUOUS
 62
     7
 10
591.761143804283
 20
158.032609500639
 30
0.0
 11
592.319448032696
 21
74.9480325706225
 31
0.0
  0
LINE
  5
C1
  8
0
  6
CONTINUOUS
 62
     7
 10
592.319448032696
 20
74.9480325706225
 30
0.0
 11
593.388739177331
 21
74.615936557036
 31
0.0
  0
LINE
  5
C2
  8
0
  6
CONTINUOUS
 62
     7
 10
594.656333278674
 20
76.514339856586
 30
0.0
 11
594.113463423327
 21
157.302035819106
 31
0.0
  0
LINE
  5
C3
  8
0
  6
CONTINUOUS
 62
     7
 10
636.671371878963
 20
144.084576930004
 30
0.0
 11
637.949764901552
 21
144.375928451411
 31
0.0
  0
LINE
  5
C4
  8
0
  6
CONTINUOUS
 62
     7
 10
637.949764901552
 20
144.375928451411
 30
0.0
 11
689.085485805118
 21
156.029989307676
 31
0.0
  0
LINE
  5
C5
  8
0
  6
CONTINUOUS
 62
     7
 10
591.761143804283
 20
158.032609500639
 30
0.0
 11
592.830434948919
 21
157.700513487052
 31
0.0
  0
LINE
  5
C6
  8
0
  6
CONTINUOUS
 62
     7
 10
690.363878827707
 20
156.321340829083
 30
0.0
 11
645.450411076653
 21
170.75148893316
 31
0.0
  0
LINE
  5
C7
  8
0
  6
CONTINUOUS
 62
     7
 10
591.761143804283
 20
158.032609500639
 30
0.0
 11
645.450411076653
 21
170.75148893316
 31
0.0
  0
LINE
  5
C8
  8
0
  6
CONTINUOUS
 62
     7
 10
689.085485805118
 20
156.029989307676
 30
0.0
 11
690.363878827707
 21
156.321340829083
 31
0.0
  0
LINE
  5
C9
  8
0
  6
CONTINUOUS
 62
     7
 10
689.64379003353
 20
72.9454123776605
 30
0.0
 11
690.92218305612
 21
73.236763899067
 31
0.0
  0
LINE
  5
CA
  8
0
  6
CONTINUOUS
 62
     7
 10
688.574498888895
 20
73.277508391247
 30
0.0
 11
689.64379003353
 21
72.9454123776605
 31
0.0
  0
LINE
  5
CB
  8
0
  6
CONTINUOUS
 62
     7
 10
689.085485805118
 20
156.029989307676
 30
0.0
 11
689.64379003353
 21
72.9454123776605
 31
0.0
  0
LINE
  5
CC
  8
0
  6
CONTINUOUS
 62
     7
 10
688.020057900996
 20
155.78717349491
 30
0.0
 11
688.56369996765
 21
74.8845601693905
 31
0.0
  0
LINE
  5
CD
  8
0
  6
CONTINUOUS
 62
     7
 10
690.92218305612
 20
73.236763899067
 30
0.0
 11
690.363878827707
 21
156.321340829083
 31
0.0
  0
LINE
  5
CE
  8
0
  6
CONTINUOUS
 62
     7
 10
636.16038496274
 20
61.3320960135747
 30
0.0
 11
637.229676107376
 21
60.9999999999882
 31
0.0
  0
LINE
  5
CF
  8
0
  6
CONTINUOUS
 62
     7
 10
635.602080734328
 20
144.416672943591
 30
0.0
 11
636.149586041494
 21
62.9391477917182
 31
0.0
  0
LINE
  5
D0
  8
0
  6
CONTINUOUS
 62
     7
 10
637.229676107376
 20
60.9999999999882
 30
0.0
 11
638.508069129965
 21
61.2913515213949
 31
0.0
  0
LINE
  5
D1
  8
0
  6
CONTINUOUS
 62
     7
 10
636.671371878963
 20
144.084576930004
 30
0.0
 11
637.229676107376
 21
60.9999999999882
 31
0.0
  0
LINE
  5
D2
  8
0
  6
CONTINUOUS
 62
     7
 10
638.508069129965
 20
61.2913515213949
 30
0.0
 11
637.949764901552
 21
144.375928451411
 31
0.0
  0
LINE
  5
D3
  8
0
  6
CONTINUOUS
 62
     7
 10
688.574498888895
 20
73.277508391247
 30
0.0
 11
645.802853103486
 21
86.5613489347081
 31
0.0
  0
LINE
  5
D4
  8
0
  6
CONTINUOUS
 62
     7
 10
688.55906451583
 20
75.5743893587426
 30
0.0
 11
647.070447204829
 21
88.4597522342581
 31
0.0
  0
LINE
  5
D5
  8
0
  6
CONTINUOUS
 62
     7
 10
688.56369996765
 20
74.8845601693905
 30
0.0
 11
645.79205418224
 21
88.1684007128516
 31
0.0
  0
LINE
  5
D6
  8
0
  6
CONTINUOUS
 62
     7
 10
647.070447204829
 20
88.4597522342581
 30
0.0
 11
646.681334758704
 21
146.365892505655
 31
0.0
  0
LINE
  5
D7
  8
0
  6
CONTINUOUS
 62
     7
 10
645.402941736114
 20
146.074540984249
 30
0.0
 11
645.79205418224
 21
88.1684007128516
 31
0.0
  0
LINE
  5
D8
  8
0
  6
CONTINUOUS
 62
     7
 10
644.337513831993
 20
145.831725171482
 30
0.0
 11
644.722763037605
 21
88.5004967264381
 31
0.0
  0
LINE
  5
D9
  8
0
  6
CONTINUOUS
 62
     7
 10
597.645324210101
 20
75.5860314366079
 30
0.0
 11
636.005855342213
 21
84.3285690676972
 31
0.0
  0
LINE
  5
DA
  8
0
  6
CONTINUOUS
 62
     7
 10
594.656333278674
 20
76.514339856586
 30
0.0
 11
635.995056420967
 21
85.9356208458406
 31
0.0
  0
LINE
  5
DB
  8
0
  6
CONTINUOUS
 62
     7
 10
594.652470038161
 20
77.0892516829392
 30
0.0
 11
635.991193180454
 21
86.5105326721936
 31
0.0
  0
LINE
  5
DC
  8
0
  6
CONTINUOUS
 62
     7
 10
638.349676268924
 20
84.8627364018702
 30
0.0
 11
645.802853103486
 21
86.5613489347081
 31
0.0
  0
LINE
  5
DD
  8
0
  6
CONTINUOUS
 62
     7
 10
638.338877347678
 20
86.4697881800136
 30
0.0
 11
645.79205418224
 21
88.1684007128516
 31
0.0
  0
LINE
  5
DE
  8
0
  6
CONTINUOUS
 62
     7
 10
638.335014107165
 20
87.0447000063667
 30
0.0
 11
644.722763037605
 21
88.5004967264381
 31
0.0
  0
LINE
  5
DF
  8
0
  6
CONTINUOUS
 62
     7
 10
419.340043592018
 20
60.9999999999882
 30
0.0
 11
499.340043592018
 21
60.9999999999882
 31
0.0
  0
LINE
  5
E0
  8
0
  6
CONTINUOUS
 62
     7
 10
419.340043592018
 20
62.9999999999882
 30
0.0
 11
499.340043592018
 21
62.9999999999882
 31
0.0
  0
LINE
  5
E1
  8
0
  6
CONTINUOUS
 62
     7
 10
499.340043592018
 20
164.999999999988
 30
0.0
 11
499.340043592018
 21
62.9999999999882
 31
0.0
  0
LINE
  5
E2
  8
0
  6
CONTINUOUS
 62
     7
 10
499.340043592018
 20
60.9999999999882
 30
0.0
 11
501.340043592018
 21
60.9999999999882
 31
0.0
  0
LINE
  5
E3
  8
0
  6
CONTINUOUS
 62
     7
 10
501.340043592018
 20
164.399999999988
 30
0.0
 11
501.340043592018
 21
60.9999999999882
 31
0.0
  0
LINE
  5
E4
  8
0
  6
CONTINUOUS
 62
     7
 10
417.340043592018
 20
164.999999999988
 30
0.0
 11
417.340043592018
 21
164.399999999988
 31
0.0
  0
LINE
  5
E5
  8
0
  6
CONTINUOUS
 62
     7
 10
417.340043592018
 20
164.999999999988
 30
0.0
 11
501.340043592018
 21
164.999999999988
 31
0.0
  0
LINE
  5
E6
  8
0
  6
CONTINUOUS
 62
     7
 10
501.340043592018
 20
164.399999999988
 30
0.0
 11
501.340043592018
 21
164.999999999988
 31
0.0
  0
LINE
  5
E7
  8
0
  6
CONTINUOUS
 62
     7
 10
419.340043592018
 20
164.999999999988
 30
0.0
 11
419.340043592018
 21
62.9999999999882
 31
0.0
  0
LINE
  5
E8
  8
0
  6
CONTINUOUS
 62
     7
 10
417.340043592018
 20
60.9999999999882
 30
0.0
 11
417.340043592018
 21
62.9999999999882
 31
0.0
  0
LINE
  5
E9
  8
0
  6
CONTINUOUS
 62
     7
 10
417.340043592018
 20
164.399999999988
 30
0.0
 11
417.340043592018
 21
62.9999999999882
 31
0.0
  0
LINE
  5
EA
  8
0
  6
CONTINUOUS
 62
     7
 10
419.340043592018
 20
60.9999999999882
 30
0.0
 11
417.340043592018
 21
60.9999999999882
 31
0.0
  0
LINE
  5
EB
  8
0
  6
CONTINUOUS
 62
     7
 10
395.340043592018
 20
164.999999999988
 30
0.0
 11
395.340043592018
 21
62.9999999999882
 31
0.0
  0
LINE
  5
EC
  8
0
  6
CONTINUOUS
 62
     7
 10
395.890043592018
 20
60.9999999999882
 30
0.0
 11
395.340043592018
 21
60.9999999999882
 31
0.0
  0
LINE
  5
ED
  8
0
  6
CONTINUOUS
 62
     7
 10
397.340043592018
 20
62.9999999999882
 30
0.0
 11
397.340043592018
 21
164.399999999988
 31
0.0
  0
LINE
  5
EE
  8
0
  6
CONTINUOUS
 62
     7
 10
396.790043592018
 20
60.9999999999882
 30
0.0
 11
395.890043592018
 21
60.9999999999882
 31
0.0
  0
LINE
  5
EF
  8
0
  6
CONTINUOUS
 62
     7
 10
315.340043592018
 20
62.9999999999882
 30
0.0
 11
315.340043592018
 21
164.999999999988
 31
0.0
  0
LINE
  5
F0
  8
0
  6
CONTINUOUS
 62
     7
 10
313.340043592018
 20
164.399999999988
 30
0.0
 11
313.340043592018
 21
62.9999999999882
 31
0.0
  0
LINE
  5
F1
  8
0
  6
CONTINUOUS
 62
     7
 10
314.790043592018
 20
60.9999999999882
 30
0.0
 11
315.340043592018
 21
60.9999999999882
 31
0.0
  0
LINE
  5
F2
  8
0
  6
CONTINUOUS
 62
     7
 10
313.890043592018
 20
60.9999999999882
 30
0.0
 11
314.790043592018
 21
60.9999999999882
 31
0.0
  0
LINE
  5
F3
  8
0
  6
CONTINUOUS
 62
     7
 10
313.340043592018
 20
62.9999999999882
 30
0.0
 11
313.340043592018
 21
60.9999999999882
 31
0.0
  0
LINE
  5
F4
  8
0
  6
CONTINUOUS
 62
     7
 10
397.340043592018
 20
60.9999999999882
 30
0.0
 11
396.790043592018
 21
60.9999999999882
 31
0.0
  0
LINE
  5
F5
  8
0
  6
CONTINUOUS
 62
     7
 10
397.340043592018
 20
62.9999999999882
 30
0.0
 11
397.340043592018
 21
60.9999999999882
 31
0.0
  0
LINE
  5
F6
  8
0
  6
CONTINUOUS
 62
     7
 10
315.340043592018
 20
60.9999999999882
 30
0.0
 11
395.340043592018
 21
60.9999999999882
 31
0.0
  0
LINE
  5
F7
  8
0
  6
CONTINUOUS
 62
     7
 10
315.340043592018
 20
62.9999999999882
 30
0.0
 11
395.340043592018
 21
62.9999999999882
 31
0.0
  0
LINE
  5
F8
  8
0
  6
CONTINUOUS
 62
     7
 10
313.340043592018
 20
164.399999999988
 30
0.0
 11
313.340043592018
 21
164.999999999988
 31
0.0
  0
LINE
  5
F9
  8
0
  6
CONTINUOUS
 62
     7
 10
388.890043592018
 20
164.999999999988
 30
0.0
 11
389.790043592018
 21
164.999999999988
 31
0.0
  0
LINE
  5
FA
  8
0
  6
CONTINUOUS
 62
     7
 10
313.340043592018
 20
164.999999999988
 30
0.0
 11
320.890043592018
 21
164.999999999988
 31
0.0
  0
LINE
  5
FB
  8
0
  6
CONTINUOUS
 62
     7
 10
320.890043592018
 20
164.999999999988
 30
0.0
 11
321.790043592018
 21
164.999999999988
 31
0.0
  0
LINE
  5
FC
  8
0
  6
CONTINUOUS
 62
     7
 10
389.790043592018
 20
164.999999999988
 30
0.0
 11
397.340043592018
 21
164.999999999988
 31
0.0
  0
LINE
  5
FD
  8
0
  6
CONTINUOUS
 62
     7
 10
321.790043592018
 20
164.999999999988
 30
0.0
 11
388.890043592018
 21
164.999999999988
 31
0.0
  0
LINE
  5
FE
  8
0
  6
CONTINUOUS
 62
     7
 10
397.340043592018
 20
164.999999999988
 30
0.0
 11
397.340043592018
 21
164.399999999988
 31
0.0
  0
LINE
  5
FF
  8
0
  6
CONTINUOUS
 62
     7
 10
313.340043592018
 20
60.9999999999882
 30
0.0
 11
313.890043592018
 21
60.9999999999882
 31
0.0
  0
LINE
  5
100
  8
0
  6
CONTINUOUS
 62
     7
 10
1037.12178058145
 20
32.4999999999942
 30
0.0
 11
1039.12178058145
 21
32.4999999999942
 31
0.0
  0
LINE
  5
101
  8
0
  6
CONTINUOUS
 62
     7
 10
951.121780581449
 20
32.4999999999942
 30
0.0
 11
1037.12178058145
 21
32.4999999999942
 31
0.0
  0
LINE
  5
102
  8
0
  6
CONTINUOUS
 62
     7
 10
1039.12178058145
 20
-57.5000000000058
 30
0.0
 11
1039.12178058145
 21
-55.5000000000058
 31
0.0
  0
LINE
  5
103
  8
0
  6
CONTINUOUS
 62
     7
 10
1039.12178058145
 20
-55.5000000000058
 30
0.0
 11
1039.12178058145
 21
30.4999999999942
 31
0.0
  0
LINE
  5
104
  8
0
  6
CONTINUOUS
 62
     7
 10
1037.12178058145
 20
-57.5000000000058
 30
0.0
 11
1039.12178058145
 21
-57.5000000000058
 31
0.0
  0
LINE
  5
105
  8
0
  6
CONTINUOUS
 62
     7
 10
949.121780581449
 20
-57.5000000000058
 30
0.0
 11
951.121780581449
 21
-57.5000000000058
 31
0.0
  0
LINE
  5
106
  8
0
  6
CONTINUOUS
 62
     7
 10
951.121780581449
 20
-57.5000000000058
 30
0.0
 11
1037.12178058145
 21
-57.5000000000058
 31
0.0
  0
LINE
  5
107
  8
0
  6
CONTINUOUS
 62
     7
 10
949.121780581449
 20
-55.5000000000058
 30
0.0
 11
949.121780581449
 21
-57.5000000000058
 31
0.0
  0
LINE
  5
108
  8
0
  6
CONTINUOUS
 62
     7
 10
949.121780581449
 20
32.4999999999942
 30
0.0
 11
949.121780581449
 21
30.4999999999942
 31
0.0
  0
LINE
  5
109
  8
0
  6
CONTINUOUS
 62
     7
 10
949.121780581449
 20
30.4999999999942
 30
0.0
 11
949.121780581449
 21
-55.5000000000058
 31
0.0
  0
LINE
  5
10A
  8
0
  6
CONTINUOUS
 62
     7
 10
949.121780581449
 20
32.4999999999942
 30
0.0
 11
951.121780581449
 21
32.4999999999942
 31
0.0
  0
LINE
  5
10B
  8
0
  6
CONTINUOUS
 62
     7
 10
1039.12178058145
 20
30.4999999999942
 30
0.0
 11
1039.12178058145
 21
32.4999999999942
 31
0.0
  0
LINE
  5
10C
  8
0
  6
CONTINUOUS
 62
     7
 10
1224.5816621849
 20
75.3814693064274
 30
0.0
 11
1268.40372036708
 21
61.3268515751345
 31
0.0
  0
LINE
  5
10D
  8
0
  6
CONTINUOUS
 62
     7
 10
1225.89868456789
 20
77.2505363191758
 30
0.0
 11
1229.04080400953
 21
76.2427952533721
 31
0.0
  0
LINE
  5
10E
  8
0
  6
CONTINUOUS
 62
     7
 10
1224.57990291587
 20
76.9958010136129
 30
0.0
 11
1268.40196109805
 21
62.94118328232
 31
0.0
  0
LINE
  5
10F
  8
0
  6
CONTINUOUS
 62
     7
 10
1224.48718943805
 20
162.071081982283
 30
0.0
 11
1224.57990291587
 21
76.9958010136129
 31
0.0
  0
LINE
  5
110
  8
0
  6
CONTINUOUS
 62
     7
 10
1223.46807180591
 20
162.39793355743
 30
0.0
 11
1223.56254455275
 21
75.7083208815738
 31
0.0
  0
LINE
  5
111
  8
0
  6
CONTINUOUS
 62
     7
 10
1223.56254455275
 20
75.7083208815738
 30
0.0
 11
1224.5816621849
 21
75.3814693064274
 31
0.0
  0
LINE
  5
112
  8
0
  6
CONTINUOUS
 62
     7
 10
1225.89868456789
 20
77.2505363191758
 30
0.0
 11
1225.80670988805
 21
161.647885165826
 31
0.0
  0
LINE
  5
113
  8
0
  6
CONTINUOUS
 62
     7
 10
1328.67353959365
 20
159.152701426175
 30
0.0
 11
1282.81271836647
 21
174.345321819916
 31
0.0
  0
LINE
  5
114
  8
0
  6
CONTINUOUS
 62
     7
 10
1223.46807180591
 20
162.39793355743
 30
0.0
 11
1224.48718943805
 21
162.071081982283
 31
0.0
  0
LINE
  5
115
  8
0
  6
CONTINUOUS
 62
     7
 10
1224.48718943805
 20
162.071081982283
 30
0.0
 11
1268.30924762024
 21
148.016464250991
 31
0.0
  0
LINE
  5
116
  8
0
  6
CONTINUOUS
 62
     7
 10
1269.32836525238
 20
147.689612675844
 30
0.0
 11
1270.64714690441
 21
147.944347981407
 31
0.0
  0
LINE
  5
117
  8
0
  6
CONTINUOUS
 62
     7
 10
1223.46807180591
 20
162.39793355743
 30
0.0
 11
1282.81271836647
 21
174.345321819916
 31
0.0
  0
LINE
  5
118
  8
0
  6
CONTINUOUS
 62
     7
 10
1268.40372036708
 20
61.3268515751345
 30
0.0
 11
1269.42283799922
 21
60.9999999999882
 31
0.0
  0
LINE
  5
119
  8
0
  6
CONTINUOUS
 62
     7
 10
1269.32836525238
 20
147.689612675844
 30
0.0
 11
1269.42283799922
 21
60.9999999999882
 31
0.0
  0
LINE
  5
11A
  8
0
  6
CONTINUOUS
 62
     7
 10
1269.42283799922
 20
60.9999999999882
 30
0.0
 11
1270.74161965125
 21
61.2547353055511
 31
0.0
  0
LINE
  5
11B
  8
0
  6
CONTINUOUS
 62
     7
 10
1270.74161965125
 20
61.2547353055511
 30
0.0
 11
1270.64714690441
 21
147.944347981407
 31
0.0
  0
LINE
  5
11C
  8
0
  6
CONTINUOUS
 62
     7
 10
1268.30924762024
 20
148.016464250991
 30
0.0
 11
1268.40196109805
 21
62.94118328232
 31
0.0
  0
LINE
  5
11D
  8
0
  6
CONTINUOUS
 62
     7
 10
1327.44923068846
 20
72.2083534447561
 30
0.0
 11
1328.76801234049
 21
72.463088750319
 31
0.0
  0
LINE
  5
11E
  8
0
  6
CONTINUOUS
 62
     7
 10
1326.43011305632
 20
72.5352050199024
 30
0.0
 11
1327.44923068846
 21
72.2083534447561
 31
0.0
  0
LINE
  5
11F
  8
0
  6
CONTINUOUS
 62
     7
 10
1326.33621091225
 20
158.70122400765
 30
0.0
 11
1326.42835378729
 21
74.1495367270877
 31
0.0
  0
LINE
  5
120
  8
0
  6
CONTINUOUS
 62
     7
 10
1327.35475794162
 20
158.897966120612
 30
0.0
 11
1327.44923068846
 21
72.2083534447561
 31
0.0
  0
LINE
  5
121
  8
0
  6
CONTINUOUS
 62
     7
 10
1328.76801234049
 20
72.463088750319
 30
0.0
 11
1328.67353959365
 21
159.152701426175
 31
0.0
  0
LINE
  5
122
  8
0
  6
CONTINUOUS
 62
     7
 10
1326.43011305632
 20
72.5352050199024
 30
0.0
 11
1282.60805487413
 21
86.5898227511953
 31
0.0
  0
LINE
  5
123
  8
0
  6
CONTINUOUS
 62
     7
 10
1326.42761498932
 20
74.8274688491084
 30
0.0
 11
1283.92507725713
 21
88.4588897639437
 31
0.0
  0
LINE
  5
124
  8
0
  6
CONTINUOUS
 62
     7
 10
1326.42835378729
 20
74.1495367270877
 30
0.0
 11
1282.60629560511
 21
88.2041544583808
 31
0.0
  0
LINE
  5
125
  8
0
  6
CONTINUOUS
 62
     7
 10
1270.71418325714
 20
86.4307829776041
 30
0.0
 11
1281.58717797296
 21
88.5310060335271
 31
0.0
  0
LINE
  5
126
  8
0
  6
CONTINUOUS
 62
     7
 10
1270.71475385992
 20
85.907189289496
 30
0.0
 11
1282.60629560511
 21
88.2041544583808
 31
0.0
  0
LINE
  5
127
  8
0
  6
CONTINUOUS
 62
     7
 10
1270.71651312895
 20
84.2928575823105
 30
0.0
 11
1282.60805487413
 21
86.5898227511953
 31
0.0
  0
LINE
  5
128
  8
0
  6
CONTINUOUS
 62
     7
 10
1229.04080400953
 20
76.2427952533721
 30
0.0
 11
1268.37918444756
 21
83.8413801637858
 31
0.0
  0
LINE
  5
129
  8
0
  6
CONTINUOUS
 62
     7
 10
1225.89868456789
 20
77.2505363191758
 30
0.0
 11
1268.37742517853
 21
85.4557118709713
 31
0.0
  0
LINE
  5
12A
  8
0
  6
CONTINUOUS
 62
     7
 10
1225.89811396512
 20
77.774130007284
 30
0.0
 11
1268.37685457575
 21
85.9793055590794
 31
0.0
  0
LINE
  5
12B
  8
0
  6
CONTINUOUS
 62
     7
 10
1281.52014162023
 20
150.04457103733
 30
0.0
 11
1281.58717797296
 21
88.5310060335271
 31
0.0
  0
LINE
  5
12C
  8
0
  6
CONTINUOUS
 62
     7
 10
1283.92507725713
 20
88.4588897639437
 30
0.0
 11
1283.85747030162
 21
150.496048455855
 31
0.0
  0
LINE
  5
12D
  8
0
  6
CONTINUOUS
 62
     7
 10
1282.53868864959
 20
150.241313150292
 30
0.0
 11
1282.60629560511
 21
88.2041544583808
 31
0.0
  0
LINE
  5
12E
  8
0
  6
CONTINUOUS
 62
     7
 10
1061.12178058144
 20
62.9999999999866
 30
0.0
 11
1147.12178058144
 21
62.9999999999866
 31
0.0
  0
LINE
  5
12F
  8
0
  6
CONTINUOUS
 62
     7
 10
1147.12178058144
 20
168.999999999986
 30
0.0
 11
1147.12178058144
 21
62.9999999999866
 31
0.0
  0
LINE
  5
130
  8
0
  6
CONTINUOUS
 62
     7
 10
1149.12178058144
 20
168.399999999986
 30
0.0
 11
1149.12178058144
 21
60.9999999999866
 31
0.0
  0
LINE
  5
131
  8
0
  6
CONTINUOUS
 62
     7
 10
1059.12178058144
 20
168.999999999986
 30
0.0
 11
1059.12178058144
 21
168.399999999986
 31
0.0
  0
LINE
  5
132
  8
0
  6
CONTINUOUS
 62
     7
 10
1059.12178058144
 20
168.999999999986
 30
0.0
 11
1149.12178058144
 21
168.999999999986
 31
0.0
  0
LINE
  5
133
  8
0
  6
CONTINUOUS
 62
     7
 10
1149.12178058144
 20
168.999999999986
 30
0.0
 11
1149.12178058144
 21
168.399999999986
 31
0.0
  0
LINE
  5
134
  8
0
  6
CONTINUOUS
 62
     7
 10
1061.12178058144
 20
168.999999999986
 30
0.0
 11
1061.12178058144
 21
62.9999999999866
 31
0.0
  0
LINE
  5
135
  8
0
  6
CONTINUOUS
 62
     7
 10
1059.12178058144
 20
168.399999999986
 30
0.0
 11
1059.12178058144
 21
62.9999999999866
 31
0.0
  0
LINE
  5
136
  8
0
  6
CONTINUOUS
 62
     7
 10
1059.12178058144
 20
60.9999999999866
 30
0.0
 11
1059.12178058144
 21
62.9999999999866
 31
0.0
  0
LINE
  5
137
  8
0
  6
CONTINUOUS
 62
     7
 10
1061.12178058144
 20
60.9999999999866
 30
0.0
 11
1059.12178058144
 21
60.9999999999866
 31
0.0
  0
LINE
  5
138
  8
0
  6
CONTINUOUS
 62
     7
 10
1037.12178058145
 20
168.999999999988
 30
0.0
 11
1037.12178058145
 21
62.9999999999882
 31
0.0
  0
LINE
  5
139
  8
0
  6
CONTINUOUS
 62
     7
 10
1037.67178058145
 20
60.9999999999882
 30
0.0
 11
1037.12178058145
 21
60.9999999999882
 31
0.0
  0
LINE
  5
13A
  8
0
  6
CONTINUOUS
 62
     7
 10
1039.12178058145
 20
62.9999999999882
 30
0.0
 11
1039.12178058145
 21
60.9999999999882
 31
0.0
  0
LINE
  5
13B
  8
0
  6
CONTINUOUS
 62
     7
 10
1039.12178058145
 20
60.9999999999882
 30
0.0
 11
1038.57178058145
 21
60.9999999999882
 31
0.0
  0
LINE
  5
13C
  8
0
  6
CONTINUOUS
 62
     7
 10
1038.57178058145
 20
60.9999999999882
 30
0.0
 11
1037.67178058145
 21
60.9999999999882
 31
0.0
  0
LINE
  5
13D
  8
0
  6
CONTINUOUS
 62
     7
 10
1039.12178058145
 20
62.9999999999882
 30
0.0
 11
1039.12178058145
 21
168.399999999988
 31
0.0
  0
LINE
  5
13E
  8
0
  6
CONTINUOUS
 62
     7
 10
950.571780581449
 20
60.9999999999882
 30
0.0
 11
951.121780581449
 21
60.9999999999882
 31
0.0
  0
LINE
  5
13F
  8
0
  6
CONTINUOUS
 62
     7
 10
951.121780581449
 20
62.9999999999882
 30
0.0
 11
951.121780581449
 21
168.999999999988
 31
0.0
  0
LINE
  5
140
  8
0
  6
CONTINUOUS
 62
     7
 10
949.121780581449
 20
62.9999999999882
 30
0.0
 11
949.121780581449
 21
60.9999999999882
 31
0.0
  0
LINE
  5
141
  8
0
  6
CONTINUOUS
 62
     7
 10
949.121780581449
 20
168.399999999988
 30
0.0
 11
949.121780581449
 21
62.9999999999882
 31
0.0
  0
LINE
  5
142
  8
0
  6
CONTINUOUS
 62
     7
 10
949.121780581449
 20
60.9999999999882
 30
0.0
 11
949.671780581449
 21
60.9999999999882
 31
0.0
  0
LINE
  5
143
  8
0
  6
CONTINUOUS
 62
     7
 10
949.671780581449
 20
60.9999999999882
 30
0.0
 11
950.571780581449
 21
60.9999999999882
 31
0.0
  0
LINE
  5
144
  8
0
  6
CONTINUOUS
 62
     7
 10
951.121780581449
 20
60.9999999999882
 30
0.0
 11
1037.12178058145
 21
60.9999999999882
 31
0.0
  0
LINE
  5
145
  8
0
  6
CONTINUOUS
 62
     7
 10
951.121780581449
 20
62.9999999999882
 30
0.0
 11
1037.12178058145
 21
62.9999999999882
 31
0.0
  0
LINE
  5
146
  8
0
  6
CONTINUOUS
 62
     7
 10
949.121780581449
 20
168.999999999988
 30
0.0
 11
949.121780581449
 21
168.399999999988
 31
0.0
  0
LINE
  5
147
  8
0
  6
CONTINUOUS
 62
     7
 10
949.121780581449
 20
168.999999999988
 30
0.0
 11
956.671780581449
 21
168.999999999988
 31
0.0
  0
LINE
  5
148
  8
0
  6
CONTINUOUS
 62
     7
 10
956.671780581449
 20
168.999999999988
 30
0.0
 11
957.571780581449
 21
168.999999999988
 31
0.0
  0
LINE
  5
149
  8
0
  6
CONTINUOUS
 62
     7
 10
1031.57178058145
 20
168.999999999988
 30
0.0
 11
1039.12178058145
 21
168.999999999988
 31
0.0
  0
LINE
  5
14A
  8
0
  6
CONTINUOUS
 62
     7
 10
957.571780581449
 20
168.999999999988
 30
0.0
 11
1030.67178058145
 21
168.999999999988
 31
0.0
  0
LINE
  5
14B
  8
0
  6
CONTINUOUS
 62
     7
 10
1039.12178058145
 20
168.399999999988
 30
0.0
 11
1039.12178058145
 21
168.999999999988
 31
0.0
  0
LINE
  5
14C
  8
0
  6
CONTINUOUS
 62
     7
 10
1030.67178058145
 20
168.999999999988
 30
0.0
 11
1031.57178058145
 21
168.999999999988
 31
0.0
  0
LINE
  5
14D
  8
0
  6
CONTINUOUS
 62
     7
 10
1598.41141292683
 20
32.5000000000003
 30
0.0
 11
1600.41141292683
 21
32.5000000000003
 31
0.0
  0
LINE
  5
14E
  8
0
  6
CONTINUOUS
 62
     7
 10
1522.41141292683
 20
6.50000000000034
 30
0.0
 11
1522.41141292683
 21
-43.4999999999997
 31
0.0
  0
LINE
  5
14F
  8
0
  6
CONTINUOUS
 62
     7
 10
1522.41141292683
 20
-43.4999999999997
 30
0.0
 11
1522.41141292683
 21
-45.4999999999997
 31
0.0
  0
LINE
  5
150
  8
0
  6
CONTINUOUS
 62
     7
 10
1600.41141292683
 20
6.50000000000034
 30
0.0
 11
1600.41141292683
 21
-43.4999999999997
 31
0.0
  0
LINE
  5
151
  8
0
  6
CONTINUOUS
 62
     7
 10
1600.41141292683
 20
30.5000000000003
 30
0.0
 11
1600.41141292683
 21
8.50000000000034
 31
0.0
  0
LINE
  5
152
  8
0
  6
CONTINUOUS
 62
     7
 10
1600.41141292683
 20
-43.4999999999997
 30
0.0
 11
1600.41141292683
 21
-45.4999999999997
 31
0.0
  0
LINE
  5
153
  8
0
  6
CONTINUOUS
 62
     7
 10
1600.41141292683
 20
-45.4999999999997
 30
0.0
 11
1522.41141292683
 21
-45.4999999999997
 31
0.0
  0
LINE
  5
154
  8
0
  6
CONTINUOUS
 62
     7
 10
1600.41141292683
 20
8.50000000000034
 30
0.0
 11
1600.41141292683
 21
6.50000000000034
 31
0.0
  0
LINE
  5
155
  8
0
  6
CONTINUOUS
 62
     7
 10
1600.41141292683
 20
32.5000000000003
 30
0.0
 11
1600.41141292683
 21
30.5000000000003
 31
0.0
  0
LINE
  5
156
  8
0
  6
CONTINUOUS
 62
     7
 10
1524.41141292683
 20
32.5000000000003
 30
0.0
 11
1598.41141292683
 21
32.5000000000003
 31
0.0
  0
LINE
  5
157
  8
0
  6
CONTINUOUS
 62
     7
 10
1522.41141292683
 20
30.5000000000003
 30
0.0
 11
1522.41141292683
 21
8.50000000000034
 31
0.0
  0
LINE
  5
158
  8
0
  6
CONTINUOUS
 62
     7
 10
1522.41141292683
 20
32.5000000000003
 30
0.0
 11
1524.41141292683
 21
32.5000000000003
 31
0.0
  0
LINE
  5
159
  8
0
  6
CONTINUOUS
 62
     7
 10
1522.41141292683
 20
32.5000000000003
 30
0.0
 11
1522.41141292683
 21
30.5000000000003
 31
0.0
  0
LINE
  5
15A
  8
0
  6
CONTINUOUS
 62
     7
 10
1522.41141292683
 20
8.50000000000034
 30
0.0
 11
1522.41141292683
 21
6.50000000000034
 31
0.0
  0
LINE
  5
15B
  8
0
  6
CONTINUOUS
 62
     7
 10
1859.73787717157
 20
83.0435278092489
 30
0.0
 11
1859.38918978751
 21
145.639825234555
 31
0.0
  0
LINE
  5
15C
  8
0
  6
CONTINUOUS
 62
     7
 10
1858.14283228679
 20
145.335584993756
 30
0.0
 11
1858.49151967085
 21
82.7392875684507
 31
0.0
  0
LINE
  5
15D
  8
0
  6
CONTINUOUS
 62
     7
 10
1857.03969227464
 20
145.066304644629
 30
0.0
 11
1857.38504291519
 21
83.0690188240305
 31
0.0
  0
LINE
  5
15E
  8
0
  6
CONTINUOUS
 62
     7
 10
1799.09857107638
 20
75.439173725874
 30
0.0
 11
1809.9867537093
 21
78.0970173254764
 31
0.0
  0
LINE
  5
15F
  8
0
  6
CONTINUOUS
 62
     7
 10
1799.09523433286
 20
76.0381853305812
 30
0.0
 11
1809.98341696579
 21
78.6960289301836
 31
0.0
  0
LINE
  5
160
  8
0
  6
CONTINUOUS
 62
     7
 10
1812.33291447865
 20
79.2695495201091
 30
0.0
 11
1844.10732184723
 21
87.0257938909886
 31
0.0
  0
LINE
  5
161
  8
0
  6
CONTINUOUS
 62
     7
 10
1812.33625122217
 20
78.6705379154019
 30
0.0
 11
1845.21379860289
 21
86.6960626354088
 31
0.0
  0
LINE
  5
162
  8
0
  6
CONTINUOUS
 62
     7
 10
1812.34519255103
 20
77.0653921423487
 30
0.0
 11
1845.22273993175
 21
85.0909168623556
 31
0.0
  0
LINE
  5
163
  8
0
  6
CONTINUOUS
 62
     7
 10
1802.06354950648
 20
74.5556069852994
 30
0.0
 11
1809.99569503816
 21
76.4918715524232
 31
0.0
  0
LINE
  5
164
  8
0
  6
CONTINUOUS
 62
     7
 10
1886.15343856244
 20
74.4960061789543
 30
0.0
 11
1858.49151967085
 21
82.7392875684507
 31
0.0
  0
LINE
  5
165
  8
0
  6
CONTINUOUS
 62
     7
 10
1883.1974014612
 20
73.7744271464758
 30
0.0
 11
1845.22273993175
 21
85.0909168623556
 31
0.0
  0
LINE
  5
166
  8
0
  6
CONTINUOUS
 62
     7
 10
1887.39979606316
 20
74.8002464197527
 30
0.0
 11
1859.73787717157
 21
83.0435278092489
 31
0.0
  0
LINE
  5
167
  8
0
  6
CONTINUOUS
 62
     7
 10
1857.38127297188
 20
83.7457983790469
 30
0.0
 11
1846.46015610361
 21
87.0003028762071
 31
0.0
  0
LINE
  5
168
  8
0
  6
CONTINUOUS
 62
     7
 10
1857.38504291519
 20
83.0690188240305
 30
0.0
 11
1845.21379860289
 21
86.6960626354088
 31
0.0
  0
LINE
  5
169
  8
0
  6
CONTINUOUS
 62
     7
 10
1843.80201212885
 20
141.834940455101
 30
0.0
 11
1844.10732184723
 21
87.0257938909886
 31
0.0
  0
LINE
  5
16A
  8
0
  6
CONTINUOUS
 62
     7
 10
1846.46015610361
 20
87.0003028762071
 30
0.0
 11
1846.15150964172
 21
142.408461045027
 31
0.0
  0
LINE
  5
16B
  8
0
  6
CONTINUOUS
 62
     7
 10
1844.905152141
 20
142.104220804228
 30
0.0
 11
1845.21379860289
 21
86.6960626354088
 31
0.0
  0
LINE
  5
16C
  8
0
  6
CONTINUOUS
 62
     7
 10
1796.31029410456
 20
153.635263888348
 30
0.0
 11
1844.91555423384
 21
165.982177011396
 31
0.0
  0
LINE
  5
16D
  8
0
  6
CONTINUOUS
 62
     7
 10
1796.31029410456
 20
153.635263888348
 30
0.0
 11
1797.41677086022
 21
153.305532632768
 31
0.0
  0
LINE
  5
16E
  8
0
  6
CONTINUOUS
 62
     7
 10
1809.58801517252
 20
149.67848882139
 30
0.0
 11
1810.69449192818
 21
149.34875756581
 31
0.0
  0
LINE
  5
16F
  8
0
  6
CONTINUOUS
 62
     7
 10
1888.07083010338
 20
152.641114311865
 30
0.0
 11
1839.46288757544
 21
140.775744920734
 31
0.0
  0
LINE
  5
170
  8
0
  6
CONTINUOUS
 62
     7
 10
1844.91555423384
 20
165.982177011396
 30
0.0
 11
1888.07083010338
 21
152.641114311865
 31
0.0
  0
LINE
  5
171
  8
0
  6
CONTINUOUS
 62
     7
 10
1799.09857107638
 20
75.439173725874
 30
0.0
 11
1798.66689830425
 21
152.93299331855
 31
0.0
  0
LINE
  5
172
  8
0
  6
CONTINUOUS
 62
     7
 10
1796.75467814886
 20
73.8595189676023
 30
0.0
 11
1797.86115490452
 21
73.5297877120225
 31
0.0
  0
LINE
  5
173
  8
0
  6
CONTINUOUS
 62
     7
 10
1797.41677086022
 20
153.305532632768
 30
0.0
 11
1797.85221357566
 21
75.1349334850757
 31
0.0
  0
LINE
  5
174
  8
0
  6
CONTINUOUS
 62
     7
 10
1796.31029410456
 20
153.635263888348
 30
0.0
 11
1796.75467814886
 21
73.8595189676023
 31
0.0
  0
LINE
  5
175
  8
0
  6
CONTINUOUS
 62
     7
 10
1888.51521414768
 20
72.8653693911195
 30
0.0
 11
1888.50627281882
 21
74.4705151641729
 31
0.0
  0
LINE
  5
176
  8
0
  6
CONTINUOUS
 62
     7
 10
1888.50627281882
 20
74.4705151641729
 30
0.0
 11
1887.39979606316
 21
74.8002464197527
 31
0.0
  0
LINE
  5
177
  8
0
  6
CONTINUOUS
 62
     7
 10
1888.51521414768
 20
72.8653693911195
 30
0.0
 11
1839.90727161974
 21
60.9999999999882
 31
0.0
  0
LINE
  5
178
  8
0
  6
CONTINUOUS
 62
     7
 10
1888.50627281882
 20
74.4705151641729
 30
0.0
 11
1839.89833029088
 21
62.6051457730414
 31
0.0
  0
LINE
  5
179
  8
0
  6
CONTINUOUS
 62
     7
 10
1886.15343856244
 20
74.4960061789543
 30
0.0
 11
1883.1974014612
 21
73.7744271464758
 31
0.0
  0
LINE
  5
17A
  8
0
  6
CONTINUOUS
 62
     7
 10
1839.89833029088
 20
62.6051457730414
 30
0.0
 11
1838.79185353522
 21
62.9348770286213
 31
0.0
  0
LINE
  5
17B
  8
0
  6
CONTINUOUS
 62
     7
 10
1839.90727161974
 20
60.9999999999882
 30
0.0
 11
1839.89833029088
 21
62.6051457730414
 31
0.0
  0
LINE
  5
17C
  8
0
  6
CONTINUOUS
 62
     7
 10
1838.80079486408
 20
61.3297312555681
 30
0.0
 11
1839.90727161974
 21
60.9999999999882
 31
0.0
  0
LINE
  5
17D
  8
0
  6
CONTINUOUS
 62
     7
 10
1812.37629214434
 20
71.4823986589159
 30
0.0
 11
1840.03821103593
 21
63.2391172694196
 31
0.0
  0
LINE
  5
17E
  8
0
  6
CONTINUOUS
 62
     7
 10
1811.12993464363
 20
71.1781584181176
 30
0.0
 11
1838.79185353522
 21
62.9348770286213
 31
0.0
  0
LINE
  5
17F
  8
0
  6
CONTINUOUS
 62
     7
 10
1797.86115490452
 20
73.5297877120225
 30
0.0
 11
1838.80079486408
 21
61.3297312555681
 31
0.0
  0
LINE
  5
180
  8
0
  6
CONTINUOUS
 62
     7
 10
1797.85221357566
 20
75.1349334850757
 30
0.0
 11
1810.02345788796
 21
71.5078896736975
 31
0.0
  0
LINE
  5
181
  8
0
  6
CONTINUOUS
 62
     7
 10
1799.09857107638
 20
75.439173725874
 30
0.0
 11
1802.06354950648
 21
74.5556069852994
 31
0.0
  0
LINE
  5
182
  8
0
  6
CONTINUOUS
 62
     7
 10
1809.58801517252
 20
149.67848882139
 30
0.0
 11
1810.02345788796
 21
71.5078896736975
 31
0.0
  0
LINE
  5
183
  8
0
  6
CONTINUOUS
 62
     7
 10
1810.69449192818
 20
149.34875756581
 30
0.0
 11
1811.12993464363
 21
71.1781584181176
 31
0.0
  0
LINE
  5
184
  8
0
  6
CONTINUOUS
 62
     7
 10
1812.37629214434
 20
71.4823986589159
 30
0.0
 11
1811.94461937221
 21
148.976218251592
 31
0.0
  0
LINE
  5
185
  8
0
  6
CONTINUOUS
 62
     7
 10
1658.41141292683
 20
160.999999999988
 30
0.0
 11
1658.41141292683
 21
62.9999999999882
 31
0.0
  0
LINE
  5
186
  8
0
  6
CONTINUOUS
 62
     7
 10
1656.41141292683
 20
160.999999999988
 30
0.0
 11
1656.41141292683
 21
62.9999999999882
 31
0.0
  0
LINE
  5
187
  8
0
  6
CONTINUOUS
 62
     7
 10
1658.41141292683
 20
62.9999999999882
 30
0.0
 11
1708.41141292683
 21
62.9999999999882
 31
0.0
  0
LINE
  5
188
  8
0
  6
CONTINUOUS
 62
     7
 10
1656.41141292683
 20
62.9999999999882
 30
0.0
 11
1658.41141292683
 21
62.9999999999882
 31
0.0
  0
LINE
  5
189
  8
0
  6
CONTINUOUS
 62
     7
 10
1634.41141292683
 20
60.9999999999882
 30
0.0
 11
1708.41141292683
 21
60.9999999999882
 31
0.0
  0
LINE
  5
18A
  8
0
  6
CONTINUOUS
 62
     7
 10
1634.41141292683
 20
62.9999999999882
 30
0.0
 11
1656.41141292683
 21
62.9999999999882
 31
0.0
  0
LINE
  5
18B
  8
0
  6
CONTINUOUS
 62
     7
 10
1708.41141292683
 20
60.9999999999882
 30
0.0
 11
1710.41141292683
 21
60.9999999999882
 31
0.0
  0
LINE
  5
18C
  8
0
  6
CONTINUOUS
 62
     7
 10
1710.41141292683
 20
60.9999999999882
 30
0.0
 11
1710.41141292683
 21
62.9999999999882
 31
0.0
  0
LINE
  5
18D
  8
0
  6
CONTINUOUS
 62
     7
 10
1710.41141292683
 20
62.9999999999882
 30
0.0
 11
1708.41141292683
 21
62.9999999999882
 31
0.0
  0
LINE
  5
18E
  8
0
  6
CONTINUOUS
 62
     7
 10
1632.41141292683
 20
160.999999999988
 30
0.0
 11
1710.41141292683
 21
160.999999999988
 31
0.0
  0
LINE
  5
18F
  8
0
  6
CONTINUOUS
 62
     7
 10
1632.41141292683
 20
160.399999999988
 30
0.0
 11
1632.41141292683
 21
160.999999999988
 31
0.0
  0
LINE
  5
190
  8
0
  6
CONTINUOUS
 62
     7
 10
1632.41141292683
 20
160.399999999988
 30
0.0
 11
1632.41141292683
 21
62.9999999999882
 31
0.0
  0
LINE
  5
191
  8
0
  6
CONTINUOUS
 62
     7
 10
1634.41141292683
 20
160.999999999988
 30
0.0
 11
1634.41141292683
 21
62.9999999999882
 31
0.0
  0
LINE
  5
192
  8
0
  6
CONTINUOUS
 62
     7
 10
1632.41141292683
 20
60.9999999999882
 30
0.0
 11
1634.41141292683
 21
60.9999999999882
 31
0.0
  0
LINE
  5
193
  8
0
  6
CONTINUOUS
 62
     7
 10
1632.41141292683
 20
62.9999999999882
 30
0.0
 11
1632.41141292683
 21
60.9999999999882
 31
0.0
  0
LINE
  5
194
  8
0
  6
CONTINUOUS
 62
     7
 10
1524.41141292683
 20
62.9999999999882
 30
0.0
 11
1598.41141292683
 21
62.9999999999882
 31
0.0
  0
LINE
  5
195
  8
0
  6
CONTINUOUS
 62
     7
 10
1598.96141292683
 20
60.9999999999882
 30
0.0
 11
1599.86141292683
 21
60.9999999999882
 31
0.0
  0
LINE
  5
196
  8
0
  6
CONTINUOUS
 62
     7
 10
1599.86141292683
 20
60.9999999999882
 30
0.0
 11
1600.41141292683
 21
60.9999999999882
 31
0.0
  0
LINE
  5
197
  8
0
  6
CONTINUOUS
 62
     7
 10
1598.41141292683
 20
60.9999999999882
 30
0.0
 11
1598.96141292683
 21
60.9999999999882
 31
0.0
  0
LINE
  5
198
  8
0
  6
CONTINUOUS
 62
     7
 10
1522.96141292683
 20
60.9999999999882
 30
0.0
 11
1523.86141292683
 21
60.9999999999882
 31
0.0
  0
LINE
  5
199
  8
0
  6
CONTINUOUS
 62
     7
 10
1600.41141292683
 20
160.399999999988
 30
0.0
 11
1600.41141292683
 21
160.999999999988
 31
0.0
  0
LINE
  5
19A
  8
0
  6
CONTINUOUS
 62
     7
 10
1522.41141292683
 20
160.999999999988
 30
0.0
 11
1522.41141292683
 21
160.399999999988
 31
0.0
  0
LINE
  5
19B
  8
0
  6
CONTINUOUS
 62
     7
 10
1529.96141292683
 20
160.999999999988
 30
0.0
 11
1522.41141292683
 21
160.999999999988
 31
0.0
  0
LINE
  5
19C
  8
0
  6
CONTINUOUS
 62
     7
 10
1591.96141292683
 20
160.999999999988
 30
0.0
 11
1530.86141292683
 21
160.999999999988
 31
0.0
  0
LINE
  5
19D
  8
0
  6
CONTINUOUS
 62
     7
 10
1592.86141292683
 20
160.999999999988
 30
0.0
 11
1591.96141292683
 21
160.999999999988
 31
0.0
  0
LINE
  5
19E
  8
0
  6
CONTINUOUS
 62
     7
 10
1600.41141292683
 20
160.999999999988
 30
0.0
 11
1592.86141292683
 21
160.999999999988
 31
0.0
  0
LINE
  5
19F
  8
0
  6
CONTINUOUS
 62
     7
 10
1530.86141292683
 20
160.999999999988
 30
0.0
 11
1529.96141292683
 21
160.999999999988
 31
0.0
  0
LINE
  5
1A0
  8
0
  6
CONTINUOUS
 62
     7
 10
1523.86141292683
 20
60.9999999999882
 30
0.0
 11
1524.41141292683
 21
60.9999999999882
 31
0.0
  0
LINE
  5
1A1
  8
0
  6
CONTINUOUS
 62
     7
 10
1524.41141292683
 20
62.9999999999882
 30
0.0
 11
1524.41141292683
 21
160.999999999988
 31
0.0
  0
LINE
  5
1A2
  8
0
  6
CONTINUOUS
 62
     7
 10
1522.41141292683
 20
160.399999999988
 30
0.0
 11
1522.41141292683
 21
62.9999999999882
 31
0.0
  0
LINE
  5
1A3
  8
0
  6
CONTINUOUS
 62
     7
 10
1522.41141292683
 20
62.9999999999882
 30
0.0
 11
1522.41141292683
 21
60.9999999999882
 31
0.0
  0
LINE
  5
1A4
  8
0
  6
CONTINUOUS
 62
     7
 10
1600.41141292683
 20
62.9999999999882
 30
0.0
 11
1600.41141292683
 21
160.399999999988
 31
0.0
  0
LINE
  5
1A5
  8
0
  6
CONTINUOUS
 62
     7
 10
1600.41141292683
 20
60.9999999999882
 30
0.0
 11
1600.41141292683
 21
62.9999999999882
 31
0.0
  0
LINE
  5
1A6
  8
0
  6
CONTINUOUS
 62
     7
 10
1598.41141292683
 20
160.999999999988
 30
0.0
 11
1598.41141292683
 21
62.9999999999882
 31
0.0
  0
LINE
  5
1A7
  8
0
  6
CONTINUOUS
 62
     7
 10
1522.41141292683
 20
60.9999999999882
 30
0.0
 11
1522.96141292683
 21
60.9999999999882
 31
0.0
  0
LINE
  5
1A8
  8
0
  6
CONTINUOUS
 62
     7
 10
1524.41141292683
 20
60.9999999999882
 30
0.0
 11
1598.41141292683
 21
60.9999999999882
 31
0.0
  0
LINE
  5
1A9
  8
0
  6
CONTINUOUS
 62
     7
 10
2349.74268274962
 20
-45.5
 30
0.0
 11
2197.74268274962
 21
-45.5
 31
0.0
  0
LINE
  5
1AA
  8
0
  6
CONTINUOUS
 62
     7
 10
2197.74268274962
 20
-45.5
 30
0.0
 11
2195.74268274962
 21
-45.5
 31
0.0
  0
LINE
  5
1AB
  8
0
  6
CONTINUOUS
 62
     7
 10
2195.74268274962
 20
-43.5
 30
0.0
 11
2195.74268274962
 21
30.5
 31
0.0
  0
LINE
  5
1AC
  8
0
  6
CONTINUOUS
 62
     7
 10
2195.74268274962
 20
30.5
 30
0.0
 11
2195.74268274962
 21
32.5
 31
0.0
  0
LINE
  5
1AD
  8
0
  6
CONTINUOUS
 62
     7
 10
2351.74268274962
 20
-43.5
 30
0.0
 11
2351.74268274962
 21
-45.5
 31
0.0
  0
LINE
  5
1AE
  8
0
  6
CONTINUOUS
 62
     7
 10
2351.74268274962
 20
-45.5
 30
0.0
 11
2349.74268274962
 21
-45.5
 31
0.0
  0
LINE
  5
1AF
  8
0
  6
CONTINUOUS
 62
     7
 10
2349.74268274962
 20
32.5
 30
0.0
 11
2351.74268274962
 21
32.5
 31
0.0
  0
LINE
  5
1B0
  8
0
  6
CONTINUOUS
 62
     7
 10
2351.74268274962
 20
32.5
 30
0.0
 11
2351.74268274962
 21
30.5
 31
0.0
  0
LINE
  5
1B1
  8
0
  6
CONTINUOUS
 62
     7
 10
2351.74268274962
 20
30.5
 30
0.0
 11
2351.74268274962
 21
-43.5
 31
0.0
  0
LINE
  5
1B2
  8
0
  6
CONTINUOUS
 62
     7
 10
2195.74268274962
 20
32.5
 30
0.0
 11
2197.74268274962
 21
32.5
 31
0.0
  0
LINE
  5
1B3
  8
0
  6
CONTINUOUS
 62
     7
 10
2197.74268274962
 20
32.5
 30
0.0
 11
2349.74268274962
 21
32.5
 31
0.0
  0
LINE
  5
1B4
  8
0
  6
CONTINUOUS
 62
     7
 10
2195.74268274962
 20
-45.5
 30
0.0
 11
2195.74268274962
 21
-43.5
 31
0.0
  0
LINE
  5
1B5
  8
0
  6
CONTINUOUS
 62
     7
 10
2515.81795007393
 20
62.5592845964646
 30
0.0
 11
2610.78082401968
 21
76.356295274338
 31
0.0
  0
LINE
  5
1B6
  8
0
  6
CONTINUOUS
 62
     7
 10
2515.81613990346
 20
61.1815396141708
 30
0.0
 11
2610.7790138492
 21
74.9785502920441
 31
0.0
  0
LINE
  5
1B7
  8
0
  6
CONTINUOUS
 62
     7
 10
2513.87595754145
 20
62.7089162025693
 30
0.0
 11
2513.975955358879
 21
138.8185936906341
 31
0.0
  0
LINE
  5
1B8
  8
0
  6
CONTINUOUS
 62
     7
 10
2515.917957594959
 20
138.6763476241893
 30
0.0
 11
2515.81795007393
 21
62.5592845964646
 31
0.0
  0
LINE
  5
1B9
  8
0
  6
CONTINUOUS
 62
     7
 10
2514.56662840417
 20
60.9999999999882
 30
0.0
 11
2515.81613990346
 21
61.1815396141708
 31
0.0
  0
LINE
  5
1BA
  8
0
  6
CONTINUOUS
 62
     7
 10
2514.668446095679
 20
138.4948080100064
 30
0.0
 11
2514.56662840417
 21
60.9999999999882
 31
0.0
  0
LINE
  5
1BB
  8
0
  6
CONTINUOUS
 62
     7
 10
2514.56662840417
 20
60.9999999999882
 30
0.0
 11
2513.87414737098
 21
61.3311712202754
 31
0.0
  0
LINE
  5
1BC
  8
0
  6
CONTINUOUS
 62
     7
 10
2513.87414737098
 20
61.3311712202754
 30
0.0
 11
2488.25234914277
 21
73.5845063709017
 31
0.0
  0
LINE
  5
1BD
  8
0
  6
CONTINUOUS
 62
     7
 10
2513.87595754145
 20
62.7089162025693
 30
0.0
 11
2488.25415931324
 21
74.9622513531958
 31
0.0
  0
LINE
  5
1BE
  8
0
  6
CONTINUOUS
 62
     7
 10
2513.87698053636
 20
63.4875313201811
 30
0.0
 11
2491.71284802147
 21
74.0872769589892
 31
0.0
  0
LINE
  5
1BF
  8
0
  6
CONTINUOUS
 62
     7
 10
2489.50367081253
 20
75.1437909673783
 30
0.0
 11
2513.89695170278
 21
78.6878534301825
 31
0.0
  0
LINE
  5
1C0
  8
0
  6
CONTINUOUS
 62
     7
 10
2491.71284802147
 20
74.0872769589892
 30
0.0
 11
2513.8951415323
 21
77.3101084478885
 31
0.0
  0
LINE
  5
1C1
  8
0
  6
CONTINUOUS
 62
     7
 10
2515.83951164502
 20
78.9700849923916
 30
0.0
 11
2584.46654475828
 21
88.9408016452518
 31
0.0
  0
LINE
  5
1C2
  8
0
  6
CONTINUOUS
 62
     7
 10
2515.83770147455
 20
77.5923400100978
 30
0.0
 11
2584.4647345878
 21
87.5630566629578
 31
0.0
  0
LINE
  5
1C3
  8
0
  6
CONTINUOUS
 62
     7
 10
2610.880831540709
 20
152.4733583020613
 30
0.0
 11
2610.78082401968
 21
76.356295274338
 31
0.0
  0
LINE
  5
1C4
  8
0
  6
CONTINUOUS
 62
     7
 10
2610.7790138492
 20
74.9785502920441
 30
0.0
 11
2612.02852534849
 21
75.1600899062267
 31
0.0
  0
LINE
  5
1C5
  8
0
  6
CONTINUOUS
 62
     7
 10
2612.130343039999
 20
152.6548979162444
 30
0.0
 11
2612.02852534849
 21
75.1600899062267
 31
0.0
  0
LINE
  5
1C6
  8
0
  6
CONTINUOUS
 62
     7
 10
2583.77406372508
 20
89.2719728655388
 30
0.0
 11
2583.851942265248
 21
148.546372329021
 31
0.0
  0
LINE
  5
1C7
  8
0
  6
CONTINUOUS
 62
     7
 10
2584.544990708207
 20
148.6470642770474
 30
0.0
 11
2584.46654475828
 21
88.9408016452518
 31
0.0
  0
LINE
  5
1C8
  8
0
  6
CONTINUOUS
 62
     7
 10
2585.794502207499
 20
148.8286038912308
 30
0.0
 11
2585.71605625756
 21
89.1223412594338
 31
0.0
  0
LINE
  5
1C9
  8
0
  6
CONTINUOUS
 62
     7
 10
2584.46654475828
 20
88.9408016452518
 30
0.0
 11
2610.08834298648
 21
76.6874664946252
 31
0.0
  0
LINE
  5
1CA
  8
0
  6
CONTINUOUS
 62
     7
 10
2584.4647345878
 20
87.5630566629578
 30
0.0
 11
2607.87735560707
 21
76.3662355207202
 31
0.0
  0
LINE
  5
1CB
  8
0
  6
CONTINUOUS
 62
     7
 10
2612.1184908212
 20
152.653175925507
 30
0.0
 11
2610.86897932191
 21
152.471636311324
 31
0.0
  0
LINE
  5
1CC
  8
0
  6
CONTINUOUS
 62
     7
 10
2487.64983358228
 20
151.408763610469
 30
0.0
 11
2585.11227357774
 21
165.982177011396
 31
0.0
  0
LINE
  5
1CD
  8
0
  6
CONTINUOUS
 62
     7
 10
2610.86897932191
 20
152.471636311324
 30
0.0
 11
2515.90610537616
 21
138.674625633452
 31
0.0
  0
LINE
  5
1CE
  8
0
  6
CONTINUOUS
 62
     7
 10
2514.65659387688
 20
138.493086019269
 30
0.0
 11
2513.96411284368
 21
138.824257239557
 31
0.0
  0
LINE
  5
1CF
  8
0
  6
CONTINUOUS
 62
     7
 10
2585.11227357774
 20
165.982177011396
 30
0.0
 11
2612.1184908212
 21
152.653175925507
 31
0.0
  0
LINE
  5
1D0
  8
0
  6
CONTINUOUS
 62
     7
 10
2489.60264563506
 20
150.4748533378292
 30
0.0
 11
2489.50367081253
 21
75.1437909673783
 31
0.0
  0
LINE
  5
1D1
  8
0
  6
CONTINUOUS
 62
     7
 10
2488.354157130681
 20
151.0719288412584
 30
0.0
 11
2488.25415931324
 21
74.9622513531958
 31
0.0
  0
LINE
  5
1D2
  8
0
  6
CONTINUOUS
 62
     7
 10
2488.25234914277
 20
73.5845063709017
 30
0.0
 11
2487.55986810957
 21
73.915677591189
 31
0.0
  0
LINE
  5
1D3
  8
0
  6
CONTINUOUS
 62
     7
 10
2487.55986810957
 20
73.915677591189
 30
0.0
 11
2487.661685867119
 21
151.4105358649571
 31
0.0
  0
LINE
  5
1D4
  8
0
  6
CONTINUOUS
 62
     7
 10
2369.74268274962
 20
62.9999999999882
 30
0.0
 11
2369.74268274962
 21
160.399999999988
 31
0.0
  0
LINE
  5
1D5
  8
0
  6
CONTINUOUS
 62
     7
 10
2371.74268274962
 20
160.999999999988
 30
0.0
 11
2371.74268274962
 21
62.9999999999882
 31
0.0
  0
LINE
  5
1D6
  8
0
  6
CONTINUOUS
 62
     7
 10
2369.74268274962
 20
60.9999999999882
 30
0.0
 11
2369.74268274962
 21
62.9999999999882
 31
0.0
  0
LINE
  5
1D7
  8
0
  6
CONTINUOUS
 62
     7
 10
2371.74268274962
 20
60.9999999999882
 30
0.0
 11
2369.74268274962
 21
60.9999999999882
 31
0.0
  0
LINE
  5
1D8
  8
0
  6
CONTINUOUS
 62
     7
 10
2445.74268274962
 20
62.9999999999882
 30
0.0
 11
2445.74268274962
 21
160.999999999988
 31
0.0
  0
LINE
  5
1D9
  8
0
  6
CONTINUOUS
 62
     7
 10
2447.74268274962
 20
160.399999999988
 30
0.0
 11
2447.74268274962
 21
62.9999999999882
 31
0.0
  0
LINE
  5
1DA
  8
0
  6
CONTINUOUS
 62
     7
 10
2447.74268274962
 20
62.9999999999882
 30
0.0
 11
2447.74268274962
 21
60.9999999999882
 31
0.0
  0
LINE
  5
1DB
  8
0
  6
CONTINUOUS
 62
     7
 10
2447.74268274962
 20
60.9999999999882
 30
0.0
 11
2445.74268274962
 21
60.9999999999882
 31
0.0
  0
LINE
  5
1DC
  8
0
  6
CONTINUOUS
 62
     7
 10
2445.74268274962
 20
60.9999999999882
 30
0.0
 11
2371.74268274962
 21
60.9999999999882
 31
0.0
  0
LINE
  5
1DD
  8
0
  6
CONTINUOUS
 62
     7
 10
2445.74268274962
 20
62.9999999999882
 30
0.0
 11
2371.74268274962
 21
62.9999999999882
 31
0.0
  0
LINE
  5
1DE
  8
0
  6
CONTINUOUS
 62
     7
 10
2447.74268274962
 20
160.999999999988
 30
0.0
 11
2369.74268274962
 21
160.999999999988
 31
0.0
  0
LINE
  5
1DF
  8
0
  6
CONTINUOUS
 62
     7
 10
2447.74268274962
 20
160.399999999988
 30
0.0
 11
2447.74268274962
 21
160.999999999988
 31
0.0
  0
LINE
  5
1E0
  8
0
  6
CONTINUOUS
 62
     7
 10
2369.74268274962
 20
160.399999999988
 30
0.0
 11
2369.74268274962
 21
160.999999999988
 31
0.0
  0
LINE
  5
1E1
  8
0
  6
CONTINUOUS
 62
     7
 10
2350.29268274962
 20
60.9999999999882
 30
0.0
 11
2351.19268274962
 21
60.9999999999882
 31
0.0
  0
LINE
  5
1E2
  8
0
  6
CONTINUOUS
 62
     7
 10
2349.74268274962
 20
60.9999999999882
 30
0.0
 11
2350.29268274962
 21
60.9999999999882
 31
0.0
  0
LINE
  5
1E3
  8
0
  6
CONTINUOUS
 62
     7
 10
2351.19268274962
 20
60.9999999999882
 30
0.0
 11
2351.74268274962
 21
60.9999999999882
 31
0.0
  0
LINE
  5
1E4
  8
0
  6
CONTINUOUS
 62
     7
 10
2349.74268274962
 20
160.999999999988
 30
0.0
 11
2349.74268274962
 21
62.9999999999882
 31
0.0
  0
LINE
  5
1E5
  8
0
  6
CONTINUOUS
 62
     7
 10
2351.74268274962
 20
62.9999999999882
 30
0.0
 11
2351.74268274962
 21
60.9999999999882
 31
0.0
  0
LINE
  5
1E6
  8
0
  6
CONTINUOUS
 62
     7
 10
2351.74268274962
 20
160.399999999988
 30
0.0
 11
2351.74268274962
 21
62.9999999999882
 31
0.0
  0
LINE
  5
1E7
  8
0
  6
CONTINUOUS
 62
     7
 10
2197.74268274962
 20
60.9999999999882
 30
0.0
 11
2349.74268274962
 21
60.9999999999882
 31
0.0
  0
LINE
  5
1E8
  8
0
  6
CONTINUOUS
 62
     7
 10
2197.74268274962
 20
62.9999999999882
 30
0.0
 11
2349.74268274962
 21
62.9999999999882
 31
0.0
  0
LINE
  5
1E9
  8
0
  6
CONTINUOUS
 62
     7
 10
2343.29268274962
 20
160.999999999988
 30
0.0
 11
2204.19268274962
 21
160.999999999988
 31
0.0
  0
LINE
  5
1EA
  8
0
  6
CONTINUOUS
 62
     7
 10
2351.74268274962
 20
160.999999999988
 30
0.0
 11
2344.19268274962
 21
160.999999999988
 31
0.0
  0
LINE
  5
1EB
  8
0
  6
CONTINUOUS
 62
     7
 10
2344.19268274962
 20
160.999999999988
 30
0.0
 11
2343.29268274962
 21
160.999999999988
 31
0.0
  0
LINE
  5
1EC
  8
0
  6
CONTINUOUS
 62
     7
 10
2203.29268274962
 20
160.999999999988
 30
0.0
 11
2195.74268274962
 21
160.999999999988
 31
0.0
  0
LINE
  5
1ED
  8
0
  6
CONTINUOUS
 62
     7
 10
2204.19268274962
 20
160.999999999988
 30
0.0
 11
2203.29268274962
 21
160.999999999988
 31
0.0
  0
LINE
  5
1EE
  8
0
  6
CONTINUOUS
 62
     7
 10
2195.74268274962
 20
160.399999999988
 30
0.0
 11
2195.74268274962
 21
160.999999999988
 31
0.0
  0
LINE
  5
1EF
  8
0
  6
CONTINUOUS
 62
     7
 10
2197.19268274962
 20
60.9999999999882
 30
0.0
 11
2197.74268274962
 21
60.9999999999882
 31
0.0
  0
LINE
  5
1F0
  8
0
  6
CONTINUOUS
 62
     7
 10
2195.74268274962
 20
160.399999999988
 30
0.0
 11
2195.74268274962
 21
62.9999999999882
 31
0.0
  0
LINE
  5
1F1
  8
0
  6
CONTINUOUS
 62
     7
 10
2197.74268274962
 20
160.999999999988
 30
0.0
 11
2197.74268274962
 21
62.9999999999882
 31
0.0
  0
LINE
  5
1F2
  8
0
  6
CONTINUOUS
 62
     7
 10
2196.29268274962
 20
60.9999999999882
 30
0.0
 11
2197.19268274962
 21
60.9999999999882
 31
0.0
  0
LINE
  5
1F3
  8
0
  6
CONTINUOUS
 62
     7
 10
2195.74268274962
 20
60.9999999999882
 30
0.0
 11
2196.29268274962
 21
60.9999999999882
 31
0.0
  0
LINE
  5
1F4
  8
0
  6
CONTINUOUS
 62
     7
 10
2195.74268274962
 20
62.9999999999882
 30
0.0
 11
2195.74268274962
 21
60.9999999999882
 31
0.0
  0
LINE
  5
1F5
  8
0
  6
CONTINUOUS
 62
     7
 10
2351.74268274962
 20
160.399999999988
 30
0.0
 11
2351.74268274962
 21
160.999999999988
 31
0.0
  0
LINE
  5
1F6
  8
0
  6
CONTINUOUS
 62
     7
 10
1061.12178058144
 20
60.9999999999866
 30
0.0
 11
1147.12178058144
 21
60.9999999999866
 31
0.0
  0
LINE
  5
1F7
  8
0
  6
CONTINUOUS
 62
     7
 10
1147.12178058144
 20
60.9999999999866
 30
0.0
 11
1149.12178058144
 21
60.9999999999866
 31
0.0
  0
LINE
  5
1F8
  8
0
  6
CONTINUOUS
 62
     7
 10
2610.08834298648
 20
76.6874664946252
 30
0.0
 11
2610.18778309775
 21
152.3726663540348
 31
0.0
  0
LINE
  5
1F9
  8
0
  6
CONTINUOUS
 62
     7
 10
2585.71605625756
 20
89.1223412594338
 30
0.0
 11
2610.08936598139
 21
77.466081612237
 31
0.0
  0
LINE
  5
1FA
  8
1
  6
CONTINUOUS
 62
     7
 10
2489.5042382223
 20
75.5756541356938
 30
0.0
 11
2513.89751911254
 21
79.1197165984971
 31
0.0
  0
LINE
  5
1FB
  8
1
  6
CONTINUOUS
 62
     7
 10
2515.84007905479
 20
79.4019481607062
 30
0.0
 11
2583.77406372508
 21
89.2719728655388
 31
0.0
  0
LINE
  5
1FC
  8
1
  6
CONTINUOUS
 62
     7
 10
2515.8185174837
 20
62.9911477647787
 30
0.0
 11
2607.87735560707
 21
76.3662355207202
 31
0.0
  0
TEXT
  5
220
  8
1
 62
     2
 10
-282.556911090303
 20
476.238843360402
 30
0.0
 40
200.0
  1
01
 41
0.9
  7
CONVERTER_11
  0
TEXT
  5
221
  8
1
 62
     2
 10
168.402021777988
 20
476.238843360402
 30
0.0
 40
200.0
  1
02b
 41
0.9
  7
CONVERTER_11
  0
TEXT
  5
222
  8
1
 62
     2
 10
795.753755599961
 20
488.050521455876
 30
0.0
 40
200.0
  1
02c
 41
0.9
  7
CONVERTER_11
  0
TEXT
  5
223
  8
1
 62
     2
 10
1462.14772275467
 20
488.050521455876
 30
0.0
 40
200.0
  1
04
 41
0.9
  7
CONVERTER_11
  0
TEXT
  5
224
  8
1
 62
     2
 10
2142.65200800627
 20
485.097601932007
 30
0.0
 40
200.0
  1
06
 41
0.9
  7
CONVERTER_11
  0
TEXT
  5
225
  8
1
 62
     2
 10
-1495.95160080654
 20
94.937327892931
 30
0.0
 40
200.0
  1
t938
 41
0.9
  7
CONVERTER_11
  0
ENDSEC
  0
EOF
